  0
SECTION
  2
HEADER
  9
$ACADVER
  1
AC1006
  9
$DWGCODEPAGE
  3
ansi_932
  9
$INSBASE
 10
0.0
 20
0.0
 30
0.0
  9
$EXTMIN
 10
51.0
 20
88.52727272727272
  9
$EXTMAX
 10
156.0
 20
229.0
  9
$LIMMIN
 10
0.0
 20
0.0
  9
$LIMMAX
 10
12.0
 20
9.0
  9
$ORTHOMODE
 70
     0
  9
$REGENMODE
 70
     1
  9
$FILLMODE
 70
     1
  9
$QTEXTMODE
 70
     0
  9
$MIRRTEXT
 70
     1
  9
$DRAGMODE
 70
     2
  9
$LTSCALE
 40
1.0
  9
$OSMODE
 70
    37
  9
$ATTMODE
 70
     1
  9
$TEXTSIZE
 40
0.2
  9
$TRACEWID
 40
0.05
  9
$TEXTSTYLE
  7
STANDARD
  9
$CLAYER
  8
0
  9
$CELTYPE
  6
BYLAYER
  9
$CECOLOR
 62
   256
  9
$DIMSCALE
 40
1.0
  9
$DIMASZ
 40
3.0
  9
$DIMEXO
 40
0.0625
  9
$DIMDLI
 40
0.38
  9
$DIMRND
 40
0.0
  9
$DIMDLE
 40
0.0
  9
$DIMEXE
 40
0.18
  9
$DIMTP
 40
0.0
  9
$DIMTM
 40
0.0
  9
$DIMTXT
 40
3.0
  9
$DIMCEN
 40
0.09
  9
$DIMTSZ
 40
0.0
  9
$DIMTOL
 70
     0
  9
$DIMLIM
 70
     0
  9
$DIMTIH
 70
     1
  9
$DIMTOH
 70
     1
  9
$DIMSE1
 70
     0
  9
$DIMSE2
 70
     0
  9
$DIMTAD
 70
     1
  9
$DIMZIN
 70
     0
  9
$DIMBLK
  1

  9
$DIMASO
 70
     1
  9
$DIMSHO
 70
     1
  9
$DIMPOST
  1

  9
$DIMAPOST
  1

  9
$DIMALT
 70
     0
  9
$DIMALTD
 70
     2
  9
$DIMALTF
 40
25.4
  9
$DIMLFAC
 40
1.0
  9
$DIMTOFL
 70
     0
  9
$DIMTVP
 40
0.0
  9
$DIMTIX
 70
     0
  9
$DIMSOXD
 70
     0
  9
$DIMSAH
 70
     0
  9
$DIMBLK1
  1

  9
$DIMBLK2
  1

  9
$LUNITS
 70
     2
  9
$LUPREC
 70
     4
  9
$SKETCHINC
 40
0.1
  9
$FILLETRAD
 40
0.5
  9
$AUNITS
 70
     0
  9
$AUPREC
 70
     0
  9
$MENU
  1
.
  9
$ELEVATION
 40
0.0
  9
$THICKNESS
 40
0.0
  9
$LIMCHECK
 70
     0
  9
$CHAMFERA
 40
0.5
  9
$CHAMFERB
 40
0.5
  9
$SKPOLY
 70
     0
  9
$TDCREATE
 40
2459898.7345675
  9
$TDUPDATE
 40
2459898.734567511
  9
$TDINDWG
 40
0.0000000116
  9
$TDUSRTIMER
 40
0.0000000116
  9
$USRTIMER
 70
     1
  9
$ANGBASE
 50
0.0
  9
$ANGDIR
 70
     0
  9
$PDMODE
 70
     0
  9
$PDSIZE
 40
0.0
  9
$PLINEWID
 40
0.0
  9
$COORDS
 70
     1
  9
$SPLFRAME
 70
     0
  9
$SPLINETYPE
 70
     6
  9
$SPLINESEGS
 70
     8
  9
$ATTDIA
 70
     0
  9
$ATTREQ
 70
     1
  9
$HANDLING
 70
     1
  9
$HANDSEED
  5
131
  9
$SURFTAB1
 70
     6
  9
$SURFTAB2
 70
     6
  9
$SURFTYPE
 70
     6
  9
$SURFU
 70
     6
  9
$SURFV
 70
     6
  9
$UCSNAME
  2

  9
$UCSORG
 10
0.0
 20
0.0
 30
0.0
  9
$UCSXDIR
 10
1.0
 20
0.0
 30
0.0
  9
$UCSYDIR
 10
0.0
 20
1.0
 30
0.0
  9
$USERI1
 70
     0
  9
$USERI2
 70
     0
  9
$USERI3
 70
     0
  9
$USERI4
 70
     0
  9
$USERI5
 70
     0
  9
$USERR1
 40
0.0
  9
$USERR2
 40
0.0
  9
$USERR3
 40
0.0
  9
$USERR4
 40
0.0
  9
$USERR5
 40
0.0
  9
$WORLDVIEW
 70
     1
  0
ENDSEC
  0
SECTION
  2
TABLES
  0
TABLE
  2
VPORT
 70
     1
  0
VPORT
  2
*ACTIVE
 70
     0
 10
0.0
 20
0.0
 11
1.0
 21
1.0
 12
103.5
 22
158.7636363636364
 13
0.0
 23
0.0
 14
0.5
 24
0.5
 15
0.5
 25
0.5
 16
0.0
 26
0.0
 36
1.0
 17
0.0
 27
0.0
 37
0.0
 40
140.4727272727272
 41
1.6
 42
50.0
 43
0.0
 44
0.0
 50
0.0
 51
0.0
 71
     0
 72
   100
 73
     1
 74
     3
 75
     0
 76
     0
 77
     0
 78
     0
  0
ENDTAB
  0
TABLE
  2
LTYPE
 70
     4
  0
LTYPE
  2
CONTINUOUS
 70
     0
  3
Solid line
 72
    65
 73
     0
 40
0.0
  0
LTYPE
  2
________________0
 70
     0
  3

 72
    65
 73
     4
 40
7.2
 49
2.7
 49
-1.8
 49
0.8999999999999999
 49
-1.8
  0
LTYPE
  2
________________
 70
     0
  3

 72
    65
 73
     0
 40
0.0
  0
LTYPE
  2
________________1
 70
     0
  3

 72
    65
 73
     2
 40
1.8
 49
0.8999999999999999
 49
-0.8999999999999999
  0
ENDTAB
  0
TABLE
  2
LAYER
 70
     2
  0
LAYER
  2
0
 70
     0
 62
     7
  6
CONTINUOUS
  0
LAYER
  2
1
 70
     0
 62
     7
  6
CONTINUOUS
  0
ENDTAB
  0
TABLE
  2
STYLE
 70
     2
  0
STYLE
  2
STANDARD
 70
     0
 40
0.0
 41
1.0
 50
0.0
 71
     0
 42
0.2
  3
txt
  4

  0
STYLE
  2
EXPLODED0
 70
     0
 40
0.2
 41
1.0
 50
0.0
 71
     0
 42
0.2
  3
ＭＳ ゴシック
  4

  0
ENDTAB
  0
TABLE
  2
VIEW
 70
     0
  0
ENDTAB
  0
TABLE
  2
UCS
 70
     0
  0
ENDTAB
  0
ENDSEC
  0
SECTION
  2
BLOCKS
  0
BLOCK
  8
0
  2
_1621
 70
     0
 10
0.0
 20
0.0
 30
0.0
  0
LINE
  5
40
  8
1
  6
________________
 62
     7
 10
128.55
 20
163.2
 30
0.0
 11
151.45
 21
163.2
 31
0.0
  0
LINE
  5
42
  8
1
  6
________________
 62
     7
 10
128.55
 20
160.5
 30
0.0
 11
151.45
 21
160.5
 31
0.0
  0
LINE
  5
43
  8
1
  6
________________
 62
     7
 10
128.85
 20
163.5
 30
0.0
 11
151.15
 21
163.5
 31
0.0
  0
LINE
  5
44
  8
1
  6
________________
 62
     7
 10
128.55
 20
151.0
 30
0.0
 11
151.45
 21
151.0
 31
0.0
  0
LINE
  5
45
  8
1
  6
________________
 62
     7
 10
128.55
 20
150.3
 30
0.0
 11
151.45
 21
150.3
 31
0.0
  0
LINE
  5
46
  8
1
  6
________________
 62
     7
 10
133.7550020016016
 20
150.0
 30
0.0
 11
146.2449979983984
 21
150.0
 31
0.0
  0
LINE
  5
47
  8
1
  6
________________
 62
     7
 10
143.0250628144669
 20
131.5
 30
0.0
 11
143.0250628144669
 21
108.0
 31
0.0
  0
LINE
  5
48
  8
1
  6
________________
 62
     7
 10
136.9749371855331
 20
108.0
 30
0.0
 11
143.0250628144669
 21
108.0
 31
0.0
  0
LINE
  5
49
  8
1
  6
________________
 62
     7
 10
136.9749371855331
 20
108.0
 30
0.0
 11
136.9749371855331
 21
131.5
 31
0.0
  0
LINE
  5
4A
  8
1
  6
________________
 62
     7
 10
136.9749371855331
 20
131.5
 30
0.0
 11
143.0250628144669
 21
131.5
 31
0.0
  0
LINE
  5
4B
  8
1
  6
________________
 62
     7
 10
124.5
 20
106.5
 30
0.0
 11
155.5
 21
106.5
 31
0.0
  0
LINE
  5
4C
  8
1
  6
________________
 62
     7
 10
124.0
 20
107.0000000026151
 30
0.0
 11
124.0
 21
107.9999999999999
 31
0.0
  0
LINE
  5
4D
  8
1
  6
________________
 62
     7
 10
124.0
 20
108.0
 30
0.0
 11
127.0250628144669
 21
108.0
 31
0.0
  0
ARC
  5
4E
  8
1
  6
________________
 62
     7
 10
132.0
 20
119.8779900481894
 30
0.0
 40
12.87775786326511
 50
247.2742795208937
 51
292.7257204791063
  0
ARC
  5
4F
  8
1
  6
________________
 62
     7
 10
148.0
 20
119.8779900481894
 30
0.0
 40
12.87775786326505
 50
247.2742795208936
 51
292.7257204791063
  0
LINE
  5
50
  8
1
  6
________________
 62
     7
 10
152.9749371855331
 20
108.0
 30
0.0
 11
156.0
 21
108.0
 31
0.0
  0
LINE
  5
51
  8
1
  6
________________
 62
     7
 10
156.0
 20
107.9999999999999
 30
0.0
 11
156.0
 21
107.0000000024766
 31
0.0
  0
LINE
  5
52
  8
1
  6
________________
 62
     7
 10
143.7079288216526
 20
131.5
 30
0.0
 11
143.7079288216527
 21
136.25
 31
0.0
  0
LINE
  5
53
  8
1
  6
________________
 62
     7
 10
136.2920711783474
 20
136.25
 30
0.0
 11
136.2920711783474
 21
131.5
 31
0.0
  0
LINE
  5
54
  8
1
  6
________________
 62
     7
 10
136.2920711783474
 20
136.25
 30
0.0
 11
143.7079288216527
 21
136.25
 31
0.0
  0
LINE
  5
55
  8
1
  6
________________
 62
     7
 10
156.0
 20
136.9999999973849
 30
0.0
 11
156.0
 21
136.25
 31
0.0
  0
LINE
  5
56
  8
1
  6
________________
 62
     7
 10
124.5
 20
137.5
 30
0.0
 11
155.5
 21
137.5
 31
0.0
  0
LINE
  5
57
  8
1
  6
________________
 62
     7
 10
152.2920711783473
 20
136.25
 30
0.0
 11
156.0
 21
136.25
 31
0.0
  0
ARC
  5
58
  8
1
  6
________________
 62
     7
 10
148.0
 20
124.3376977349537
 30
0.0
 40
12.66194377865529
 50
70.18561609753566
 51
109.8143839024645
  0
ARC
  5
59
  8
1
  6
________________
 62
     7
 10
132.0
 20
124.3376977349533
 30
0.0
 40
12.66194377865568
 50
70.1856160975359
 51
109.8143839024641
  0
LINE
  5
5A
  8
1
  6
________________
 62
     7
 10
124.0
 20
136.25
 30
0.0
 11
127.7079288216526
 21
136.25
 31
0.0
  0
LINE
  5
5B
  8
1
  6
________________
 62
     7
 10
124.0
 20
136.25
 30
0.0
 11
124.0
 21
136.9999999975234
 31
0.0
  0
LINE
  5
5C
  8
1
  6
________________
 62
     7
 10
152.2920711783473
 20
136.25
 30
0.0
 11
152.2920711783473
 21
131.5
 31
0.0
  0
LINE
  5
5D
  8
1
  6
________________
 62
     7
 10
152.9749371855331
 20
131.5
 30
0.0
 11
152.2920711783473
 21
131.5
 31
0.0
  0
LINE
  5
5E
  8
1
  6
________________
 62
     7
 10
152.9749371855331
 20
108.0
 30
0.0
 11
152.9749371855331
 21
131.5
 31
0.0
  0
LINE
  5
5F
  8
1
  6
________________
 62
     7
 10
143.7079288216526
 20
131.5
 30
0.0
 11
143.0250628144669
 21
131.5
 31
0.0
  0
LINE
  5
60
  8
1
  6
________________
 62
     7
 10
127.7079288216526
 20
131.5
 30
0.0
 11
127.0250628144669
 21
131.5
 31
0.0
  0
LINE
  5
61
  8
1
  6
________________
 62
     7
 10
127.7079288216526
 20
131.5
 30
0.0
 11
127.7079288216526
 21
136.25
 31
0.0
  0
LINE
  5
62
  8
1
  6
________________
 62
     7
 10
127.0250628144669
 20
131.5
 30
0.0
 11
127.0250628144669
 21
108.0
 31
0.0
  0
LINE
  5
63
  8
1
  6
________________
 62
     7
 10
136.9749371855331
 20
131.5
 30
0.0
 11
136.2920711783474
 21
131.5
 31
0.0
  0
LINE
  5
64
  8
1
  6
________________
 62
     7
 10
151.45
 20
150.0
 30
0.0
 11
146.2449979983984
 21
150.0
 31
0.0
  0
LINE
  5
65
  8
1
  6
________________
 62
     7
 10
151.45
 20
144.0
 30
0.0
 11
128.55
 21
144.0
 31
0.0
  0
LINE
  5
66
  8
1
  6
________________
 62
     7
 10
133.7550020016016
 20
150.0
 30
0.0
 11
128.55
 21
150.0
 31
0.0
  0
ARC
  5
67
  8
1
  6
________________
 62
     7
 10
-140.0
 20
155.0027904890372
 30
0.0
 40
8.001744352152238
 50
218.6977851549237
 51
321.3022148450761
210
0.0
220
0.0
230
-1.0
  0
LINE
  5
68
  8
1
  6
________________
 62
     7
 10
156.0
 20
131.5
 30
0.0
 11
156.0
 21
136.25
 31
0.0
  0
LINE
  5
69
  8
1
  6
________________
 62
     7
 10
124.0
 20
136.25
 30
0.0
 11
124.0
 21
131.5
 31
0.0
  0
LINE
  5
6A
  8
1
  6
________________
 62
     7
 10
156.0
 20
131.5
 30
0.0
 11
156.0
 21
108.0
 31
0.0
  0
LINE
  5
6B
  8
1
  6
________________
 62
     7
 10
152.9749371855331
 20
131.5
 30
0.0
 11
156.0
 21
131.5
 31
0.0
  0
LINE
  5
6C
  8
1
  6
________________
 62
     7
 10
124.0
 20
108.0
 30
0.0
 11
124.0
 21
131.5
 31
0.0
  0
LINE
  5
6D
  8
1
  6
________________
 62
     7
 10
124.0
 20
131.5
 30
0.0
 11
127.0250628144669
 21
131.5
 31
0.0
  0
LINE
  5
6E
  8
1
  6
________________
 62
     7
 10
128.55
 20
163.2
 30
0.0
 11
128.55
 21
160.5
 31
0.0
  0
LINE
  5
6F
  8
1
  6
________________
 62
     7
 10
151.45
 20
160.5
 30
0.0
 11
151.45
 21
163.2
 31
0.0
  0
LINE
  5
70
  8
1
  6
________________
 62
     7
 10
151.45
 20
163.2
 30
0.0
 11
151.15
 21
163.5
 31
0.0
  0
LINE
  5
71
  8
1
  6
________________
 62
     7
 10
128.85
 20
163.5
 30
0.0
 11
128.55
 21
163.2
 31
0.0
  0
LINE
  5
72
  8
1
  6
________________
 62
     7
 10
128.55
 20
151.0
 30
0.0
 11
128.55
 21
150.3
 31
0.0
  0
LINE
  5
73
  8
1
  6
________________
 62
     7
 10
151.45
 20
150.3
 30
0.0
 11
151.45
 21
151.0
 31
0.0
  0
LINE
  5
74
  8
1
  6
________________
 62
     7
 10
128.55
 20
150.3
 30
0.0
 11
128.85
 21
150.0
 31
0.0
  0
LINE
  5
75
  8
1
  6
________________
 62
     7
 10
151.15
 20
150.0
 30
0.0
 11
151.45
 21
150.3
 31
0.0
  0
LINE
  5
76
  8
1
  6
________________
 62
     7
 10
128.75
 20
160.5
 30
0.0
 11
128.75
 21
151.0
 31
0.0
  0
LINE
  5
77
  8
1
  6
________________
 62
     7
 10
151.25
 20
151.0
 30
0.0
 11
151.25
 21
160.5
 31
0.0
  0
LINE
  5
78
  8
1
  6
________________
 62
     7
 10
124.0
 20
107.0
 30
0.0
 11
124.5
 21
106.5
 31
0.0
  0
LINE
  5
79
  8
1
  6
________________
 62
     7
 10
155.5
 20
106.5
 30
0.0
 11
156.0
 21
107.0
 31
0.0
  0
LINE
  5
7A
  8
1
  6
________________
 62
     7
 10
156.0
 20
137.0
 30
0.0
 11
155.5
 21
137.5
 31
0.0
  0
LINE
  5
7B
  8
1
  6
________________
 62
     7
 10
124.5
 20
137.5
 30
0.0
 11
124.0
 21
137.0
 31
0.0
  0
LINE
  5
7C
  8
1
  6
________________
 62
     7
 10
151.45
 20
144.0
 30
0.0
 11
151.45
 21
150.0
 31
0.0
  0
LINE
  5
7D
  8
1
  6
________________
 62
     7
 10
128.55
 20
150.0
 30
0.0
 11
128.55
 21
144.0
 31
0.0
  0
LINE
  5
7E
  8
1
  6
________________
 62
     7
 10
131.1
 20
144.0
 30
0.0
 11
131.1
 21
137.5
 31
0.0
  0
LINE
  5
7F
  8
1
  6
________________
 62
     7
 10
148.9
 20
137.5
 30
0.0
 11
148.9
 21
144.0
 31
0.0
  0
ENDBLK
  8
0
  0
BLOCK
  8
0
  2
_1672
 70
     0
 10
0.0
 20
0.0
 30
0.0
  0
LINE
  5
87
  8
1
  6
________________
 62
     7
 10
70.26485803603238
 20
218.7960133140388
 30
0.0
 11
77.48514196396764
 21
214.6273804446199
 31
0.0
  0
ARC
  5
88
  8
1
  6
________________
 62
     7
 10
-70.0
 20
210.0
 30
0.0
 40
8.799999999999995
 50
28.27527958217026
 51
91.7247204178297
210
0.0
220
0.0
230
-1.0
  0
LINE
  5
89
  8
1
  6
________________
 62
     7
 10
62.25000000000001
 20
205.831367130581
 30
0.0
 11
62.25000000000001
 21
214.1686328694189
 31
0.0
  0
ARC
  5
8A
  8
1
  6
________________
 62
     7
 10
-70.0
 20
210.0
 30
0.0
 40
8.799999999999997
 50
268.2752795821705
 51
331.7247204178297
210
0.0
220
0.0
230
-1.0
  0
LINE
  5
8B
  8
1
  6
________________
 62
     7
 10
77.48514196396758
 20
205.37261955538
 30
0.0
 11
70.26485803603234
 21
201.2039866859611
 31
0.0
  0
ARC
  5
8C
  8
1
  6
________________
 62
     7
 10
-70.0
 20
210.0
 30
0.0
 40
8.799999999999997
 50
148.2752795821704
 51
211.7247204178301
210
0.0
220
0.0
230
-1.0
  0
CIRCLE
  5
8D
  8
1
  6
________________
 62
     7
 10
70.0
 20
210.0
 30
0.0
 40
9.099999999999996
  0
CIRCLE
  5
8E
  8
1
  6
________________
 62
     7
 10
70.0
 20
210.0
 30
0.0
 40
9.599999999999998
  0
CIRCLE
  5
8F
  8
1
  6
________________
 62
     7
 10
70.0
 20
210.0
 30
0.0
 40
11.15
  0
CIRCLE
  5
90
  8
1
  6
________________
 62
     7
 10
70.0
 20
210.0
 30
0.0
 40
11.44999999999999
  0
ARC
  5
91
  8
1
  6
________________
 62
     7
 10
70.0
 20
210.0
 30
0.0
 40
8.599999999999996
 50
90.00000000000001
 51
154.311334326026
  0
ARC
  5
92
  8
1
  6
________________
 62
     7
 10
70.0
 20
210.0
 30
0.0
 40
8.599999999999998
 50
205.688665673974
 51
274.311334326026
  0
ARC
  5
93
  8
1
  6
________________
 62
     7
 10
70.0
 20
210.0
 30
0.0
 40
8.600000000000005
 50
325.688665673974
 51
34.31133432602593
  0
ARC
  5
94
  8
1
  6
________________
 62
     7
 10
70.0
 20
210.0
 30
0.0
 40
8.600000000000009
 50
85.68866567397406
 51
90.00000000000006
  0
ARC
  5
95
  8
1
  6
________________
 62
     7
 10
-70.0
 20
210.0
 30
0.0
 40
7.250000000000006
 50
90.0
 51
270.0
210
0.0
220
0.0
230
-1.0
  0
ARC
  5
96
  8
1
  6
________________
 62
     7
 10
-70.0
 20
210.0
 30
0.0
 40
7.250000000000006
 50
270.0
 51
90.0
210
0.0
220
0.0
230
-1.0
  0
CIRCLE
  5
97
  8
1
  6
________________
 62
     7
 10
70.0
 20
210.0
 30
0.0
 40
6.024642784226791
  0
CIRCLE
  5
98
  8
1
  6
________________
 62
     7
 10
-70.0
 20
210.0
 30
0.0
 40
5.749999999999991
210
0.0
220
0.0
230
-1.0
  0
ARC
  5
99
  8
1
  6
________________
 62
     7
 10
70.0
 20
210.0
 30
0.0
 40
16.75
 50
227.210553088011
 51
252.7894469119889
  0
LINE
  5
9A
  8
1
  6
________________
 62
     7
 10
58.62162198964889
 20
197.7079288216526
 30
0.0
 11
53.66556508924909
 21
206.2920711783474
 31
0.0
  0
ARC
  5
9B
  8
1
  6
________________
 62
     7
 10
70.0
 20
210.0
 30
0.0
 40
16.75000000000001
 50
167.2105530880109
 51
192.789446911989
  0
LINE
  5
9C
  8
1
  6
________________
 62
     7
 10
53.66556508924911
 20
213.7079288216526
 30
0.0
 11
58.62162198964883
 21
222.2920711783473
 31
0.0
  0
ARC
  5
9D
  8
1
  6
________________
 62
     7
 10
70.0
 20
210.0
 30
0.0
 40
16.75
 50
107.2105530880107
 51
132.7894469119892
  0
LINE
  5
9E
  8
1
  6
________________
 62
     7
 10
65.0439430996003
 20
226.0
 30
0.0
 11
74.95605690039972
 21
226.0
 31
0.0
  0
ARC
  5
9F
  8
1
  6
________________
 62
     7
 10
70.0
 20
210.0
 30
0.0
 40
16.75
 50
47.21055308801073
 51
72.78944691198923
  0
LINE
  5
A0
  8
1
  6
________________
 62
     7
 10
81.37837801035118
 20
222.2920711783473
 30
0.0
 11
86.3344349107509
 21
213.7079288216526
 31
0.0
  0
ARC
  5
A1
  8
1
  6
________________
 62
     7
 10
70.0
 20
210.0
 30
0.0
 40
16.75000000000001
 50
347.210553088011
 51
12.78944691198916
  0
LINE
  5
A2
  8
1
  6
________________
 62
     7
 10
86.33443491075091
 20
206.2920711783474
 30
0.0
 11
81.37837801035113
 21
197.7079288216526
 31
0.0
  0
ARC
  5
A3
  8
1
  6
________________
 62
     7
 10
70.0
 20
210.0
 30
0.0
 40
16.75
 50
287.2105530880111
 51
312.7894469119889
  0
LINE
  5
A4
  8
1
  6
________________
 62
     7
 10
74.95605690039983
 20
194.0
 30
0.0
 11
65.0439430996002
 21
194.0
 31
0.0
  0
CIRCLE
  5
A5
  8
1
  6
________________
 62
     7
 10
70.0
 20
210.0
 30
0.0
 40
15.49999999999997
  0
ARC
  5
A6
  8
1
  6
________________
 62
     7
 10
70.0
 20
210.0
 30
0.0
 40
17.0
 50
229.7499227956425
 51
250.2500772043574
  0
LINE
  5
A7
  8
1
  6
________________
 62
     7
 10
59.01587486271799
 20
197.0250628144669
 30
0.0
 11
58.62162198964888
 21
197.7079288216526
 31
0.0
  0
LINE
  5
A8
  8
1
  6
________________
 62
     7
 10
65.04394309960018
 20
194.0
 30
0.0
 11
64.25543735346199
 21
194.0
 31
0.0
  0
ARC
  5
A9
  8
1
  6
________________
 62
     7
 10
70.0
 20
210.0
 30
0.0
 40
17.00000000000003
 50
109.7499227956424
 51
130.2500772043575
  0
LINE
  5
AA
  8
1
  6
________________
 62
     7
 10
58.62162198964883
 20
222.2920711783473
 30
0.0
 11
59.01587486271797
 21
222.9749371855331
 31
0.0
  0
LINE
  5
AB
  8
1
  6
________________
 62
     7
 10
64.255437353462
 20
226.0
 30
0.0
 11
65.0439430996003
 21
226.0
 31
0.0
  0
ARC
  5
AC
  8
1
  6
________________
 62
     7
 10
-70.0
 20
210.0
 30
0.0
 40
17.0
 50
349.7499227956425
 51
10.25007720435741
210
0.0
220
0.0
230
-1.0
  0
LINE
  5
AD
  8
1
  6
________________
 62
     7
 10
53.27131221617997
 20
213.0250628144669
 30
0.0
 11
53.66556508924911
 21
213.7079288216526
 31
0.0
  0
LINE
  5
AE
  8
1
  6
________________
 62
     7
 10
53.66556508924909
 20
206.2920711783474
 30
0.0
 11
53.27131221617996
 21
206.9749371855331
 31
0.0
  0
ARC
  5
AF
  8
1
  6
________________
 62
     7
 10
70.0
 20
210.0
 30
0.0
 40
17.00000000000002
 50
49.7499227956425
 51
70.25007720435747
  0
LINE
  5
B0
  8
1
  6
________________
 62
     7
 10
74.95605690039973
 20
226.0
 30
0.0
 11
75.74456264653803
 21
226.0
 31
0.0
  0
LINE
  5
B1
  8
1
  6
________________
 62
     7
 10
80.98412513728204
 20
222.9749371855331
 30
0.0
 11
81.37837801035118
 21
222.2920711783473
 31
0.0
  0
ARC
  5
B2
  8
1
  6
________________
 62
     7
 10
70.0
 20
210.0
 30
0.0
 40
16.99999999999999
 50
289.7499227956425
 51
310.2500772043575
  0
LINE
  5
B3
  8
1
  6
________________
 62
     7
 10
81.37837801035114
 20
197.7079288216526
 30
0.0
 11
80.98412513728202
 21
197.0250628144669
 31
0.0
  0
LINE
  5
B4
  8
1
  6
________________
 62
     7
 10
75.74456264653803
 20
194.0
 30
0.0
 11
74.95605690039983
 21
194.0
 31
0.0
  0
ARC
  5
B5
  8
1
  6
________________
 62
     7
 10
70.0
 20
210.0
 30
0.0
 40
17.0
 50
349.7499227956427
 51
10.25007720435752
  0
LINE
  5
B6
  8
1
  6
________________
 62
     7
 10
86.3344349107509
 20
213.7079288216526
 30
0.0
 11
86.72868778382005
 21
213.0250628144669
 31
0.0
  0
LINE
  5
B7
  8
1
  6
________________
 62
     7
 10
86.72868778382004
 20
206.9749371855331
 30
0.0
 11
86.33443491075091
 21
206.2920711783474
 31
0.0
  0
ENDBLK
  8
0
  0
BLOCK
  8
0
  2
_1482
 70
     0
 10
0.0
 20
0.0
 30
0.0
  0
LINE
  5
BC
  8
1
  6
________________
 62
     7
 10
58.85000000000001
 20
163.5
 30
0.0
 11
81.15
 21
163.5
 31
0.0
  0
LINE
  5
BD
  8
1
  6
________________
 62
     7
 10
58.55000000000001
 20
163.2
 30
0.0
 11
81.45
 21
163.2
 31
0.0
  0
LINE
  5
BE
  8
1
  6
________________
 62
     7
 10
58.55000000000001
 20
150.3
 30
0.0
 11
81.44999999999999
 21
150.3
 31
0.0
  0
LINE
  5
BF
  8
1
  6
________________
 62
     7
 10
58.85000000000001
 20
150.0
 30
0.0
 11
60.40299525893626
 21
150.0
 31
0.0
  0
LINE
  5
C0
  8
1
  6
________________
 62
     7
 10
79.59700474106376
 20
150.0
 30
0.0
 11
81.14999999999999
 21
150.0
 31
0.0
  0
LINE
  5
C1
  8
1
  6
________________
 62
     7
 10
58.55000000000001
 20
151.0
 30
0.0
 11
81.44999999999999
 21
151.0
 31
0.0
  0
LINE
  5
C2
  8
1
  6
________________
 62
     7
 10
58.55000000000001
 20
160.5
 30
0.0
 11
81.45
 21
160.5
 31
0.0
  0
LINE
  5
C3
  8
1
  6
________________
 62
     7
 10
65.04394309960018
 20
131.5
 30
0.0
 11
64.25543735346199
 21
131.5
 31
0.0
  0
LINE
  5
C4
  8
1
  6
________________
 62
     7
 10
65.04394309960018
 20
131.5
 30
0.0
 11
65.0439430996002
 21
136.25
 31
0.0
  0
ARC
  5
C5
  8
1
  6
________________
 62
     7
 10
70.0
 20
120.2451349363437
 30
0.0
 40
16.75464728682301
 50
72.79436954367551
 51
107.2056304563244
  0
LINE
  5
C6
  8
1
  6
________________
 62
     7
 10
74.95605690039983
 20
136.25
 30
0.0
 11
74.95605690039983
 21
131.5
 31
0.0
  0
LINE
  5
C7
  8
1
  6
________________
 62
     7
 10
75.74456264653803
 20
131.5
 30
0.0
 11
74.95605690039983
 21
131.5
 31
0.0
  0
LINE
  5
C8
  8
1
  6
________________
 62
     7
 10
75.74456264653803
 20
108.0
 30
0.0
 11
75.74456264653803
 21
131.5
 31
0.0
  0
ARC
  5
C9
  8
1
  6
________________
 62
     7
 10
70.0
 20
124.0035499087324
 30
0.0
 40
17.00334113288585
 50
250.2541193652951
 51
289.7458806347049
  0
LINE
  5
CA
  8
1
  6
________________
 62
     7
 10
64.25543735346199
 20
131.5
 30
0.0
 11
64.25543735346199
 21
108.0
 31
0.0
  0
LINE
  5
CB
  8
1
  6
________________
 62
     7
 10
59.01587486271796
 20
131.5
 30
0.0
 11
64.25543735346197
 21
131.5
 31
0.0
  0
LINE
  5
CC
  8
1
  6
________________
 62
     7
 10
59.01587486271799
 20
108.0
 30
0.0
 11
64.25543735346199
 21
108.0
 31
0.0
  0
LINE
  5
CD
  8
1
  6
________________
 62
     7
 10
59.01587486271799
 20
108.0
 30
0.0
 11
59.01587486271799
 21
131.5
 31
0.0
  0
LINE
  5
CE
  8
1
  6
________________
 62
     7
 10
53.25
 20
136.25
 30
0.0
 11
53.6655650892491
 21
136.25
 31
0.0
  0
LINE
  5
CF
  8
1
  6
________________
 62
     7
 10
54.50000000000004
 20
137.5
 30
0.0
 11
85.49999999999997
 21
137.5
 31
0.0
  0
LINE
  5
D0
  8
1
  6
________________
 62
     7
 10
58.62162198964888
 20
136.25
 30
0.0
 11
65.0439430996002
 21
136.25
 31
0.0
  0
ARC
  5
D1
  8
1
  6
________________
 62
     7
 10
56.14359353944899
 20
132.5279252968985
 30
0.0
 40
4.471517091040569
 50
56.34569837064521
 51
123.6543016293548
  0
LINE
  5
D2
  8
1
  6
________________
 62
     7
 10
86.33443491075091
 20
136.25
 30
0.0
 11
86.75000000000001
 21
136.25
 31
0.0
  0
ARC
  5
D3
  8
1
  6
________________
 62
     7
 10
83.85640646055101
 20
132.5279252968985
 30
0.0
 40
4.471517091040569
 50
56.34569837064521
 51
123.6543016293548
  0
LINE
  5
D4
  8
1
  6
________________
 62
     7
 10
74.95605690039983
 20
136.25
 30
0.0
 11
81.37837801035113
 21
136.25
 31
0.0
  0
LINE
  5
D5
  8
1
  6
________________
 62
     7
 10
81.37837801035114
 20
131.5
 30
0.0
 11
81.37837801035113
 21
136.25
 31
0.0
  0
LINE
  5
D6
  8
1
  6
________________
 62
     7
 10
54.50000000000001
 20
106.5
 30
0.0
 11
85.49999999999999
 21
106.5
 31
0.0
  0
LINE
  5
D7
  8
1
  6
________________
 62
     7
 10
53.0
 20
108.0
 30
0.0
 11
53.27131221617996
 21
108.0
 31
0.0
  0
ARC
  5
D8
  8
1
  6
________________
 62
     7
 10
56.14359353944898
 20
111.6271357487068
 30
0.0
 40
4.626674155324361
 50
231.6247581576145
 51
308.3752418423855
  0
LINE
  5
D9
  8
1
  6
________________
 62
     7
 10
75.74456264653803
 20
108.0
 30
0.0
 11
80.984125137282
 21
108.0
 31
0.0
  0
ARC
  5
DA
  8
1
  6
________________
 62
     7
 10
83.85640646055101
 20
111.6271357487068
 30
0.0
 40
4.626674155324372
 50
231.6247581576146
 51
308.3752418423855
  0
LINE
  5
DB
  8
1
  6
________________
 62
     7
 10
86.72868778382005
 20
108.0
 30
0.0
 11
87.00000000000001
 21
108.0
 31
0.0
  0
LINE
  5
DC
  8
1
  6
________________
 62
     7
 10
58.62162198964889
 20
136.25
 30
0.0
 11
58.62162198964888
 21
131.5
 31
0.0
  0
LINE
  5
DD
  8
1
  6
________________
 62
     7
 10
80.98412513728202
 20
131.5
 30
0.0
 11
80.984125137282
 21
108.0
 31
0.0
  0
LINE
  5
DE
  8
1
  6
________________
 62
     7
 10
75.74456264653803
 20
131.5
 30
0.0
 11
80.98412513728202
 21
131.5
 31
0.0
  0
LINE
  5
DF
  8
1
  6
________________
 62
     7
 10
86.33443491075091
 20
136.25
 30
0.0
 11
86.33443491075091
 21
131.5
 31
0.0
  0
LINE
  5
E0
  8
1
  6
________________
 62
     7
 10
86.72868778382004
 20
131.5
 30
0.0
 11
86.33443491075091
 21
131.5
 31
0.0
  0
LINE
  5
E1
  8
1
  6
________________
 62
     7
 10
86.72868778382004
 20
108.0
 30
0.0
 11
86.72868778382004
 21
131.5
 31
0.0
  0
LINE
  5
E2
  8
1
  6
________________
 62
     7
 10
81.37837801035114
 20
131.5
 30
0.0
 11
80.98412513728202
 21
131.5
 31
0.0
  0
LINE
  5
E3
  8
1
  6
________________
 62
     7
 10
53.66556508924909
 20
131.5
 30
0.0
 11
53.27131221617996
 21
131.5
 31
0.0
  0
LINE
  5
E4
  8
1
  6
________________
 62
     7
 10
53.66556508924909
 20
131.5
 30
0.0
 11
53.66556508924909
 21
136.25
 31
0.0
  0
LINE
  5
E5
  8
1
  6
________________
 62
     7
 10
53.27131221617996
 20
131.5
 30
0.0
 11
53.27131221617996
 21
108.0
 31
0.0
  0
LINE
  5
E6
  8
1
  6
________________
 62
     7
 10
59.01587486271799
 20
131.5
 30
0.0
 11
58.62162198964888
 21
131.5
 31
0.0
  0
ARC
  5
E7
  8
1
  6
________________
 62
     7
 10
-104.7303249619701
 20
163.4517091652821
 30
0.0
 40
28.50670561103042
 50
324.7519661225619
 51
331.8436792076455
210
0.0
220
0.0
230
-1.0
  0
LINE
  5
E8
  8
1
  6
________________
 62
     7
 10
81.45
 20
144.0
 30
0.0
 11
70.0
 21
144.0
 31
0.0
  0
ARC
  5
E9
  8
1
  6
________________
 62
     7
 10
-35.12182755051296
 20
163.5430293964203
 30
0.0
 40
28.68015142801252
 50
208.1777918512033
 51
215.2265628185895
210
0.0
220
0.0
230
-1.0
  0
LINE
  5
EA
  8
1
  6
________________
 62
     7
 10
79.59700474106376
 20
150.0
 30
0.0
 11
60.40299525893627
 21
150.0
 31
0.0
  0
LINE
  5
EB
  8
1
  6
________________
 62
     7
 10
70.0
 20
144.0
 30
0.0
 11
58.55
 21
144.0
 31
0.0
  0
LINE
  5
EC
  8
1
  6
________________
 62
     7
 10
53.27131221617998
 20
131.5
 30
0.0
 11
53.00000000000001
 21
131.5
 31
0.0
  0
LINE
  5
ED
  8
1
  6
________________
 62
     7
 10
86.72868778382008
 20
131.5
 30
0.0
 11
87.00000000000003
 21
131.5
 31
0.0
  0
LINE
  5
EE
  8
1
  6
________________
 62
     7
 10
81.45
 20
163.2
 30
0.0
 11
81.15
 21
163.5
 31
0.0
  0
LINE
  5
EF
  8
1
  6
________________
 62
     7
 10
58.85000000000001
 20
163.5
 30
0.0
 11
58.55000000000002
 21
163.2
 31
0.0
  0
LINE
  5
F0
  8
1
  6
________________
 62
     7
 10
58.55000000000001
 20
150.3
 30
0.0
 11
58.85000000000001
 21
150.0
 31
0.0
  0
LINE
  5
F1
  8
1
  6
________________
 62
     7
 10
81.14999999999999
 20
150.0
 30
0.0
 11
81.44999999999999
 21
150.3
 31
0.0
  0
LINE
  5
F2
  8
1
  6
________________
 62
     7
 10
58.55000000000001
 20
151.0
 30
0.0
 11
58.55000000000001
 21
150.3
 31
0.0
  0
LINE
  5
F3
  8
1
  6
________________
 62
     7
 10
81.44999999999999
 20
150.3
 30
0.0
 11
81.44999999999999
 21
151.0
 31
0.0
  0
LINE
  5
F4
  8
1
  6
________________
 62
     7
 10
58.55000000000001
 20
163.2
 30
0.0
 11
58.55000000000001
 21
160.5
 31
0.0
  0
LINE
  5
F5
  8
1
  6
________________
 62
     7
 10
81.45
 20
160.5
 30
0.0
 11
81.45
 21
163.2
 31
0.0
  0
LINE
  5
F6
  8
1
  6
________________
 62
     7
 10
58.75000000000001
 20
160.5
 30
0.0
 11
58.75000000000001
 21
151.0
 31
0.0
  0
LINE
  5
F7
  8
1
  6
________________
 62
     7
 10
81.25
 20
151.0
 30
0.0
 11
81.25
 21
160.5
 31
0.0
  0
LINE
  5
F8
  8
1
  6
________________
 62
     7
 10
86.75000000000001
 20
136.25
 30
0.0
 11
85.49999999999997
 21
137.5
 31
0.0
  0
LINE
  5
F9
  8
1
  6
________________
 62
     7
 10
54.50000000000004
 20
137.5
 30
0.0
 11
53.25
 21
136.25
 31
0.0
  0
LINE
  5
FA
  8
1
  6
________________
 62
     7
 10
53.0
 20
108.0
 30
0.0
 11
54.50000000000001
 21
106.5
 31
0.0
  0
LINE
  5
FB
  8
1
  6
________________
 62
     7
 10
85.49999999999999
 20
106.5
 30
0.0
 11
86.99999999999999
 21
108.0
 31
0.0
  0
LINE
  5
FC
  8
1
  6
________________
 62
     7
 10
81.45
 20
144.0
 30
0.0
 11
81.45
 21
147.0005660971918
 31
0.0
  0
LINE
  5
FD
  8
1
  6
________________
 62
     7
 10
58.55
 20
147.0005660971918
 30
0.0
 11
58.55
 21
144.0
 31
0.0
  0
LINE
  5
FE
  8
1
  6
________________
 62
     7
 10
61.10000000000001
 20
144.0
 30
0.0
 11
61.10000000000001
 21
137.5
 31
0.0
  0
LINE
  5
FF
  8
1
  6
________________
 62
     7
 10
78.9
 20
137.5
 30
0.0
 11
78.9
 21
144.0
 31
0.0
  0
LINE
  5
100
  8
1
  6
________________
 62
     7
 10
86.75000000000001
 20
131.5
 30
0.0
 11
86.75000000000001
 21
136.25
 31
0.0
  0
LINE
  5
101
  8
1
  6
________________
 62
     7
 10
53.25
 20
136.25
 30
0.0
 11
53.25
 21
131.5
 31
0.0
  0
LINE
  5
102
  8
1
  6
________________
 62
     7
 10
53.00000000000001
 20
131.5
 30
0.0
 11
53.00000000000001
 21
108.0
 31
0.0
  0
LINE
  5
103
  8
1
  6
________________
 62
     7
 10
87.0
 20
108.0
 30
0.0
 11
87.0
 21
131.5
 31
0.0
  0
ENDBLK
  8
0
  0
ENDSEC
  0
SECTION
  2
ENTITIES
  0
LINE
  5
3C
  8
1
  6
________________0
 62
     1
 10
70.0
 20
168.5
 30
0.0
 11
70.0
 21
101.5
 31
0.0
  0
LINE
  5
3E
  8
1
  6
________________0
 62
     1
 10
140.0
 20
101.5
 30
0.0
 11
140.0
 21
168.5
 31
0.0
  0
INSERT
  5
80
  8
0
  6
________________1
 62
     7
  2
_1621
 10
0.0
 20
0.0
 30
0.0
  0
LINE
  5
82
  8
1
  6
________________0
 62
     1
 10
51.0
 20
210.0
 30
0.0
 11
89.00000000000001
 21
210.0
 31
0.0
  0
LINE
  5
83
  8
1
  6
________________0
 62
     1
 10
70.0
 20
191.0
 30
0.0
 11
70.0
 21
229.0
 31
0.0
  0
INSERT
  5
B8
  8
0
  6
________________1
 62
     7
  2
_1672
 10
0.0
 20
0.0
 30
0.0
  0
INSERT
  5
104
  8
0
  6
________________1
 62
     7
  2
_1482
 10
0.0
 20
0.0
 30
0.0
  0
TEXT
  5
105
  8
0
 62
   211
 10
95.49954545454544
 20
88.18636363636364
 30
0.0
 40
3.0
  1
WMRM-13A-15
  7
EXPLODED0
  0
ENDSEC
  0
EOF
