  0
SECTION
  2
HEADER
  9
$ACADVER
  1
AC1006
  9
$DWGCODEPAGE
  3
ansi_932
  9
$INSBASE
 10
0.0
 20
0.0
 30
0.0
  9
$EXTMIN
 10
60.99999999999997
 20
110.0272727272727
  9
$EXTMAX
 10
151.0
 20
244.0
  9
$LIMMIN
 10
0.0
 20
0.0
  9
$LIMMAX
 10
12.0
 20
9.0
  9
$ORTHOMODE
 70
     0
  9
$REGENMODE
 70
     1
  9
$FILLMODE
 70
     1
  9
$QTEXTMODE
 70
     0
  9
$MIRRTEXT
 70
     1
  9
$DRAGMODE
 70
     2
  9
$LTSCALE
 40
1.0
  9
$OSMODE
 70
    37
  9
$ATTMODE
 70
     1
  9
$TEXTSIZE
 40
0.2
  9
$TRACEWID
 40
0.05
  9
$TEXTSTYLE
  7
STANDARD
  9
$CLAYER
  8
0
  9
$CELTYPE
  6
BYLAYER
  9
$CECOLOR
 62
   256
  9
$DIMSCALE
 40
1.0
  9
$DIMASZ
 40
3.0
  9
$DIMEXO
 40
0.0625
  9
$DIMDLI
 40
0.38
  9
$DIMRND
 40
0.0
  9
$DIMDLE
 40
0.0
  9
$DIMEXE
 40
0.18
  9
$DIMTP
 40
0.0
  9
$DIMTM
 40
0.0
  9
$DIMTXT
 40
3.0
  9
$DIMCEN
 40
0.09
  9
$DIMTSZ
 40
0.0
  9
$DIMTOL
 70
     0
  9
$DIMLIM
 70
     0
  9
$DIMTIH
 70
     1
  9
$DIMTOH
 70
     1
  9
$DIMSE1
 70
     0
  9
$DIMSE2
 70
     0
  9
$DIMTAD
 70
     1
  9
$DIMZIN
 70
     0
  9
$DIMBLK
  1

  9
$DIMASO
 70
     1
  9
$DIMSHO
 70
     1
  9
$DIMPOST
  1

  9
$DIMAPOST
  1

  9
$DIMALT
 70
     0
  9
$DIMALTD
 70
     2
  9
$DIMALTF
 40
25.4
  9
$DIMLFAC
 40
1.0
  9
$DIMTOFL
 70
     0
  9
$DIMTVP
 40
0.0
  9
$DIMTIX
 70
     0
  9
$DIMSOXD
 70
     0
  9
$DIMSAH
 70
     0
  9
$DIMBLK1
  1

  9
$DIMBLK2
  1

  9
$LUNITS
 70
     2
  9
$LUPREC
 70
     4
  9
$SKETCHINC
 40
0.1
  9
$FILLETRAD
 40
0.5
  9
$AUNITS
 70
     0
  9
$AUPREC
 70
     0
  9
$MENU
  1
.
  9
$ELEVATION
 40
0.0
  9
$THICKNESS
 40
0.0
  9
$LIMCHECK
 70
     0
  9
$CHAMFERA
 40
0.5
  9
$CHAMFERB
 40
0.5
  9
$SKPOLY
 70
     0
  9
$TDCREATE
 40
2460087.738207824
  9
$TDUPDATE
 40
2460087.738207836
  9
$TDINDWG
 40
0.0000000116
  9
$TDUSRTIMER
 40
0.0000000116
  9
$USRTIMER
 70
     1
  9
$ANGBASE
 50
0.0
  9
$ANGDIR
 70
     0
  9
$PDMODE
 70
     0
  9
$PDSIZE
 40
0.0
  9
$PLINEWID
 40
0.0
  9
$COORDS
 70
     1
  9
$SPLFRAME
 70
     0
  9
$SPLINETYPE
 70
     6
  9
$SPLINESEGS
 70
     8
  9
$ATTDIA
 70
     0
  9
$ATTREQ
 70
     1
  9
$HANDLING
 70
     1
  9
$HANDSEED
  5
12B
  9
$SURFTAB1
 70
     6
  9
$SURFTAB2
 70
     6
  9
$SURFTYPE
 70
     6
  9
$SURFU
 70
     6
  9
$SURFV
 70
     6
  9
$UCSNAME
  2

  9
$UCSORG
 10
0.0
 20
0.0
 30
0.0
  9
$UCSXDIR
 10
1.0
 20
0.0
 30
0.0
  9
$UCSYDIR
 10
0.0
 20
1.0
 30
0.0
  9
$USERI1
 70
     0
  9
$USERI2
 70
     0
  9
$USERI3
 70
     0
  9
$USERI4
 70
     0
  9
$USERI5
 70
     0
  9
$USERR1
 40
0.0
  9
$USERR2
 40
0.0
  9
$USERR3
 40
0.0
  9
$USERR4
 40
0.0
  9
$USERR5
 40
0.0
  9
$WORLDVIEW
 70
     1
  0
ENDSEC
  0
SECTION
  2
TABLES
  0
TABLE
  2
VPORT
 70
     1
  0
VPORT
  2
*ACTIVE
 70
     0
 10
0.0
 20
0.0
 11
1.0
 21
1.0
 12
106.0
 22
177.0136363636364
 13
0.0
 23
0.0
 14
0.5
 24
0.5
 15
0.5
 25
0.5
 16
0.0
 26
0.0
 36
1.0
 17
0.0
 27
0.0
 37
0.0
 40
133.9727272727273
 41
1.6
 42
50.0
 43
0.0
 44
0.0
 50
0.0
 51
0.0
 71
     0
 72
   100
 73
     1
 74
     3
 75
     0
 76
     0
 77
     0
 78
     0
  0
ENDTAB
  0
TABLE
  2
LTYPE
 70
     4
  0
LTYPE
  2
CONTINUOUS
 70
     0
  3
Solid line
 72
    65
 73
     0
 40
0.0
  0
LTYPE
  2
________________
 70
     0
  3

 72
    65
 73
     0
 40
0.0
  0
LTYPE
  2
________________0
 70
     0
  3

 72
    65
 73
     2
 40
1.8
 49
0.8999999999999999
 49
-0.8999999999999999
  0
LTYPE
  2
________________1
 70
     0
  3

 72
    65
 73
     4
 40
7.2
 49
2.7
 49
-1.8
 49
0.8999999999999999
 49
-1.8
  0
ENDTAB
  0
TABLE
  2
LAYER
 70
     2
  0
LAYER
  2
0
 70
     0
 62
     7
  6
CONTINUOUS
  0
LAYER
  2
1
 70
     0
 62
     7
  6
CONTINUOUS
  0
ENDTAB
  0
TABLE
  2
STYLE
 70
     2
  0
STYLE
  2
STANDARD
 70
     0
 40
0.0
 41
1.0
 50
0.0
 71
     0
 42
0.2
  3
txt
  4

  0
STYLE
  2
EXPLODED0
 70
     0
 40
0.2
 41
1.0
 50
0.0
 71
     0
 42
0.2
  3
ＭＳ ゴシック
  4

  0
ENDTAB
  0
TABLE
  2
VIEW
 70
     0
  0
ENDTAB
  0
TABLE
  2
UCS
 70
     0
  0
ENDTAB
  0
ENDSEC
  0
SECTION
  2
BLOCKS
  0
BLOCK
  8
0
  2
_1482
 70
     0
 10
0.0
 20
0.0
 30
0.0
  0
LINE
  5
3D
  8
1
  6
________________
 62
     7
 10
66.20000000000007
 20
177.0
 30
0.0
 11
93.79999999999993
 21
177.0
 31
0.0
  0
LINE
  5
3F
  8
1
  6
________________
 62
     7
 10
66.20000000000007
 20
176.3
 30
0.0
 11
93.79999999999993
 21
176.3
 31
0.0
  0
LINE
  5
40
  8
1
  6
________________
 62
     7
 10
66.50000000000004
 20
176.0
 30
0.0
 11
68.19153134858352
 21
176.0
 31
0.0
  0
LINE
  5
41
  8
1
  6
________________
 62
     7
 10
91.80847009423498
 20
176.0
 30
0.0
 11
93.49999999999997
 21
176.0
 31
0.0
  0
LINE
  5
42
  8
1
  6
________________
 62
     7
 10
66.20000000000007
 20
189.2
 30
0.0
 11
93.79999999999993
 21
189.2
 31
0.0
  0
LINE
  5
43
  8
1
  6
________________
 62
     7
 10
66.20000000000007
 20
186.4999999999
 30
0.0
 11
93.79999999999993
 21
186.4999999999
 31
0.0
  0
LINE
  5
44
  8
1
  6
________________
 62
     7
 10
66.50000000000004
 20
189.5
 30
0.0
 11
93.49999999999996
 21
189.5
 31
0.0
  0
LINE
  5
45
  8
1
  6
________________
 62
     7
 10
75.04394309960017
 20
155.5
 30
0.0
 11
74.25543735346197
 21
155.5
 31
0.0
  0
LINE
  5
46
  8
1
  6
________________
 62
     7
 10
75.04394309960017
 20
155.5
 30
0.0
 11
75.04394309960018
 21
160.25
 31
0.0
  0
ARC
  5
47
  8
1
  6
________________
 62
     7
 10
80.00000000000001
 20
144.2499948982002
 30
0.0
 40
16.75000487336107
 50
72.78945207558877
 51
107.2105479244113
  0
LINE
  5
48
  8
1
  6
________________
 62
     7
 10
84.95605690039983
 20
160.25
 30
0.0
 11
84.95605690039983
 21
155.5
 31
0.0
  0
LINE
  5
49
  8
1
  6
________________
 62
     7
 10
85.74456264653803
 20
155.5
 30
0.0
 11
84.95605690039983
 21
155.5
 31
0.0
  0
LINE
  5
4A
  8
1
  6
________________
 62
     7
 10
85.74456264653803
 20
132.0
 30
0.0
 11
85.74456264653803
 21
155.5
 31
0.0
  0
ARC
  5
4B
  8
1
  6
________________
 62
     7
 10
80.0
 20
148.0002364317137
 30
0.0
 40
17.00022252415359
 50
250.2503464705349
 51
289.7496535294652
  0
LINE
  5
4C
  8
1
  6
________________
 62
     7
 10
74.25543735346197
 20
155.5
 30
0.0
 11
74.25543735346197
 21
132.0
 31
0.0
  0
LINE
  5
4D
  8
1
  6
________________
 62
     7
 10
69.01587486271795
 20
155.5
 30
0.0
 11
74.25543735346196
 21
155.5
 31
0.0
  0
LINE
  5
4E
  8
1
  6
________________
 62
     7
 10
69.01587486271798
 20
132.0
 30
0.0
 11
74.25543735346197
 21
132.0
 31
0.0
  0
LINE
  5
4F
  8
1
  6
________________
 62
     7
 10
69.01587486271798
 20
132.0
 30
0.0
 11
69.01587486271798
 21
155.5
 31
0.0
  0
LINE
  5
50
  8
1
  6
________________
 62
     7
 10
64.5
 20
130.5
 30
0.0
 11
95.49999999999999
 21
130.5
 31
0.0
  0
LINE
  5
51
  8
1
  6
________________
 62
     7
 10
63.0
 20
132.0
 30
0.0
 11
63.27131221617996
 21
132.0
 31
0.0
  0
ARC
  5
52
  8
1
  6
________________
 62
     7
 10
66.14359353944897
 20
135.6271357487069
 30
0.0
 40
4.626674155324469
 50
231.6247581576156
 51
308.3752418423845
  0
LINE
  5
53
  8
1
  6
________________
 62
     7
 10
85.74456264653803
 20
132.0
 30
0.0
 11
90.984125137282
 21
132.0
 31
0.0
  0
ARC
  5
54
  8
1
  6
________________
 62
     7
 10
93.85640646055101
 20
135.6271357487069
 30
0.0
 40
4.626674155324469
 50
231.6247581576156
 51
308.3752418423845
  0
LINE
  5
55
  8
1
  6
________________
 62
     7
 10
96.72868778382004
 20
132.0
 30
0.0
 11
97.00000000000001
 21
132.0
 31
0.0
  0
LINE
  5
56
  8
1
  6
________________
 62
     7
 10
63.25
 20
160.25
 30
0.0
 11
63.66556508924909
 21
160.25
 31
0.0
  0
LINE
  5
57
  8
1
  6
________________
 62
     7
 10
64.50000000000003
 20
161.5
 30
0.0
 11
95.49999999999997
 21
161.5
 31
0.0
  0
LINE
  5
58
  8
1
  6
________________
 62
     7
 10
68.62162198964889
 20
160.25
 30
0.0
 11
75.04394309960018
 21
160.25
 31
0.0
  0
ARC
  5
59
  8
1
  6
________________
 62
     7
 10
66.14359353944899
 20
156.5279252968985
 30
0.0
 40
4.471517091040569
 50
56.34569837064521
 51
123.6543016293548
  0
LINE
  5
5A
  8
1
  6
________________
 62
     7
 10
96.33443491075091
 20
160.25
 30
0.0
 11
96.75
 21
160.25
 31
0.0
  0
ARC
  5
5B
  8
1
  6
________________
 62
     7
 10
93.85640646055101
 20
156.5279252968985
 30
0.0
 40
4.471517091040569
 50
56.34569837064521
 51
123.6543016293548
  0
LINE
  5
5C
  8
1
  6
________________
 62
     7
 10
84.95605690039983
 20
160.25
 30
0.0
 11
91.37837801035111
 21
160.25
 31
0.0
  0
LINE
  5
5D
  8
1
  6
________________
 62
     7
 10
68.62162198964889
 20
160.25
 30
0.0
 11
68.62162198964889
 21
155.5
 31
0.0
  0
LINE
  5
5E
  8
1
  6
________________
 62
     7
 10
91.37837801035113
 20
155.5
 30
0.0
 11
91.37837801035111
 21
160.25
 31
0.0
  0
LINE
  5
5F
  8
1
  6
________________
 62
     7
 10
90.98412513728202
 20
155.5
 30
0.0
 11
90.984125137282
 21
132.0
 31
0.0
  0
LINE
  5
60
  8
1
  6
________________
 62
     7
 10
85.74456264653803
 20
155.5
 30
0.0
 11
90.98412513728202
 21
155.5
 31
0.0
  0
LINE
  5
61
  8
1
  6
________________
 62
     7
 10
93.79999876689999
 20
173.0000014483338
 30
0.0
 11
91.80847009423496
 21
176.0000014483338
 31
0.0
  0
LINE
  5
62
  8
1
  6
________________
 62
     7
 10
66.1999999985
 20
168.0000014480338
 30
0.0
 11
93.8000000015
 21
168.0000014480338
 31
0.0
  0
LINE
  5
63
  8
1
  6
________________
 62
     7
 10
68.19152990576505
 20
176.0000014483338
 30
0.0
 11
66.20000123310001
 21
173.0000014483338
 31
0.0
  0
LINE
  5
64
  8
1
  6
________________
 62
     7
 10
68.19153096219537
 20
176.0000014483338
 30
0.0
 11
91.80846865141649
 21
176.0000014483338
 31
0.0
  0
LINE
  5
65
  8
1
  6
________________
 62
     7
 10
96.33443491075091
 20
160.25
 30
0.0
 11
96.33443491075091
 21
155.5
 31
0.0
  0
LINE
  5
66
  8
1
  6
________________
 62
     7
 10
96.72868778382004
 20
155.5
 30
0.0
 11
96.33443491075091
 21
155.5
 31
0.0
  0
LINE
  5
67
  8
1
  6
________________
 62
     7
 10
96.72868778382004
 20
132.0
 30
0.0
 11
96.72868778382004
 21
155.5
 31
0.0
  0
LINE
  5
68
  8
1
  6
________________
 62
     7
 10
91.37837801035113
 20
155.5
 30
0.0
 11
90.98412513728202
 21
155.5
 31
0.0
  0
LINE
  5
69
  8
1
  6
________________
 62
     7
 10
63.66556508924909
 20
155.5
 30
0.0
 11
63.27131221617996
 21
155.5
 31
0.0
  0
LINE
  5
6A
  8
1
  6
________________
 62
     7
 10
63.66556508924909
 20
155.5
 30
0.0
 11
63.66556508924909
 21
160.25
 31
0.0
  0
LINE
  5
6B
  8
1
  6
________________
 62
     7
 10
63.27131221617996
 20
155.5
 30
0.0
 11
63.27131221617996
 21
132.0
 31
0.0
  0
LINE
  5
6C
  8
1
  6
________________
 62
     7
 10
69.01587486271798
 20
155.5
 30
0.0
 11
68.62162198964889
 21
155.5
 31
0.0
  0
LINE
  5
6D
  8
1
  6
________________
 62
     7
 10
63.27131221617997
 20
155.5
 30
0.0
 11
63.0
 21
155.5
 31
0.0
  0
LINE
  5
6E
  8
1
  6
________________
 62
     7
 10
96.72868778382006
 20
155.5
 30
0.0
 11
97.00000000000003
 21
155.5
 31
0.0
  0
LINE
  5
6F
  8
1
  6
________________
 62
     7
 10
66.20000000000007
 20
177.0
 30
0.0
 11
66.20000000000007
 21
176.3
 31
0.0
  0
LINE
  5
70
  8
1
  6
________________
 62
     7
 10
93.79999999999993
 20
176.3
 30
0.0
 11
93.79999999999993
 21
177.0
 31
0.0
  0
LINE
  5
71
  8
1
  6
________________
 62
     7
 10
66.20000000000007
 20
176.3
 30
0.0
 11
66.50000000000004
 21
176.0
 31
0.0
  0
LINE
  5
72
  8
1
  6
________________
 62
     7
 10
93.49999999999996
 20
176.0
 30
0.0
 11
93.79999999999993
 21
176.3
 31
0.0
  0
LINE
  5
73
  8
1
  6
________________
 62
     7
 10
66.20000000000007
 20
189.2
 30
0.0
 11
66.20000000000007
 21
186.4999999999
 31
0.0
  0
LINE
  5
74
  8
1
  6
________________
 62
     7
 10
93.79999999999993
 20
186.4999999999
 30
0.0
 11
93.79999999999993
 21
189.2
 31
0.0
  0
LINE
  5
75
  8
1
  6
________________
 62
     7
 10
93.79999999999993
 20
189.2
 30
0.0
 11
93.49999999999996
 21
189.5
 31
0.0
  0
LINE
  5
76
  8
1
  6
________________
 62
     7
 10
66.50000000000004
 20
189.5
 30
0.0
 11
66.20000000000007
 21
189.2
 31
0.0
  0
LINE
  5
77
  8
1
  6
________________
 62
     7
 10
66.40000000000005
 20
186.4999999999
 30
0.0
 11
66.40000000000005
 21
177.0
 31
0.0
  0
LINE
  5
78
  8
1
  6
________________
 62
     7
 10
93.59999999999995
 20
177.0
 30
0.0
 11
93.59999999999995
 21
186.4999999999
 31
0.0
  0
LINE
  5
79
  8
1
  6
________________
 62
     7
 10
63.0
 20
132.0
 30
0.0
 11
64.5
 21
130.5
 31
0.0
  0
LINE
  5
7A
  8
1
  6
________________
 62
     7
 10
95.49999999999999
 20
130.5
 30
0.0
 11
97.0
 21
132.0
 31
0.0
  0
LINE
  5
7B
  8
1
  6
________________
 62
     7
 10
96.75
 20
160.25
 30
0.0
 11
95.49999999999997
 21
161.5
 31
0.0
  0
LINE
  5
7C
  8
1
  6
________________
 62
     7
 10
64.50000000000003
 20
161.5
 30
0.0
 11
63.25
 21
160.25
 31
0.0
  0
LINE
  5
7D
  8
1
  6
________________
 62
     7
 10
66.20000123310001
 20
173.0017261670989
 30
0.0
 11
66.1999999985
 21
168.0000014480338
 31
0.0
  0
LINE
  5
7E
  8
1
  6
________________
 62
     7
 10
93.8000000015
 20
168.0000014480338
 30
0.0
 11
93.79999876689999
 21
173.0017261670989
 31
0.0
  0
LINE
  5
7F
  8
1
  6
________________
 62
     7
 10
68.8499999999
 20
168.0000014480338
 30
0.0
 11
68.8499999999
 21
161.5
 31
0.0
  0
LINE
  5
80
  8
1
  6
________________
 62
     7
 10
91.1500000001
 20
161.5
 30
0.0
 11
91.1500000001
 21
168.0000014480338
 31
0.0
  0
LINE
  5
81
  8
1
  6
________________
 62
     7
 10
96.75
 20
155.5
 30
0.0
 11
96.75
 21
160.25
 31
0.0
  0
LINE
  5
82
  8
1
  6
________________
 62
     7
 10
63.25
 20
160.25
 30
0.0
 11
63.25
 21
155.5
 31
0.0
  0
LINE
  5
83
  8
1
  6
________________
 62
     7
 10
63.0
 20
155.5
 30
0.0
 11
63.0
 21
132.0
 31
0.0
  0
LINE
  5
84
  8
1
  6
________________
 62
     7
 10
97.0
 20
132.0
 30
0.0
 11
97.0
 21
155.5
 31
0.0
  0
ENDBLK
  8
0
  0
BLOCK
  8
0
  2
_1627
 70
     0
 10
0.0
 20
0.0
 30
0.0
  0
LINE
  5
8A
  8
1
  6
________________
 62
     7
 10
121.2000000000001
 20
189.2
 30
0.0
 11
148.7999999999999
 21
189.2
 31
0.0
  0
LINE
  5
8B
  8
1
  6
________________
 62
     7
 10
121.2000000000001
 20
186.4999999999
 30
0.0
 11
148.7999999999999
 21
186.4999999999
 31
0.0
  0
LINE
  5
8C
  8
1
  6
________________
 62
     7
 10
121.5000000000001
 20
189.5
 30
0.0
 11
148.5
 21
189.5
 31
0.0
  0
LINE
  5
8D
  8
1
  6
________________
 62
     7
 10
121.2000000000001
 20
176.3
 30
0.0
 11
148.7999999999999
 21
176.3
 31
0.0
  0
LINE
  5
8E
  8
1
  6
________________
 62
     7
 10
127.8585715714572
 20
176.0
 30
0.0
 11
142.1414284285428
 21
176.0
 31
0.0
  0
LINE
  5
8F
  8
1
  6
________________
 62
     7
 10
121.2000000000001
 20
177.0
 30
0.0
 11
148.7999999999999
 21
177.0
 31
0.0
  0
LINE
  5
90
  8
1
  6
________________
 62
     7
 10
138.0250628144669
 20
155.5
 30
0.0
 11
138.0250628144669
 21
132.0
 31
0.0
  0
LINE
  5
91
  8
1
  6
________________
 62
     7
 10
131.9749371855331
 20
132.0
 30
0.0
 11
138.0250628144669
 21
132.0
 31
0.0
  0
LINE
  5
92
  8
1
  6
________________
 62
     7
 10
131.9749371855331
 20
132.0
 30
0.0
 11
131.9749371855331
 21
155.5
 31
0.0
  0
LINE
  5
93
  8
1
  6
________________
 62
     7
 10
131.9749371855331
 20
155.5
 30
0.0
 11
138.0250628144669
 21
155.5
 31
0.0
  0
LINE
  5
94
  8
1
  6
________________
 62
     7
 10
119.5
 20
130.5
 30
0.0
 11
150.5
 21
130.5
 31
0.0
  0
LINE
  5
95
  8
1
  6
________________
 62
     7
 10
119.0
 20
131.000000002979
 30
0.0
 11
119.0
 21
131.9999999999999
 31
0.0
  0
LINE
  5
96
  8
1
  6
________________
 62
     7
 10
119.0
 20
132.0
 30
0.0
 11
122.0250628144669
 21
132.0
 31
0.0
  0
ARC
  5
97
  8
1
  6
________________
 62
     7
 10
127.0
 20
143.8779900481898
 30
0.0
 40
12.87775786326545
 50
247.2742795208943
 51
292.7257204791057
  0
ARC
  5
98
  8
1
  6
________________
 62
     7
 10
143.0
 20
143.8779900481897
 30
0.0
 40
12.87775786326537
 50
247.2742795208942
 51
292.7257204791057
  0
LINE
  5
99
  8
1
  6
________________
 62
     7
 10
147.9749371855331
 20
132.0
 30
0.0
 11
151.0
 21
132.0
 31
0.0
  0
LINE
  5
9A
  8
1
  6
________________
 62
     7
 10
151.0
 20
131.9999999999999
 30
0.0
 11
151.0
 21
131.0000000034433
 31
0.0
  0
LINE
  5
9B
  8
1
  6
________________
 62
     7
 10
138.7079288216526
 20
155.5
 30
0.0
 11
138.7079288216527
 21
160.25
 31
0.0
  0
LINE
  5
9C
  8
1
  6
________________
 62
     7
 10
131.2920711783474
 20
160.25
 30
0.0
 11
131.2920711783474
 21
155.5
 31
0.0
  0
LINE
  5
9D
  8
1
  6
________________
 62
     7
 10
131.2920711783474
 20
160.25
 30
0.0
 11
138.7079288216527
 21
160.25
 31
0.0
  0
LINE
  5
9E
  8
1
  6
________________
 62
     7
 10
151.0
 20
160.999999997021
 30
0.0
 11
151.0
 21
160.25
 31
0.0
  0
LINE
  5
9F
  8
1
  6
________________
 62
     7
 10
119.5
 20
161.5
 30
0.0
 11
150.5
 21
161.5
 31
0.0
  0
LINE
  5
A0
  8
1
  6
________________
 62
     7
 10
147.2920711783473
 20
160.25
 30
0.0
 11
151.0
 21
160.25
 31
0.0
  0
ARC
  5
A1
  8
1
  6
________________
 62
     7
 10
143.0
 20
148.3376977349537
 30
0.0
 40
12.66194377865528
 50
70.18561609753563
 51
109.8143839024645
  0
ARC
  5
A2
  8
1
  6
________________
 62
     7
 10
127.0
 20
148.3376977349533
 30
0.0
 40
12.6619437786557
 50
70.18561609753591
 51
109.8143839024641
  0
LINE
  5
A3
  8
1
  6
________________
 62
     7
 10
119.0
 20
160.25
 30
0.0
 11
122.7079288216526
 21
160.25
 31
0.0
  0
LINE
  5
A4
  8
1
  6
________________
 62
     7
 10
119.0
 20
160.25
 30
0.0
 11
119.0
 21
160.9999999965432
 31
0.0
  0
LINE
  5
A5
  8
1
  6
________________
 62
     7
 10
147.2920711783473
 20
160.25
 30
0.0
 11
147.2920711783473
 21
155.5
 31
0.0
  0
LINE
  5
A6
  8
1
  6
________________
 62
     7
 10
147.9749371855331
 20
155.5
 30
0.0
 11
147.2920711783473
 21
155.5
 31
0.0
  0
LINE
  5
A7
  8
1
  6
________________
 62
     7
 10
147.9749371855331
 20
132.0
 30
0.0
 11
147.9749371855331
 21
155.5
 31
0.0
  0
LINE
  5
A8
  8
1
  6
________________
 62
     7
 10
138.7079288216526
 20
155.5
 30
0.0
 11
138.0250628144669
 21
155.5
 31
0.0
  0
LINE
  5
A9
  8
1
  6
________________
 62
     7
 10
122.7079288216526
 20
155.5
 30
0.0
 11
122.0250628144669
 21
155.5
 31
0.0
  0
LINE
  5
AA
  8
1
  6
________________
 62
     7
 10
122.7079288216526
 20
155.5
 30
0.0
 11
122.7079288216526
 21
160.25
 31
0.0
  0
LINE
  5
AB
  8
1
  6
________________
 62
     7
 10
122.0250628144669
 20
155.5
 30
0.0
 11
122.0250628144669
 21
132.0
 31
0.0
  0
LINE
  5
AC
  8
1
  6
________________
 62
     7
 10
131.9749371855331
 20
155.5
 30
0.0
 11
131.2920711783474
 21
155.5
 31
0.0
  0
LINE
  5
AD
  8
1
  6
________________
 62
     7
 10
121.2000024677
 20
176.0000014483338
 30
0.0
 11
127.8585715714572
 21
176.0000014483338
 31
0.0
  0
LINE
  5
AE
  8
1
  6
________________
 62
     7
 10
121.1999999985
 20
168.0000014480338
 30
0.0
 11
135.0
 21
168.0000014480338
 31
0.0
  0
ARC
  5
AF
  8
1
  6
________________
 62
     7
 10
-135.0
 20
183.0000014483338
 30
0.0
 40
9.99999999999998
 50
224.4270040008056
 51
315.5729959991943
210
0.0
220
0.0
230
-1.0
  0
LINE
  5
B0
  8
1
  6
________________
 62
     7
 10
142.1414277896437
 20
176.0000014483338
 30
0.0
 11
148.7999975323
 21
176.0000014483338
 31
0.0
  0
LINE
  5
B1
  8
1
  6
________________
 62
     7
 10
135.0
 20
168.0000014480338
 30
0.0
 11
148.8000000015
 21
168.0000014480338
 31
0.0
  0
LINE
  5
B2
  8
1
  6
________________
 62
     7
 10
151.0
 20
155.5
 30
0.0
 11
151.0
 21
160.25
 31
0.0
  0
LINE
  5
B3
  8
1
  6
________________
 62
     7
 10
119.0
 20
160.25
 30
0.0
 11
119.0
 21
155.5
 31
0.0
  0
LINE
  5
B4
  8
1
  6
________________
 62
     7
 10
151.0
 20
155.5
 30
0.0
 11
151.0
 21
132.0
 31
0.0
  0
LINE
  5
B5
  8
1
  6
________________
 62
     7
 10
147.9749371855331
 20
155.5
 30
0.0
 11
151.0
 21
155.5
 31
0.0
  0
LINE
  5
B6
  8
1
  6
________________
 62
     7
 10
119.0
 20
132.0
 30
0.0
 11
119.0
 21
155.5
 31
0.0
  0
LINE
  5
B7
  8
1
  6
________________
 62
     7
 10
119.0
 20
155.5
 30
0.0
 11
122.0250628144669
 21
155.5
 31
0.0
  0
LINE
  5
B8
  8
1
  6
________________
 62
     7
 10
121.2000000000001
 20
189.2
 30
0.0
 11
121.2000000000001
 21
186.4999999999
 31
0.0
  0
LINE
  5
B9
  8
1
  6
________________
 62
     7
 10
148.7999999999999
 20
186.4999999999
 30
0.0
 11
148.7999999999999
 21
189.2
 31
0.0
  0
LINE
  5
BA
  8
1
  6
________________
 62
     7
 10
148.7999999999999
 20
189.2
 30
0.0
 11
148.5
 21
189.5
 31
0.0
  0
LINE
  5
BB
  8
1
  6
________________
 62
     7
 10
121.5000000000001
 20
189.5
 30
0.0
 11
121.2000000000001
 21
189.2
 31
0.0
  0
LINE
  5
BC
  8
1
  6
________________
 62
     7
 10
121.2000000000001
 20
176.3
 30
0.0
 11
121.5000000000001
 21
176.0
 31
0.0
  0
LINE
  5
BD
  8
1
  6
________________
 62
     7
 10
148.5
 20
176.0
 30
0.0
 11
148.7999999999999
 21
176.3
 31
0.0
  0
LINE
  5
BE
  8
1
  6
________________
 62
     7
 10
121.2000000000001
 20
177.0
 30
0.0
 11
121.2000000000001
 21
176.3
 31
0.0
  0
LINE
  5
BF
  8
1
  6
________________
 62
     7
 10
148.7999999999999
 20
176.3
 30
0.0
 11
148.7999999999999
 21
177.0
 31
0.0
  0
LINE
  5
C0
  8
1
  6
________________
 62
     7
 10
121.4000000000001
 20
186.4999999999
 30
0.0
 11
121.4000000000001
 21
177.0
 31
0.0
  0
LINE
  5
C1
  8
1
  6
________________
 62
     7
 10
148.5999999999999
 20
177.0
 30
0.0
 11
148.5999999999999
 21
186.4999999999
 31
0.0
  0
LINE
  5
C2
  8
1
  6
________________
 62
     7
 10
119.0
 20
131.0
 30
0.0
 11
119.5
 21
130.5
 31
0.0
  0
LINE
  5
C3
  8
1
  6
________________
 62
     7
 10
150.5
 20
130.5
 30
0.0
 11
151.0
 21
131.0
 31
0.0
  0
LINE
  5
C4
  8
1
  6
________________
 62
     7
 10
151.0
 20
161.0
 30
0.0
 11
150.5
 21
161.5
 31
0.0
  0
LINE
  5
C5
  8
1
  6
________________
 62
     7
 10
119.5
 20
161.5
 30
0.0
 11
119.0
 21
161.0
 31
0.0
  0
LINE
  5
C6
  8
1
  6
________________
 62
     7
 10
121.2000024677
 20
176.0000014483338
 30
0.0
 11
121.1999999985
 21
168.0000014480338
 31
0.0
  0
LINE
  5
C7
  8
1
  6
________________
 62
     7
 10
148.8000000015
 20
168.0000014480338
 30
0.0
 11
148.7999975323
 21
176.0000014483338
 31
0.0
  0
LINE
  5
C8
  8
1
  6
________________
 62
     7
 10
123.8499999999
 20
168.0000014480338
 30
0.0
 11
123.8499999999
 21
161.5
 31
0.0
  0
LINE
  5
C9
  8
1
  6
________________
 62
     7
 10
146.1500000001
 20
161.5
 30
0.0
 11
146.1500000001
 21
168.0000014480338
 31
0.0
  0
ENDBLK
  8
0
  0
BLOCK
  8
0
  2
_1674
 70
     0
 10
0.0
 20
0.0
 30
0.0
  0
LINE
  5
CE
  8
1
  6
________________
 62
     7
 10
88.75599520765934
 20
218.5082708063
 30
0.0
 11
81.24400479234889
 21
214.1712211179282
 31
0.0
  0
ARC
  5
CF
  8
1
  6
________________
 62
     7
 10
-79.99999999995372
 20
224.9999999999657
 30
0.0
 40
10.90000000005759
 50
143.4466172550143
 51
216.5533827450001
210
0.0
220
0.0
230
-1.0
  0
LINE
  5
D0
  8
1
  6
________________
 62
     7
 10
81.2440047922835
 20
235.8287788820285
 30
0.0
 11
88.75599520765591
 21
231.4917291936254
 31
0.0
  0
ARC
  5
D1
  8
1
  6
________________
 62
     7
 10
-79.99999999994606
 20
225.0000000000234
 30
0.0
 40
10.89999999994121
 50
23.44661725500735
 51
96.55338274499996
210
0.0
220
0.0
230
-1.0
  0
ARC
  5
D2
  8
1
  6
________________
 62
     7
 10
-80.00000000000354
 20
224.9999999999691
 30
0.0
 40
10.89999999996895
 50
263.4466172549802
 51
336.5533827448215
210
0.0
220
0.0
230
-1.0
  0
LINE
  5
D3
  8
1
  6
________________
 62
     7
 10
69.99999999999999
 20
220.6629503115
 30
0.0
 11
69.99999999999999
 21
229.3370496884321
 31
0.0
  0
CIRCLE
  5
D4
  8
1
  6
________________
 62
     7
 10
80.0
 20
225.0
 30
0.0
 40
11.94999999999996
  0
CIRCLE
  5
D5
  8
1
  6
________________
 62
     7
 10
80.0
 20
225.0
 30
0.0
 40
13.49999999999996
  0
CIRCLE
  5
D6
  8
1
  6
________________
 62
     7
 10
80.0
 20
225.0
 30
0.0
 40
13.79999999999992
  0
CIRCLE
  5
D7
  8
1
  6
________________
 62
     7
 10
80.0
 20
225.0
 30
0.0
 40
11.44999999999996
  0
ARC
  5
D8
  8
1
  6
________________
 62
     7
 10
80.0
 20
225.0
 30
0.0
 40
9.10000000149999
 50
90.0
 51
0.0
  0
ARC
  5
D9
  8
1
  6
________________
 62
     7
 10
80.0
 20
225.0
 30
0.0
 40
9.10000000149999
 50
0.0000000000000035
 51
90.0
  0
CIRCLE
  5
DA
  8
1
  6
________________
 62
     7
 10
80.0
 20
225.0
 30
0.0
 40
7.874644005150214
  0
CIRCLE
  5
DB
  8
1
  6
________________
 62
     7
 10
-80.0
 20
225.0
 30
0.0
 40
7.599999999999995
210
0.0
220
0.0
230
-1.0
  0
CIRCLE
  5
DC
  8
1
  6
________________
 62
     7
 10
80.0
 20
225.0
 30
0.0
 40
15.49999999999997
  0
ARC
  5
DD
  8
1
  6
________________
 62
     7
 10
80.0
 20
225.0
 30
0.0
 40
16.75000000000001
 50
227.210553088011
 51
252.7894469119889
  0
LINE
  5
DE
  8
1
  6
________________
 62
     7
 10
68.62162198964889
 20
212.7079288216526
 30
0.0
 11
63.66556508924909
 21
221.2920711783474
 31
0.0
  0
ARC
  5
DF
  8
1
  6
________________
 62
     7
 10
80.0
 20
225.0
 30
0.0
 40
16.75000000000001
 50
167.2105530880109
 51
192.789446911989
  0
LINE
  5
E0
  8
1
  6
________________
 62
     7
 10
63.6655650892491
 20
228.7079288216527
 30
0.0
 11
68.62162198964883
 21
237.2920711783473
 31
0.0
  0
ARC
  5
E1
  8
1
  6
________________
 62
     7
 10
80.0
 20
225.0
 30
0.0
 40
16.75
 50
107.2105530880107
 51
132.7894469119892
  0
LINE
  5
E2
  8
1
  6
________________
 62
     7
 10
75.0439430996003
 20
241.0
 30
0.0
 11
84.95605690039972
 21
241.0
 31
0.0
  0
ARC
  5
E3
  8
1
  6
________________
 62
     7
 10
80.0
 20
225.0
 30
0.0
 40
16.75
 50
47.21055308801073
 51
72.78944691198923
  0
LINE
  5
E4
  8
1
  6
________________
 62
     7
 10
91.37837801035117
 20
237.2920711783473
 30
0.0
 11
96.3344349107509
 21
228.7079288216527
 31
0.0
  0
ARC
  5
E5
  8
1
  6
________________
 62
     7
 10
80.0
 20
225.0
 30
0.0
 40
16.75000000000001
 50
347.210553088011
 51
12.78944691198916
  0
LINE
  5
E6
  8
1
  6
________________
 62
     7
 10
96.33443491075091
 20
221.2920711783474
 30
0.0
 11
91.37837801035111
 21
212.7079288216526
 31
0.0
  0
ARC
  5
E7
  8
1
  6
________________
 62
     7
 10
80.0
 20
225.0
 30
0.0
 40
16.75
 50
287.2105530880111
 51
312.7894469119889
  0
LINE
  5
E8
  8
1
  6
________________
 62
     7
 10
84.95605690039983
 20
209.0
 30
0.0
 11
75.04394309960018
 21
209.0
 31
0.0
  0
ARC
  5
E9
  8
1
  6
________________
 62
     7
 10
80.0
 20
225.0
 30
0.0
 40
16.99999999999999
 50
229.7499227956425
 51
250.2500772043574
  0
LINE
  5
EA
  8
1
  6
________________
 62
     7
 10
69.01587486271798
 20
212.0250628144669
 30
0.0
 11
68.62162198964889
 21
212.7079288216526
 31
0.0
  0
LINE
  5
EB
  8
1
  6
________________
 62
     7
 10
75.04394309960017
 20
209.0
 30
0.0
 11
74.25543735346197
 21
209.0
 31
0.0
  0
ARC
  5
EC
  8
1
  6
________________
 62
     7
 10
-80.0
 20
225.0
 30
0.0
 40
17.0
 50
349.7499227956425
 51
10.25007720435741
210
0.0
220
0.0
230
-1.0
  0
LINE
  5
ED
  8
1
  6
________________
 62
     7
 10
63.27131221617996
 20
228.0250628144669
 30
0.0
 11
63.6655650892491
 21
228.7079288216527
 31
0.0
  0
LINE
  5
EE
  8
1
  6
________________
 62
     7
 10
63.66556508924909
 20
221.2920711783474
 30
0.0
 11
63.27131221617996
 21
221.9749371855331
 31
0.0
  0
ARC
  5
EF
  8
1
  6
________________
 62
     7
 10
80.0
 20
225.0
 30
0.0
 40
17.00000000000003
 50
109.7499227956424
 51
130.2500772043575
  0
LINE
  5
F0
  8
1
  6
________________
 62
     7
 10
68.62162198964883
 20
237.2920711783473
 30
0.0
 11
69.01587486271796
 21
237.9749371855331
 31
0.0
  0
LINE
  5
F1
  8
1
  6
________________
 62
     7
 10
74.255437353462
 20
241.0
 30
0.0
 11
75.04394309960028
 21
241.0
 31
0.0
  0
ARC
  5
F2
  8
1
  6
________________
 62
     7
 10
80.0
 20
225.0
 30
0.0
 40
17.00000000000001
 50
49.7499227956425
 51
70.25007720435747
  0
LINE
  5
F3
  8
1
  6
________________
 62
     7
 10
84.95605690039973
 20
241.0
 30
0.0
 11
85.74456264653803
 21
241.0
 31
0.0
  0
LINE
  5
F4
  8
1
  6
________________
 62
     7
 10
90.98412513728204
 20
237.9749371855331
 30
0.0
 11
91.37837801035117
 21
237.2920711783473
 31
0.0
  0
ARC
  5
F5
  8
1
  6
________________
 62
     7
 10
80.0
 20
225.0
 30
0.0
 40
16.99999999999999
 50
289.7499227956425
 51
310.2500772043575
  0
LINE
  5
F6
  8
1
  6
________________
 62
     7
 10
91.37837801035113
 20
212.7079288216526
 30
0.0
 11
90.98412513728202
 21
212.0250628144669
 31
0.0
  0
LINE
  5
F7
  8
1
  6
________________
 62
     7
 10
85.74456264653803
 20
209.0
 30
0.0
 11
84.95605690039983
 21
209.0
 31
0.0
  0
ARC
  5
F8
  8
1
  6
________________
 62
     7
 10
80.0
 20
225.0
 30
0.0
 40
17.0
 50
349.7499227956427
 51
10.25007720435752
  0
LINE
  5
F9
  8
1
  6
________________
 62
     7
 10
96.33443491075091
 20
228.7079288216526
 30
0.0
 11
96.72868778382004
 21
228.0250628144669
 31
0.0
  0
LINE
  5
FA
  8
1
  6
________________
 62
     7
 10
96.72868778382004
 20
221.9749371855331
 30
0.0
 11
96.33443491075091
 21
221.2920711783474
 31
0.0
  0
ENDBLK
  8
0
  0
ENDSEC
  0
SECTION
  2
ENTITIES
  0
INSERT
  5
85
  8
1
  6
________________0
 62
     7
  2
_1482
 10
0.0
 20
0.0
 30
0.0
  0
INSERT
  5
CA
  8
1
  6
________________0
 62
     7
  2
_1627
 10
0.0
 20
0.0
 30
0.0
  0
INSERT
  5
FB
  8
1
  6
________________0
 62
     7
  2
_1674
 10
0.0
 20
0.0
 30
0.0
  0
LINE
  5
FC
  8
1
  6
________________1
 62
     1
 10
60.99999999999997
 20
225.0
 30
0.0
 11
99.00000000000003
 21
225.0
 31
0.0
  0
LINE
  5
FE
  8
1
  6
________________1
 62
     1
 10
80.0
 20
205.9999999999999
 30
0.0
 11
80.0
 21
244.0
 31
0.0
  0
LINE
  5
FF
  8
1
  6
________________1
 62
     1
 10
80.0
 20
195.0
 30
0.0
 11
80.0
 21
125.0
 31
0.0
  0
LINE
  5
100
  8
1
  6
________________1
 62
     1
 10
135.0
 20
125.0
 30
0.0
 11
135.0
 21
195.0
 31
0.0
  0
TEXT
  5
101
  8
1
 62
     7
 10
99.99727272727273
 20
109.6863636363636
 30
0.0
 40
3.0
  1
WMRM-16H-15
  7
EXPLODED0
  0
ENDSEC
  0
EOF
