  0
SECTION
  2
HEADER
  9
$ACADVER
  1
AC1027
  9
$ACADMAINTVER
 70
   105
  9
$DWGCODEPAGE
  3
ANSI_932
  9
$REQUIREDVERSIONS
160
                 0
  9
$INSBASE
 10
0.0
 20
0.0
 30
0.0
  9
$EXTMIN
 10
-931.0872753246413
 20
-541.1834295915456
 30
0.0
  9
$EXTMAX
 10
-101.0432004104065
 20
360.5175372165596
 30
0.0
  9
$LIMMIN
 10
0.0
 20
0.0
  9
$LIMMAX
 10
12.0
 20
9.0
  9
$ORTHOMODE
 70
     0
  9
$REGENMODE
 70
     1
  9
$FILLMODE
 70
     1
  9
$QTEXTMODE
 70
     0
  9
$MIRRTEXT
 70
     1
  9
$LTSCALE
 40
1.0
  9
$ATTMODE
 70
     1
  9
$TEXTSIZE
 40
0.2
  9
$TRACEWID
 40
0.05
  9
$TEXTSTYLE
  7
Standard
  9
$CLAYER
  8
0
  9
$CELTYPE
  6
ByLayer
  9
$CECOLOR
 62
   256
  9
$CELTSCALE
 40
1.0
  9
$DISPSILH
 70
     0
  9
$DIMSCALE
 40
1.0
  9
$DIMASZ
 40
3.0
  9
$DIMEXO
 40
0.0625
  9
$DIMDLI
 40
0.38
  9
$DIMRND
 40
0.0
  9
$DIMDLE
 40
0.0
  9
$DIMEXE
 40
1.5
  9
$DIMTP
 40
0.0
  9
$DIMTM
 40
0.0
  9
$DIMTXT
 40
3.0
  9
$DIMCEN
 40
0.09
  9
$DIMTSZ
 40
0.0
  9
$DIMTOL
 70
     0
  9
$DIMLIM
 70
     0
  9
$DIMTIH
 70
     1
  9
$DIMTOH
 70
     1
  9
$DIMSE1
 70
     0
  9
$DIMSE2
 70
     0
  9
$DIMTAD
 70
     1
  9
$DIMZIN
 70
     0
  9
$DIMBLK
  1

  9
$DIMASO
 70
     1
  9
$DIMSHO
 70
     1
  9
$DIMPOST
  1

  9
$DIMAPOST
  1

  9
$DIMALT
 70
     0
  9
$DIMALTD
 70
     2
  9
$DIMALTF
 40
25.4
  9
$DIMLFAC
 40
1.0
  9
$DIMTOFL
 70
     0
  9
$DIMTVP
 40
0.0
  9
$DIMTIX
 70
     0
  9
$DIMSOXD
 70
     0
  9
$DIMSAH
 70
     0
  9
$DIMBLK1
  1

  9
$DIMBLK2
  1

  9
$DIMSTYLE
  2
Standard
  9
$DIMCLRD
 70
     0
  9
$DIMCLRE
 70
     0
  9
$DIMCLRT
 70
     0
  9
$DIMTFAC
 40
1.0
  9
$DIMGAP
 40
1.5
  9
$DIMJUST
 70
     0
  9
$DIMSD1
 70
     0
  9
$DIMSD2
 70
     0
  9
$DIMTOLJ
 70
     1
  9
$DIMTZIN
 70
     0
  9
$DIMALTZ
 70
     0
  9
$DIMALTTZ
 70
     0
  9
$DIMUPT
 70
     0
  9
$DIMDEC
 70
     2
  9
$DIMTDEC
 70
     4
  9
$DIMALTU
 70
     2
  9
$DIMALTTD
 70
     2
  9
$DIMTXSTY
  7
ＭＳ ゴシック
  9
$DIMAUNIT
 70
     0
  9
$DIMADEC
 70
     2
  9
$DIMALTRND
 40
0.0
  9
$DIMAZIN
 70
     0
  9
$DIMDSEP
 70
    46
  9
$DIMATFIT
 70
     3
  9
$DIMFRAC
 70
     0
  9
$DIMLDRBLK
  1

  9
$DIMLUNIT
 70
     2
  9
$DIMLWD
 70
    -2
  9
$DIMLWE
 70
    -2
  9
$DIMTMOVE
 70
     0
  9
$DIMFXL
 40
1.0
  9
$DIMFXLON
 70
     0
  9
$DIMJOGANG
 40
0.7853981633974483
  9
$DIMTFILL
 70
     0
  9
$DIMTFILLCLR
 70
     0
  9
$DIMARCSYM
 70
     0
  9
$DIMLTYPE
  6

  9
$DIMLTEX1
  6

  9
$DIMLTEX2
  6

  9
$DIMTXTDIRECTION
 70
     0
  9
$LUNITS
 70
     2
  9
$LUPREC
 70
     4
  9
$SKETCHINC
 40
0.1
  9
$FILLETRAD
 40
0.5
  9
$AUNITS
 70
     0
  9
$AUPREC
 70
     0
  9
$MENU
  1
.
  9
$ELEVATION
 40
0.0
  9
$PELEVATION
 40
0.0
  9
$THICKNESS
 40
0.0
  9
$LIMCHECK
 70
     0
  9
$CHAMFERA
 40
0.0
  9
$CHAMFERB
 40
0.0
  9
$CHAMFERC
 40
0.0
  9
$CHAMFERD
 40
0.0
  9
$SKPOLY
 70
     0
  9
$TDCREATE
 40
2460654.758944479
  9
$TDUCREATE
 40
2460654.383944479
  9
$TDUPDATE
 40
2460654.758945127
  9
$TDUUPDATE
 40
2460654.383945127
  9
$TDINDWG
 40
0.0000000116
  9
$TDUSRTIMER
 40
0.0000000116
  9
$USRTIMER
 70
     1
  9
$ANGBASE
 50
0.0
  9
$ANGDIR
 70
     0
  9
$PDMODE
 70
     0
  9
$PDSIZE
 40
0.0
  9
$PLINEWID
 40
0.0
  9
$SPLFRAME
 70
     0
  9
$SPLINETYPE
 70
     6
  9
$SPLINESEGS
 70
     8
  9
$HANDSEED
  5
413
  9
$SURFTAB1
 70
     6
  9
$SURFTAB2
 70
     6
  9
$SURFTYPE
 70
     6
  9
$SURFU
 70
     6
  9
$SURFV
 70
     6
  9
$UCSBASE
  2

  9
$UCSNAME
  2

  9
$UCSORG
 10
0.0
 20
0.0
 30
0.0
  9
$UCSXDIR
 10
1.0
 20
0.0
 30
0.0
  9
$UCSYDIR
 10
0.0
 20
1.0
 30
0.0
  9
$UCSORTHOREF
  2

  9
$UCSORTHOVIEW
 70
     0
  9
$UCSORGTOP
 10
0.0
 20
0.0
 30
0.0
  9
$UCSORGBOTTOM
 10
0.0
 20
0.0
 30
0.0
  9
$UCSORGLEFT
 10
0.0
 20
0.0
 30
0.0
  9
$UCSORGRIGHT
 10
0.0
 20
0.0
 30
0.0
  9
$UCSORGFRONT
 10
0.0
 20
0.0
 30
0.0
  9
$UCSORGBACK
 10
0.0
 20
0.0
 30
0.0
  9
$PUCSBASE
  2

  9
$PUCSNAME
  2

  9
$PUCSORG
 10
0.0
 20
0.0
 30
0.0
  9
$PUCSXDIR
 10
1.0
 20
0.0
 30
0.0
  9
$PUCSYDIR
 10
0.0
 20
1.0
 30
0.0
  9
$PUCSORTHOREF
  2

  9
$PUCSORTHOVIEW
 70
     0
  9
$PUCSORGTOP
 10
0.0
 20
0.0
 30
0.0
  9
$PUCSORGBOTTOM
 10
0.0
 20
0.0
 30
0.0
  9
$PUCSORGLEFT
 10
0.0
 20
0.0
 30
0.0
  9
$PUCSORGRIGHT
 10
0.0
 20
0.0
 30
0.0
  9
$PUCSORGFRONT
 10
0.0
 20
0.0
 30
0.0
  9
$PUCSORGBACK
 10
0.0
 20
0.0
 30
0.0
  9
$USERI1
 70
     0
  9
$USERI2
 70
     0
  9
$USERI3
 70
     0
  9
$USERI4
 70
     0
  9
$USERI5
 70
     0
  9
$USERR1
 40
0.0
  9
$USERR2
 40
0.0
  9
$USERR3
 40
0.0
  9
$USERR4
 40
0.0
  9
$USERR5
 40
0.0
  9
$WORLDVIEW
 70
     1
  9
$SHADEDGE
 70
     3
  9
$SHADEDIF
 70
    70
  9
$TILEMODE
 70
     1
  9
$MAXACTVP
 70
    64
  9
$PINSBASE
 10
0.0
 20
0.0
 30
0.0
  9
$PLIMCHECK
 70
     0
  9
$PEXTMIN
 10
1.000000000000000E+20
 20
1.000000000000000E+20
 30
1.000000000000000E+20
  9
$PEXTMAX
 10
-1.000000000000000E+20
 20
-1.000000000000000E+20
 30
-1.000000000000000E+20
  9
$PLIMMIN
 10
0.0
 20
0.0
  9
$PLIMMAX
 10
12.0
 20
9.0
  9
$UNITMODE
 70
     0
  9
$VISRETAIN
 70
     1
  9
$PLINEGEN
 70
     0
  9
$PSLTSCALE
 70
     1
  9
$TREEDEPTH
 70
  3020
  9
$CMLSTYLE
  2
Standard
  9
$CMLJUST
 70
     0
  9
$CMLSCALE
 40
1.0
  9
$PROXYGRAPHICS
 70
     1
  9
$MEASUREMENT
 70
     1
  9
$CELWEIGHT
370
    -1
  9
$ENDCAPS
280
     0
  9
$JOINSTYLE
280
     0
  9
$LWDISPLAY
290
     1
  9
$INSUNITS
 70
     4
  9
$HYPERLINKBASE
  1

  9
$STYLESHEET
  1

  9
$XEDIT
290
     1
  9
$CEPSNTYPE
380
     0
  9
$PSTYLEMODE
290
     1
  9
$FINGERPRINTGUID
  2
{A4D24D29-05FA-4AB2-BCA5-DCBF613BA46C}
  9
$VERSIONGUID
  2
{FAEB1C32-E019-11D5-929B-00C0DF256EC4}
  9
$EXTNAMES
290
     1
  9
$PSVPSCALE
 40
0.0
  9
$OLESTARTUP
290
     0
  9
$SORTENTS
280
   127
  9
$INDEXCTL
280
     0
  9
$HIDETEXT
280
     1
  9
$XCLIPFRAME
280
     2
  9
$HALOGAP
280
     0
  9
$OBSCOLOR
 70
   257
  9
$OBSLTYPE
280
     0
  9
$INTERSECTIONDISPLAY
280
     0
  9
$INTERSECTIONCOLOR
 70
   257
  9
$DIMASSOC
280
     2
  9
$PROJECTNAME
  1

  9
$CAMERADISPLAY
290
     0
  9
$LENSLENGTH
 40
50.0
  9
$CAMERAHEIGHT
 40
0.0
  9
$STEPSPERSEC
 40
2.0
  9
$STEPSIZE
 40
6.0
  9
$3DDWFPREC
 40
2.0
  9
$PSOLWIDTH
 40
0.25
  9
$PSOLHEIGHT
 40
4.0
  9
$LOFTANG1
 40
1.570796326794897
  9
$LOFTANG2
 40
1.570796326794897
  9
$LOFTMAG1
 40
0.0
  9
$LOFTMAG2
 40
0.0
  9
$LOFTPARAM
 70
     7
  9
$LOFTNORMALS
280
     1
  9
$LATITUDE
 40
37.795
  9
$LONGITUDE
 40
-122.394
  9
$NORTHDIRECTION
 40
0.0
  9
$TIMEZONE
 70
 -8000
  9
$LIGHTGLYPHDISPLAY
280
     1
  9
$TILEMODELIGHTSYNCH
280
     1
  9
$CMATERIAL
347
44
  9
$SOLIDHIST
280
     0
  9
$SHOWHIST
280
     1
  9
$DWFFRAME
280
     2
  9
$DGNFRAME
280
     2
  9
$REALWORLDSCALE
290
     1
  9
$INTERFERECOLOR
 62
   256
  9
$CSHADOW
280
     0
  9
$SHADOWPLANELOCATION
 40
0.0
  0
ENDSEC
  0
SECTION
  2
CLASSES
  0
CLASS
  1
ACDBDICTIONARYWDFLT
  2
AcDbDictionaryWithDefault
  3
ObjectDBX Classes
 90
        0
 91
        3
280
     0
281
     0
  0
CLASS
  1
VISUALSTYLE
  2
AcDbVisualStyle
  3
ObjectDBX Classes
 90
     4095
 91
        3
280
     0
281
     0
  0
CLASS
  1
MATERIAL
  2
AcDbMaterial
  3
ObjectDBX Classes
 90
     1153
 91
        3
280
     0
281
     0
  0
CLASS
  1
SCALE
  2
AcDbScale
  3
ObjectDBX Classes
 90
     1153
 91
        3
280
     0
281
     0
  0
CLASS
  1
TABLESTYLE
  2
AcDbTableStyle
  3
ObjectDBX Classes
 90
     4095
 91
        3
280
     0
281
     0
  0
CLASS
  1
MLEADERSTYLE
  2
AcDbMLeaderStyle
  3
ACDB_MLEADERSTYLE_CLASS
 90
     4095
 91
        3
280
     0
281
     0
  0
CLASS
  1
SUN
  2
AcDbSun
  3
SCENEOE
 90
     1153
 91
        3
280
     0
281
     0
  0
CLASS
  1
DICTIONARYVAR
  2
AcDbDictionaryVar
  3
ObjectDBX Classes
 90
        0
 91
        3
280
     0
281
     0
  0
CLASS
  1
CELLSTYLEMAP
  2
AcDbCellStyleMap
  3
ObjectDBX Classes
 90
     1152
 91
        3
280
     0
281
     0
  0
ENDSEC
  0
SECTION
  2
TABLES
  0
TABLE
  2
VPORT
  5
8
330
0
100
AcDbSymbolTable
 70
     1
  0
VPORT
  5
29
330
8
100
AcDbSymbolTableRecord
100
AcDbViewportTableRecord
  2
*Active
 70
     0
 10
0.0
 20
0.0
 11
1.0
 21
1.0
 12
-516.0652378675239
 22
-90.33294618749301
 13
0.0
 23
0.0
 14
0.5
 24
0.5
 15
0.5
 25
0.5
 16
0.0
 26
0.0
 36
1.0
 17
0.0
 27
0.0
 37
0.0
 40
901.7009668081052
 41
1.6
 42
50.0
 43
0.0
 44
0.0
 50
0.0
 51
0.0
 71
     0
 72
   100
 73
     1
 74
     3
 75
     0
 76
     0
 77
     0
 78
     0
281
     0
 65
     1
110
0.0
120
0.0
130
0.0
111
1.0
121
0.0
131
0.0
112
0.0
122
1.0
132
0.0
 79
     0
146
0.0
348
2F
 60
     3
 61
     5
292
     1
282
     1
141
0.0
142
0.0
 63
   250
361
6D
  0
ENDTAB
  0
TABLE
  2
LTYPE
  5
5
330
0
100
AcDbSymbolTable
 70
     2
  0
LTYPE
  5
14
330
5
100
AcDbSymbolTableRecord
100
AcDbLinetypeTableRecord
  2
ByBlock
 70
     0
  3

 72
    65
 73
     0
 40
0.0
  0
LTYPE
  5
15
330
5
100
AcDbSymbolTableRecord
100
AcDbLinetypeTableRecord
  2
ByLayer
 70
     0
  3

 72
    65
 73
     0
 40
0.0
  0
LTYPE
  5
16
330
5
100
AcDbSymbolTableRecord
100
AcDbLinetypeTableRecord
  2
Continuous
 70
     0
  3
Solid line
 72
    65
 73
     0
 40
0.0
  0
LTYPE
  5
71
330
5
100
AcDbSymbolTableRecord
100
AcDbLinetypeTableRecord
  2
CENTER
 70
     0
  3

 72
    65
 73
     0
 40
0.0
  0
ENDTAB
  0
TABLE
  2
LAYER
  5
2
330
0
100
AcDbSymbolTable
 70
     2
  0
LAYER
  5
10
330
2
100
AcDbSymbolTableRecord
100
AcDbLayerTableRecord
  2
0
 70
     0
 62
     7
  6
Continuous
370
    -3
390
F
347
46
348
0
  0
LAYER
  5
6E
330
2
100
AcDbSymbolTableRecord
100
AcDbLayerTableRecord
  2
2
 70
     0
 62
     7
  6
Continuous
370
    -3
390
F
347
46
348
0
  0
ENDTAB
  0
TABLE
  2
STYLE
  5
3
330
0
100
AcDbSymbolTable
 70
     2
  0
STYLE
  5
11
330
3
100
AcDbSymbolTableRecord
100
AcDbTextStyleTableRecord
  2
Standard
 70
     0
 40
0.0
 41
1.0
 50
0.0
 71
     0
 42
0.2
  3
txt
  4

  0
STYLE
  5
6F
330
3
100
AcDbSymbolTableRecord
100
AcDbTextStyleTableRecord
  2
ＭＳ ゴシック
 70
     0
 40
0.0
 41
1.0
 50
0.0
 71
     0
 42
0.2
  3
ＭＳ ゴシック.shx
  4

  0
ENDTAB
  0
TABLE
  2
VIEW
  5
6
330
0
100
AcDbSymbolTable
 70
     0
  0
ENDTAB
  0
TABLE
  2
UCS
  5
7
330
0
100
AcDbSymbolTable
 70
     0
  0
ENDTAB
  0
TABLE
  2
APPID
  5
9
330
0
100
AcDbSymbolTable
 70
     1
  0
APPID
  5
12
330
9
100
AcDbSymbolTableRecord
100
AcDbRegAppTableRecord
  2
ACAD
 70
     0
  0
ENDTAB
  0
TABLE
  2
DIMSTYLE
  5
A
330
0
100
AcDbSymbolTable
 70
     1
100
AcDbDimStyleTable
  0
DIMSTYLE
105
27
330
A
100
AcDbSymbolTableRecord
100
AcDbDimStyleTableRecord
  2
Standard
 70
     0
178
     0
340
11
  0
ENDTAB
  0
TABLE
  2
BLOCK_RECORD
  5
1
330
0
100
AcDbSymbolTable
 70
     4
  0
BLOCK_RECORD
  5
1F
330
1
100
AcDbSymbolTableRecord
100
AcDbBlockTableRecord
  2
*Model_Space
340
22
 70
     0
280
     1
281
     0
  0
BLOCK_RECORD
  5
1B
330
1
100
AcDbSymbolTableRecord
100
AcDbBlockTableRecord
  2
*Paper_Space
340
1E
 70
     0
280
     1
281
     0
  0
BLOCK_RECORD
  5
23
330
1
100
AcDbSymbolTableRecord
100
AcDbBlockTableRecord
  2
*Paper_Space0
340
26
 70
     0
280
     1
281
     0
  0
BLOCK_RECORD
  5
75
330
1
100
AcDbSymbolTableRecord
100
AcDbBlockTableRecord
  2
D_FRAME_VIEW@4272
340
0
102
{BLKREFS
331
D0
102
}
 70
     0
280
     1
281
     0
  0
BLOCK_RECORD
  5
D2
330
1
100
AcDbSymbolTableRecord
100
AcDbBlockTableRecord
  2
D_FRAME_VIEW@3969
340
0
102
{BLKREFS
331
226
102
}
 70
     0
280
     1
281
     0
  0
BLOCK_RECORD
  5
227
330
1
100
AcDbSymbolTableRecord
100
AcDbBlockTableRecord
  2
D_FRAME_VIEW@2448
340
0
102
{BLKREFS
331
407
102
}
 70
     0
280
     1
281
     0
  0
ENDTAB
  0
ENDSEC
  0
SECTION
  2
BLOCKS
  0
BLOCK
  5
20
330
1F
100
AcDbEntity
  8
0
100
AcDbBlockBegin
  2
*Model_Space
 70
     0
 10
0.0
 20
0.0
 30
0.0
  3
*Model_Space
  1

  0
ENDBLK
  5
21
330
1F
100
AcDbEntity
  8
0
100
AcDbBlockEnd
  0
BLOCK
  5
1C
330
1B
100
AcDbEntity
 67
     1
  8
0
100
AcDbBlockBegin
  2
*Paper_Space
 70
     0
 10
0.0
 20
0.0
 30
0.0
  3
*Paper_Space
  1

  0
ENDBLK
  5
1D
330
1B
100
AcDbEntity
 67
     1
  8
0
100
AcDbBlockEnd
  0
BLOCK
  5
24
330
23
100
AcDbEntity
  8
0
100
AcDbBlockBegin
  2
*Paper_Space0
 70
     0
 10
0.0
 20
0.0
 30
0.0
  3
*Paper_Space0
  1

  0
ENDBLK
  5
25
330
23
100
AcDbEntity
  8
0
100
AcDbBlockEnd
  0
BLOCK
  5
D3
330
75
100
AcDbEntity
  8
0
100
AcDbBlockBegin
  2
D_FRAME_VIEW@4272
 70
     0
 10
0.0
 20
0.0
 30
0.0
  3
D_FRAME_VIEW@4272
  1

  0
LWPOLYLINE
  5
76
330
75
100
AcDbEntity
  8
2
  6
Continuous
 62
     7
370
     9
100
AcDbPolyline
 90
       87
 70
     0
 43
0.0
 10
116.3432004084865
 20
-93.06722946896797
 10
116.3436503968995
 20
-93.09721829833923
 10
116.3453876369854
 20
-93.13333505607103
 10
116.3474550506592
 20
-93.15937936769248
 10
116.3502011436622
 20
-93.18535434039376
 10
116.3536349141398
 20
-93.21131870570447
 10
116.3577454754542
 20
-93.23717432702243
 10
116.3652099294423
 20
-93.2758903717193
 10
116.3742030964992
 20
-93.31431630302143
 10
116.384800964612
 20
-93.35267911198792
 10
116.3969028453764
 20
-93.39055243573247
 10
116.4105826513521
 20
-93.4281265359022
 10
116.4257347956529
 20
-93.46508353326415
 10
116.4424930432631
 20
-93.5017021477881
 10
116.4607219200254
 20
-93.53763645123878
 10
116.4803176090626
 20
-93.572696075152
 10
116.5013184065923
 20
-93.60696237395959
 10
116.5209619705446
 20
-93.6364515724733
 10
116.5416223379215
 20
-93.66520703410524
 10
116.5633847908962
 20
-93.69333434536132
 10
116.5861218131317
 20
-93.72065774609126
 10
116.6205936855431
 20
-93.75860587768996
 10
116.6570518755052
 20
-93.79482066596874
 10
116.6959630289879
 20
-93.8296605707566
 10
116.7367665161012
 20
-93.86251869229493
 10
116.7623268271962
 20
-93.88138600098974
 10
116.7884869242804
 20
-93.89944120704045
 10
116.8153328616676
 20
-93.91673361440124
 10
116.8427363058899
 20
-93.93317139874009
 10
116.8662229775829
 20
-93.9463353482063
 10
116.8900721360903
 20
-93.95887077958885
 10
116.9143405855635
 20
-93.97080182098179
 10
116.9389416041736
 20
-93.98208065279758
 10
116.9630287798669
 20
-93.99235667722901
 10
116.9873955222558
 20
-94.00200557661854
 10
117.0120975844881
 20
-94.01104422068252
 10
117.0370479060628
 20
-94.01943611717351
 10
117.0676311009858
 20
-94.02873920116757
 10
117.0985227612774
 20
-94.0370667068432
 10
117.1298305268682
 20
-94.04443720083009
 10
117.1613825601394
 20
-94.05080126827035
 10
117.188142015968
 20
-94.05537655837452
 10
117.2150288951035
 20
-94.05922529032732
 10
117.2421108319862
 20
-94.0623520972817
 10
117.26927695145
 20
-94.06473998446687
 10
117.3092830684753
 20
-94.06690180740816
 10
117.3494229256173
 20
-94.06745808924379
 10
117.3899611025888
 20
-94.06638260074608
 10
117.4304129660193
 20
-94.06366524642844
 10
117.4710036814817
 20
-94.0592724092868
 10
117.511356610146
 20
-94.05323061936417
 10
117.5518103556999
 20
-94.04546530160918
 10
117.5919470063584
 20
-94.03603031483061
 10
117.6297314990984
 20
-94.02552752796612
 10
117.6670963869039
 20
-94.01354350255507
 10
117.7042549430669
 20
-93.99998872754004
 10
117.7408066765622
 20
-93.98499349017976
 10
117.7769295534273
 20
-93.96847275251442
 10
117.8123292104519
 20
-93.9505514987634
 10
117.847263277698
 20
-93.93108016702801
 10
117.8814129416159
 20
-93.91021343699627
 10
117.9151704103009
 20
-93.88766945040685
 10
117.948015324336
 20
-93.86375134133705
 10
117.9761564929444
 20
-93.84156407959877
 10
118.0034760131383
 20
-93.81839121386577
 10
118.0300741593422
 20
-93.7941354642345
 10
118.0557813843115
 20
-93.76893992951389
 10
118.0912501009641
 20
-93.73097999863188
 10
118.1248002352622
 20
-93.69110484505953
 10
118.1502800460643
 20
-93.65775734182748
 10
118.1743968451069
 20
-93.62328393968757
 10
118.1972437619019
 20
-93.58749753532945
 10
118.2186098297984
 20
-93.55066890416867
 10
118.238660589513
 20
-93.51241971698022
 10
118.257096444048
 20
-93.47321833634585
 10
118.2739739837606
 20
-93.43285865922981
 10
118.2891169415364
 20
-93.39166575204156
 10
118.3014867191017
 20
-93.35305997431597
 10
118.3123101329982
 20
-93.31387495659928
 10
118.320545435111
 20
-93.27889231798088
 10
118.3275239027202
 20
-93.24361038429548
 10
118.3332611189806
 20
-93.2078740099854
 10
118.337704083478
 20
-93.17193477533459
 10
118.3401037245799
 20
-93.1458680761482
 10
118.3418207659294
 20
-93.11974195645423
 10
118.3428553393828
 20
-93.09349615843047
 10
118.3432004084858
 20
-93.06723057006195
210
0.0
220
0.0
230
-1.0
  0
LWPOLYLINE
  5
77
330
75
100
AcDbEntity
  8
2
  6
Continuous
 62
     7
370
     9
100
AcDbPolyline
 90
       42
 70
     0
 43
0.0
 10
-118.343200408506
 20
-93.07590229673036
 10
-118.3431865012487
 20
-93.08117484697132
 10
-118.3421460188715
 20
-93.1218006687178
 10
-118.3394572425303
 20
-93.16234162625007
 10
-118.335086702938
 20
-93.203021806455
 10
-118.3290602123072
 20
-93.2434662024107
 10
-118.3213033137896
 20
-93.28401212402969
 10
-118.3118689923038
 20
-93.32424274056775
 10
-118.301324520886
 20
-93.36223409033185
 10
-118.2892819003112
 20
-93.39980395928916
 10
-118.2756497569549
 20
-93.43716881589107
 10
-118.2605603346263
 20
-93.47392093058491
 10
-118.2439268154228
 20
-93.5102409228878
 10
-118.2258768148245
 20
-93.54582814689692
 10
-118.2062576919665
 20
-93.58094456828266
 10
-118.1852278345255
 20
-93.61526442553104
 10
-118.1626595849554
 20
-93.64895803904045
 10
-118.1387223749512
 20
-93.68173570146509
 10
-118.116522979252
 20
-93.70981485247027
 10
-118.0933431427454
 20
-93.73706955859627
 10
-118.0690859980056
 20
-93.76359994396527
 10
-118.043895059138
 20
-93.7892370916054
 10
-118.0059531115102
 20
-93.82460125860402
 10
-117.9661097301948
 20
-93.85804417458672
 10
-117.9327864940577
 20
-93.88344555360723
 10
-117.8983449738178
 20
-93.90748398883757
 10
-117.8625993979477
 20
-93.93025230294757
 10
-117.8258178028505
 20
-93.95154244735689
 10
-117.7876244137117
 20
-93.97151876663224
 10
-117.7484827363308
 20
-93.98988536333948
 10
-117.7081874381905
 20
-94.00669851888533
 10
-117.6670598971299
 20
-94.02178390617256
 10
-117.6285331732377
 20
-94.03410125420231
 10
-117.5894264336401
 20
-94.0448798789268
 10
-117.5545108460817
 20
-94.05308211960713
 10
-117.5192943530687
 20
-94.060033248908
 10
-117.4836210756269
 20
-94.06574867044769
 10
-117.4477431620576
 20
-94.07017514335872
 10
-117.4217181286105
 20
-94.07256617701802
 10
-117.3956329156962
 20
-94.07427712711463
 10
-117.3694268022026
 20
-94.07530808465482
 10
-117.3432004085933
 20
-94.07565195340219
  0
LWPOLYLINE
  5
78
330
75
100
AcDbEntity
  8
2
  6
Continuous
 62
     7
370
     9
100
AcDbPolyline
 90
       93
 70
     0
 43
0.0
 10
-116.3432004085067
 20
-93.07590068780614
 10
-116.3432535088185
 20
-93.06560297512249
 10
-116.343876724247
 20
-93.03912872364444
 10
-116.3452059399421
 20
-93.01260003563176
 10
-116.347238655387
 20
-92.98612054223975
 10
-116.3515677468578
 20
-92.94680536025994
 10
-116.3574558970941
 20
-92.90764518743084
 10
-116.3649634903763
 20
-92.86840150031048
 10
-116.3740236820638
 20
-92.82952000296761
 10
-116.3846975844097
 20
-92.79079983666809
 10
-116.3969033548207
 20
-92.75257757370841
 10
-116.4107560429558
 20
-92.71455616866177
 10
-116.4261446107931
 20
-92.67710397566579
 10
-116.4427454391983
 20
-92.64090633191292
 10
-116.4607835969259
 20
-92.60537932286601
 10
-116.4803828834822
 20
-92.5703245684604
 10
-116.5013512791432
 20
-92.53611783499736
 10
-116.523803649407
 20
-92.50259537558607
 10
-116.5475698450532
 20
-92.47003011613046
 10
-116.5728436863034
 20
-92.43818940655719
 10
-116.5994209785246
 20
-92.40736751805497
 10
-116.6350101797955
 20
-92.3697582344105
 10
-116.6725942292764
 20
-92.33395352547345
 10
-116.6962548391966
 20
-92.3132232984527
 10
-116.7205611999358
 20
-92.29324262516285
 10
-116.7455909789363
 20
-92.27395684315711
 10
-116.7712288980379
 20
-92.25546310276049
 10
-116.7932624182154
 20
-92.24052498809614
 10
-116.8156974611759
 20
-92.2261711585663
 10
-116.838585560435
 20
-92.2123739291336
 10
-116.8618490085002
 20
-92.19918496656693
 10
-116.8850808360388
 20
-92.18681667854476
 10
-116.9086468436825
 20
-92.17505590543139
 10
-116.9326007892475
 20
-92.16388111364716
 10
-116.9568602271131
 20
-92.15333554781292
 10
-116.9866788348175
 20
-92.14139937273693
 10
-117.0168938808372
 20
-92.13041708340101
 10
-117.0476107144993
 20
-92.12036141937517
 10
-117.0786645368788
 20
-92.11129599574137
 10
-117.1050736189381
 20
-92.10443447619103
 10
-117.1316781647602
 20
-92.09829224763567
 10
-117.1585455185945
 20
-92.09285938512366
 10
-117.1855670312751
 20
-92.08816266568616
 10
-117.2257433784167
 20
-92.08257959136242
 10
-117.266210569367
 20
-92.07862367494441
 10
-117.3020863020381
 20
-92.07650027523604
 10
-117.3380216899473
 20
-92.07566745809186
 10
-117.3741754754113
 20
-92.07613439551517
 10
-117.4102837720895
 20
-92.0779078146688
 10
-117.4363234885512
 20
-92.08000171905341
 10
-117.4622919967007
 20
-92.0827743826983
 10
-117.4882486456024
 20
-92.08623488851995
 10
-117.5140943690211
 20
-92.0903720532391
 10
-117.5525754438644
 20
-92.09782978886065
 10
-117.590764840975
 20
-92.10679820345142
 10
-117.628886438862
 20
-92.1173518750077
 10
-117.6665204149618
 20
-92.12939091493823
 10
-117.7038544186915
 20
-92.1429877337251
 10
-117.7405767214802
 20
-92.15803835180282
 10
-117.7769616766889
 20
-92.17467388557772
 10
-117.8126705700779
 20
-92.19276150135634
 10
-117.847707717082
 20
-92.21231098816355
 10
-117.8819549210673
 20
-92.23326455990784
 10
-117.911429642126
 20
-92.25286542420665
 10
-117.9401748098238
 20
-92.27348359660904
 10
-117.9682956050743
 20
-92.29520413138482
 10
-117.9956173763365
 20
-92.31790090128196
 10
-118.03357014126
 20
-92.35231701868275
 10
-118.0697997483637
 20
-92.388725002595
 10
-118.1047484901379
 20
-92.42769081725321
 10
-118.1377144892691
 20
-92.46856609641117
 10
-118.1566469518091
 20
-92.49417979005726
 10
-118.1747651148334
 20
-92.52039867408602
 10
-118.1921186467911
 20
-92.5473097079484
 10
-118.2086142352013
 20
-92.57478277058824
 10
-118.2218251867682
 20
-92.59833346686915
 10
-118.2344045498441
 20
-92.6222491175553
 10
-118.2463766611599
 20
-92.64658701382373
 10
-118.25769301914
 20
-92.67125914383662
 10
-118.2679555327705
 20
-92.69530377539793
 10
-118.2775932249592
 20
-92.71962623979206
 10
-118.2866228972779
 20
-92.74428177031159
 10
-118.2950082680699
 20
-92.76918357719964
 10
-118.3043061430611
 20
-92.79970265412896
 10
-118.3126325582222
 20
-92.83052711680274
 10
-118.3200060678392
 20
-92.86176303843625
 10
-118.3263779087848
 20
-92.8932403949159
 10
-118.3309631657272
 20
-92.91993185095738
 10
-118.3348257544927
 20
-92.94674917314917
 10
-118.3379703797339
 20
-92.97375872048111
 10
-118.3403803238799
 20
-93.00085155852493
 10
-118.3425893152114
 20
-93.0409462288332
 10
-118.343200408506
 20
-93.07590229673036
  0
LWPOLYLINE
  5
79
330
75
100
AcDbEntity
  8
2
  6
Continuous
 62
     7
370
     9
100
AcDbPolyline
 90
       43
 70
     0
 43
0.0
 10
-117.3432004085933
 20
-94.07565195340219
 10
-117.3029978042075
 20
-94.07484391560801
 10
-117.2627951998215
 20
-94.07241586767901
 10
-117.2274023408283
 20
-94.06892791471195
 10
-117.1921732071509
 20
-94.06418739518317
 10
-117.156959182975
 20
-94.0581646269781
 10
-117.1220087889423
 20
-94.05089482477753
 10
-117.0969506742971
 20
-94.04487379379243
 10
-117.072072421995
 20
-94.03821403349745
 10
-117.0473204286776
 20
-94.03089936350624
 10
-117.0227832649517
 20
-94.02295469721085
 10
-116.9852059956598
 20
-94.00940835944664
 10
-116.9481816353767
 20
-93.99436475451762
 10
-116.9114965217046
 20
-93.97771442177107
 10
-116.8755524420466
 20
-93.95962236740661
 10
-116.840172056444
 20
-93.9399857890174
 10
-116.8056484718735
 20
-93.91895592039863
 10
-116.7717275412858
 20
-93.89635569360189
 10
-116.7387261705812
 20
-93.87236915269574
 10
-116.7065385980004
 20
-93.84689759567462
 10
-116.6753850827786
 20
-93.8200916068098
 10
-116.6488306833877
 20
-93.79539179162664
 10
-116.6231899213079
 20
-93.76974580723508
 10
-116.5983683582712
 20
-93.74304335590476
 10
-116.5745302387346
 20
-93.71544592362764
 10
-116.541912970614
 20
-93.67409279256971
 10
-116.5263814536156
 20
-93.65271341903801
 10
-116.5114130667398
 20
-93.63091991639592
 10
-116.4888242180138
 20
-93.59548986093387
 10
-116.4676877627025
 20
-93.55903903101846
 10
-116.4479259268441
 20
-93.52136738118998
 10
-116.429732214036
 20
-93.48277057745995
 10
-116.4129710755242
 20
-93.44284671971799
 10
-116.3979093494743
 20
-93.4021030441151
 10
-116.3845074930641
 20
-93.36032423293815
 10
-116.3729177372262
 20
-93.31786080352002
 10
-116.3638078055185
 20
-93.2778565480029
 10
-116.356329128373
 20
-93.2374032253813
 10
-116.3511080889335
 20
-93.20140518880223
 10
-116.347197784281
 20
-93.16522289043564
 10
-116.344595221336
 20
-93.12869350232096
 10
-116.3433313789609
 20
-93.09208490931135
 10
-116.3432004085067
 20
-93.07590068780614
  0
LINE
  5
7A
330
75
100
AcDbEntity
  8
2
  6
Continuous
 62
     7
370
     9
100
AcDbLine
 10
-119.343200408758
 20
-96.0715657502071
 30
0.0
 11
-119.3432004087543
 21
-96.03032508330665
 31
0.0
  0
LINE
  5
7B
330
75
100
AcDbEntity
  8
2
  6
Continuous
 62
     7
370
     9
100
AcDbLine
 10
-119.343200408756
 20
-96.0303250833067
 30
0.0
 11
-119.843200408756
 21
-96.03032508326308
 31
0.0
  0
LINE
  5
7C
330
75
100
AcDbEntity
  8
2
  6
Continuous
 62
     7
370
     9
100
AcDbLine
 10
-119.843200408238
 20
-90.1142514771419
 30
0.0
 11
-119.8432004087543
 21
-96.03032508326302
 31
0.0
  0
LINE
  5
7D
330
75
100
AcDbEntity
  8
2
  6
Continuous
 62
     7
370
     9
100
AcDbLine
 10
-119.3432004082397
 20
-90.11425147718548
 30
0.0
 11
-119.8432004082397
 21
-90.11425147714185
 31
0.0
  0
LINE
  5
7E
330
75
100
AcDbEntity
  8
2
  6
Continuous
 62
     7
370
     9
100
AcDbLine
 10
-119.3432004082381
 20
-90.11425147718553
 30
0.0
 11
-119.3432004082343
 21
-90.07156575020754
 31
0.0
  0
LINE
  5
7F
330
75
100
AcDbEntity
  8
2
  6
Continuous
 62
     7
370
     9
100
AcDbLine
 10
-119.3432004082363
 20
-90.11280641710793
 30
0.0
 11
-119.8432004082363
 21
-90.11280641706428
 31
0.0
  0
LINE
  5
80
330
75
100
AcDbEntity
  8
2
  6
Continuous
 62
     7
370
     9
100
AcDbLine
 10
-120.3432004087099
 20
-95.5217754654299
 30
0.0
 11
-120.3432004082824
 21
-90.62280109488769
 31
0.0
  0
LINE
  5
81
330
75
100
AcDbEntity
  8
2
  6
Continuous
 62
     7
370
     9
100
AcDbLine
 10
-120.343200408284
 20
-90.62280109488763
 30
0.0
 11
-119.8432004082397
 21
-90.11425147714185
 31
0.0
  0
LINE
  5
82
330
75
100
AcDbEntity
  8
2
  6
Continuous
 62
     7
370
     9
100
AcDbLine
 10
-119.843200408756
 20
-96.03032508326308
 30
0.0
 11
-120.3432004087116
 21
-95.52177546542995
 31
0.0
  0
LINE
  5
83
330
75
100
AcDbEntity
  8
2
  6
Continuous
 62
     7
370
     9
100
AcDbLine
 10
-120.3432004082806
 20
-90.62135603481009
 30
0.0
 11
-120.3432004082824
 21
-90.62280109488763
 31
0.0
  0
LINE
  5
84
330
75
100
AcDbEntity
  8
2
  6
Continuous
 62
     7
370
     9
100
AcDbLine
 10
-274.9465643864189
 20
314.6513046544989
 30
0.0
 11
-274.7949857069445
 21
314.6618840686484
 31
0.0
  0
LINE
  5
85
330
75
100
AcDbEntity
  8
2
  6
Continuous
 62
     7
370
     9
100
AcDbLine
 10
-274.7949857069445
 20
314.6618840686484
 30
0.0
 11
-274.6308349949673
 21
314.667324685352
 31
0.0
  0
LINE
  5
86
330
75
100
AcDbEntity
  8
2
  6
Continuous
 62
     7
370
     9
100
AcDbLine
 10
-106.0432004104065
 20
329.4284342337932
 30
0.0
 11
-274.946564386419
 21
314.6513046544992
 31
0.0
  0
LINE
  5
87
330
75
100
AcDbEntity
  8
2
  6
Continuous
 62
     7
370
     9
100
AcDbLine
 10
-106.0432004104065
 20
-84.57156576620763
 30
0.0
 11
-106.0432004104065
 21
-76.20794238941046
 31
0.0
  0
LINE
  5
88
330
75
100
AcDbEntity
  8
2
  6
Continuous
 62
     7
370
     9
100
AcDbLine
 10
-221.8909087022248
 20
-82.54943649618747
 30
0.0
 11
-106.0432004104065
 21
-84.57156576620646
 31
0.0
  0
ARC
  5
89
330
75
100
AcDbEntity
  8
2
  6
Continuous
 62
     7
370
     9
100
AcDbCircle
 10
-224.6396080023674
 20
-72.9975891639255
 30
0.0
 40
2.713227316043194
100
AcDbArc
 50
233.8626805532221
 51
259.6259460205657
  0
ARC
  5
8A
330
75
100
AcDbEntity
  8
2
  6
Continuous
 62
     7
370
     9
100
AcDbCircle
 10
-221.8560038893499
 20
-80.54974110587477
 30
0.0
 40
2.000000000000203
100
AcDbArc
 50
217.1032426272382
 51
268.9999999999991
  0
LINE
  5
8B
330
75
100
AcDbEntity
  8
2
  6
Continuous
 62
     7
370
     9
100
AcDbLine
 10
-226.5328068886007
 20
-76.15726002616658
 30
0.0
 11
-226.5766779360335
 21
-76.07557270218106
 31
0.0
  0
LINE
  5
8C
330
75
100
AcDbEntity
  8
2
  6
Continuous
 62
     7
370
     9
100
AcDbLine
 10
-226.5766779360335
 20
-76.07557270218108
 30
0.0
 11
-226.6523970368663
 21
-75.93449002068549
 31
0.0
  0
LINE
  5
8D
330
75
100
AcDbEntity
  8
2
  6
Continuous
 62
     7
370
     9
100
AcDbLine
 10
-223.6560222720344
 20
-81.42782132241837
 30
0.0
 11
-226.4997174549787
 21
-76.21884552356188
 31
0.0
  0
LINE
  5
8E
330
75
100
AcDbEntity
  8
2
  6
Continuous
 62
     7
370
     9
100
AcDbLine
 10
-226.4997174549787
 20
-76.21884552356188
 30
0.0
 11
-226.5328068886007
 21
-76.15726002616658
 31
0.0
  0
LINE
  5
8F
330
75
100
AcDbEntity
  8
2
  6
Continuous
 62
     7
370
     9
100
AcDbLine
 10
-223.6048640643136
 20
-81.52004419688647
 30
0.0
 11
-223.4511034679109
 21
-81.75624735719535
 31
0.0
  0
LINE
  5
90
330
75
100
AcDbEntity
  8
2
  6
Continuous
 62
     7
370
     9
100
AcDbLine
 10
-223.6048640643138
 20
-81.52004419688645
 30
0.0
 11
-223.6560222720344
 21
-81.42782132241837
 31
0.0
  0
LWPOLYLINE
  5
91
330
75
100
AcDbEntity
  8
2
  6
Continuous
 62
     7
370
     9
100
AcDbPolyline
 90
        8
 70
     0
 43
0.0
 10
225.1282004584892
 20
-75.66648084895748
 42
0.1225104901525423
 10
225.9703402456099
 20
-76.17937923486419
 10
226.078369627592
 20
-76.199705542648
 10
226.1813647023678
 20
-76.20619323254827
 10
226.3236092354668
 20
-76.18983556370236
 10
226.4529961900899
 20
-76.14043544688782
 10
226.5506239718762
 20
-76.06918872446002
 10
226.5506239718762
 20
-76.06918872446002
210
0.0
220
0.0
230
-1.0
  0
LINE
  5
92
330
75
100
AcDbEntity
  8
2
  6
Continuous
 62
     7
370
     9
100
AcDbLine
 10
-226.6775170367573
 20
-75.87563204585705
 30
0.0
 11
-226.6679725047155
 21
-75.90152252794952
 31
0.0
  0
LINE
  5
93
330
75
100
AcDbEntity
  8
2
  6
Continuous
 62
     7
370
     9
100
AcDbLine
 10
-226.6679725047155
 20
-75.90152252794952
 30
0.0
 11
-226.6523948091808
 21
-75.93448306900054
 31
0.0
  0
LINE
  5
94
330
75
100
AcDbEntity
  8
2
  6
Continuous
 62
     7
370
     9
100
AcDbLine
 10
-226.5506239718762
 20
-76.06918872446002
 30
0.0
 11
-226.6238171281685
 21
-75.98216217744809
 31
0.0
  0
LWPOLYLINE
  5
95
330
75
100
AcDbEntity
  8
2
  6
Continuous
 62
     7
370
     9
100
AcDbPolyline
 90
       14
 70
     0
 43
0.0
 10
-226.5673387306913
 20
-75.35536891942152
 10
-226.5946651704
 20
-75.40240013089937
 10
-226.6188936303496
 20
-75.44903175847344
 10
-226.6399529420868
 20
-75.49512785263161
 10
-226.6577728842707
 20
-75.54055312737286
 10
-226.6723050031515
 20
-75.58518754658931
 10
-226.6835226064264
 20
-75.6289263198726
 10
-226.6913999477105
 20
-75.67166531967213
 10
-226.6959149441693
 20
-75.7133016194224
 10
-226.6970601629371
 20
-75.75373709411619
 10
-226.6948318326158
 20
-75.79287481851911
 10
-226.6892270191452
 20
-75.8306177893623
 10
-226.6802620484682
 20
-75.86686721739484
 10
-226.6775170367573
 20
-75.87563204585705
  0
LINE
  5
96
330
75
100
AcDbEntity
  8
2
  6
Continuous
 62
     7
370
     9
100
AcDbLine
 10
-228.5951089217052
 20
-72.27282640479486
 30
0.0
 11
-226.6523982823535
 21
-75.93449069082094
 31
0.0
  0
LINE
  5
97
330
75
100
AcDbEntity
  8
2
  6
Continuous
 62
     7
370
     9
100
AcDbLine
 10
-233.6050310547126
 20
-62.43244107431801
 30
0.0
 11
-228.5951089217052
 21
-72.27282640479486
 31
0.0
  0
LINE
  5
98
330
75
100
AcDbEntity
  8
2
  6
Continuous
 62
     7
370
     9
100
AcDbLine
 10
-240.0752720577966
 20
-48.75389496179296
 30
0.0
 11
-233.6050310547126
 21
-62.43244107431801
 31
0.0
  0
LWPOLYLINE
  5
99
330
75
100
AcDbEntity
  8
2
  6
Continuous
 62
     7
370
     9
100
AcDbPolyline
 90
        4
 70
     0
 43
0.0
 10
-249.3309774468312
 20
-26.77104737461834
 10
-247.1094091705471
 20
-32.354435296692
 10
-243.3431166887775
 20
-41.35764033913495
 10
-240.0752720577966
 20
-48.75389496179296
  0
LINE
  5
9A
330
75
100
AcDbEntity
  8
2
  6
Continuous
 62
     7
370
     9
100
AcDbLine
 10
-253.2355476040547
 20
-16.3876574279961
 30
0.0
 11
-249.3309774468312
 21
-26.77104737461834
 31
0.0
  0
LINE
  5
9B
330
75
100
AcDbEntity
  8
2
  6
Continuous
 62
     7
370
     9
100
AcDbLine
 10
-256.7999642747052
 20
-6.159201995608196
 30
0.0
 11
-253.2355476040547
 21
-16.3876574279961
 31
0.0
  0
LINE
  5
9C
330
75
100
AcDbEntity
  8
2
  6
Continuous
 62
     7
370
     9
100
AcDbLine
 10
-259.8612711652056
 20
3.325369369863412
 30
0.0
 11
-256.7999642747052
 21
-6.159201995608194
 31
0.0
  0
LINE
  5
9D
330
75
100
AcDbEntity
  8
2
  6
Continuous
 62
     7
370
     9
100
AcDbLine
 10
-263.5044019695076
 20
15.67655711717596
 30
0.0
 11
-259.8612711652056
 21
3.325369369863414
 31
0.0
  0
LINE
  5
9E
330
75
100
AcDbEntity
  8
2
  6
Continuous
 62
     7
370
     9
100
AcDbLine
 10
-266.1629359721139
 20
25.62714649605762
 30
0.0
 11
-263.5044019695076
 21
15.67655711717596
 31
0.0
  0
LINE
  5
9F
330
75
100
AcDbEntity
  8
2
  6
Continuous
 62
     7
370
     9
100
AcDbLine
 10
-268.6678424375979
 20
35.96075371564258
 30
0.0
 11
-266.1629359721139
 21
25.62714649605762
 31
0.0
  0
LINE
  5
A0
330
75
100
AcDbEntity
  8
2
  6
Continuous
 62
     7
370
     9
100
AcDbLine
 10
-270.6673783178112
 20
45.09011663535433
 30
0.0
 11
-268.6678424375979
 21
35.96075371564258
 31
0.0
  0
LWPOLYLINE
  5
A1
330
75
100
AcDbEntity
  8
2
  6
Continuous
 62
     7
370
     9
100
AcDbPolyline
 90
        3
 70
     0
 43
0.0
 10
-273.5393085120998
 20
60.17163387233946
 10
-271.8807814823472
 20
51.1258275580672
 10
-270.6673783178112
 20
45.09011663535433
  0
LINE
  5
A2
330
75
100
AcDbEntity
  8
2
  6
Continuous
 62
     7
370
     9
100
AcDbLine
 10
-275.6577607859798
 20
73.64458219019576
 30
0.0
 11
-273.5393085120998
 21
60.17163387233946
 31
0.0
  0
LINE
  5
A3
330
75
100
AcDbEntity
  8
2
  6
Continuous
 62
     7
370
     9
100
AcDbLine
 10
-277.227124405461
 20
85.93105335359611
 30
0.0
 11
-275.6577607859798
 21
73.64458219019576
 31
0.0
  0
LINE
  5
A4
330
75
100
AcDbEntity
  8
2
  6
Continuous
 62
     7
370
     9
100
AcDbLine
 10
-277.6461776132408
 20
89.76034281026237
 30
0.0
 11
-277.227124405461
 21
85.93105335359611
 31
0.0
  0
LINE
  5
A5
330
75
100
AcDbEntity
  8
2
  6
Continuous
 62
     7
370
     9
100
AcDbLine
 10
-274.9465643864191
 20
314.6513046544993
 30
0.0
 11
-275.0679976024702
 21
314.6333521852492
 31
0.0
  0
LINE
  5
A6
330
75
100
AcDbEntity
  8
2
  6
Continuous
 62
     7
370
     9
100
AcDbLine
 10
-299.5225977759788
 20
312.5011803384782
 30
0.0
 11
-274.946564386419
 21
314.6513046544992
 31
0.0
  0
LINE
  5
A7
330
75
100
AcDbEntity
  8
2
  6
Continuous
 62
     7
370
     9
100
AcDbLine
 10
-300.8836470049097
 20
310.8500955964392
 30
0.0
 11
-300.6286081888404
 21
310.8769012561652
 31
0.0
  0
LINE
  5
A8
330
75
100
AcDbEntity
  8
2
  6
Continuous
 62
     7
370
     9
100
AcDbLine
 10
-300.8836470049092
 20
310.8500955964392
 30
0.0
 11
-277.6461776132409
 21
89.76034281026219
 31
0.0
  0
ARC
  5
A9
330
75
100
AcDbEntity
  8
2
  6
Continuous
 62
     7
370
     9
100
AcDbCircle
 10
-299.3918641618567
 20
311.0068882913407
 30
0.0
 40
1.500000000000104
100
AcDbArc
 50
130.4900000000008
 51
185.9999999999977
  0
LINE
  5
AA
330
75
100
AcDbEntity
  8
2
  6
Continuous
 62
     7
370
     9
100
AcDbLine
 10
-299.9718098862785
 20
312.3902403639256
 30
0.0
 11
-300.3658371456993
 21
312.1476672474689
 31
0.0
  0
LINE
  5
AB
330
75
100
AcDbEntity
  8
2
  6
Continuous
 62
     7
370
     9
100
AcDbLine
 10
-299.5225977759783
 20
312.5011803384783
 30
0.0
 11
-299.9718098862785
 21
312.3902403639256
 31
0.0
  0
LINE
  5
AC
330
75
100
AcDbEntity
  8
2
  6
Continuous
 62
     7
370
     9
100
AcDbLine
 10
-109.2432004104065
 20
-84.5157095584363
 30
0.0
 11
-109.2432004104065
 21
-98.51586186327982
 31
0.0
  0
LINE
  5
AD
330
75
100
AcDbEntity
  8
2
  6
Continuous
 62
     7
370
     9
100
AcDbLine
 10
-109.2432004104065
 20
-99.51570955843617
 30
0.0
 11
-114.3606528168438
 21
-99.42638409441474
 31
0.0
  0
LINE
  5
AE
330
75
100
AcDbEntity
  8
2
  6
Continuous
 62
     7
370
     9
100
AcDbLine
 10
-109.2432004104065
 20
-98.51586186327982
 30
0.0
 11
-109.2432004104065
 21
-99.51570955843626
 31
0.0
  0
LINE
  5
AF
330
75
100
AcDbEntity
  8
2
  6
Continuous
 62
     7
370
     9
100
AcDbLine
 10
-115.3432004104065
 20
-98.42653639925834
 30
0.0
 11
-115.3432004104065
 21
-84.40923366237419
 31
0.0
  0
ARC
  5
B0
330
75
100
AcDbEntity
  8
2
  6
Continuous
 62
     7
370
     9
100
AcDbCircle
 10
-114.3432004104065
 20
-98.42653639925834
 30
0.0
 40
1.000000000000001
100
AcDbArc
 50
180.0
 51
269.0
  0
LINE
  5
B1
330
75
100
AcDbEntity
  8
2
  6
Continuous
 62
     7
370
     9
100
AcDbLine
 10
-101.0432004104065
 20
318.5175372165595
 30
0.0
 11
-101.0432004104065
 21
-73.16066874896931
 31
0.0
  0
LINE
  5
B2
330
75
100
AcDbEntity
  8
2
  6
Continuous
 62
     7
370
     9
100
AcDbLine
 10
-101.0432004104065
 20
330.5157095584362
 30
0.0
 11
-101.0432004104065
 21
318.5175372165595
 31
0.0
  0
LINE
  5
B3
330
75
100
AcDbEntity
  8
2
  6
Continuous
 62
     7
370
     9
100
AcDbLine
 10
-105.0606528168438
 20
330.4455846658358
 30
0.0
 11
-101.0432004104065
 21
330.5157095584362
 31
0.0
  0
LINE
  5
B4
330
75
100
AcDbEntity
  8
2
  6
Continuous
 62
     7
370
     9
100
AcDbLine
 10
-101.0432004104065
 20
-85.15884109084594
 30
0.0
 11
-101.0432004104065
 21
-73.16066874896927
 31
0.0
  0
LINE
  5
B5
330
75
100
AcDbEntity
  8
2
  6
Continuous
 62
     7
370
     9
100
AcDbLine
 10
-105.0606528168438
 20
-85.0887161982456
 30
0.0
 11
-101.0432004104065
 21
-85.158841090846
 31
0.0
  0
LINE
  5
B6
330
75
100
AcDbEntity
  8
2
  6
Continuous
 62
     7
370
     9
100
AcDbLine
 10
-106.0432004104065
 20
317.0175372165595
 30
0.0
 11
-106.0432004104065
 21
-73.09054385636887
 31
0.0
  0
ARC
  5
B7
330
75
100
AcDbEntity
  8
2
  6
Continuous
 62
     7
370
     9
100
AcDbCircle
 10
-105.0432004104065
 20
-84.08886850308917
 30
0.0
 40
1.000000000000001
100
AcDbArc
 50
180.0
 51
269.0000000000001
  0
LINE
  5
B8
330
75
100
AcDbEntity
  8
2
  6
Continuous
 62
     7
370
     9
100
AcDbLine
 10
-106.0432004104065
 20
-73.09054385636883
 30
0.0
 11
-106.0432004104065
 21
-76.20794238941035
 31
0.0
  0
LINE
  5
B9
330
75
100
AcDbEntity
  8
2
  6
Continuous
 62
     7
370
     9
100
AcDbLine
 10
-106.0432004104065
 20
317.0175372165595
 30
0.0
 11
-106.0432004104065
 21
318.4474123239591
 31
0.0
  0
LINE
  5
BA
330
75
100
AcDbEntity
  8
2
  6
Continuous
 62
     7
370
     9
100
AcDbLine
 10
-106.0432004104065
 20
318.4474123239591
 30
0.0
 11
-106.0432004104065
 21
329.4457369706794
 31
0.0
  0
ARC
  5
BB
330
75
100
AcDbEntity
  8
2
  6
Continuous
 62
     7
370
     9
100
AcDbCircle
 10
105.0432004104065
 20
329.4457369706794
 30
0.0
 40
1.000000000000001
210
0.0
220
0.0
230
-1.0
100
AcDbArc
 50
0.0
 51
89.00000000000007
  0
LINE
  5
BC
330
75
100
AcDbEntity
  8
2
  6
Continuous
 62
     7
370
     9
100
AcDbLine
 10
-106.0432004104065
 20
-95.71920057142029
 30
0.0
 11
-101.0432004104065
 21
-95.63192524677928
 31
0.0
  0
LINE
  5
BD
330
75
100
AcDbEntity
  8
2
  6
Continuous
 62
     7
370
     9
100
AcDbLine
 10
-106.0432004104065
 20
-98.12408326583318
 30
0.0
 11
-106.0432004104065
 21
-95.71920057142029
 31
0.0
  0
LINE
  5
BE
330
75
100
AcDbEntity
  8
2
  6
Continuous
 62
     7
370
     9
100
AcDbLine
 10
-109.0432004104065
 20
-98.07171807104851
 30
0.0
 11
-109.0432004104065
 21
-84.51920057142193
 31
0.0
  0
LINE
  5
BF
330
75
100
AcDbEntity
  8
2
  6
Continuous
 62
     7
370
     9
100
AcDbLine
 10
-101.0432004104065
 20
-85.158841090846
 30
0.0
 11
-101.0432004104065
 21
-95.63192524677928
 31
0.0
  0
LINE
  5
C0
330
75
100
AcDbEntity
  8
2
  6
Continuous
 62
     7
370
     9
100
AcDbLine
 10
-106.0432004104065
 20
-99.12393096098958
 30
0.0
 11
-109.0432004104065
 21
-99.07156576620491
 31
0.0
  0
LINE
  5
C1
330
75
100
AcDbEntity
  8
2
  6
Continuous
 62
     7
370
     9
100
AcDbLine
 10
-109.0432004104065
 20
-99.07156576620488
 30
0.0
 11
-109.0432004104065
 21
-98.07171807104851
 31
0.0
  0
LINE
  5
C2
330
75
100
AcDbEntity
  8
2
  6
Continuous
 62
     7
370
     9
100
AcDbLine
 10
-106.0432004104065
 20
-98.12408326583318
 30
0.0
 11
-106.0432004104065
 21
-99.12393096098955
 31
0.0
  0
LINE
  5
C3
330
75
100
AcDbEntity
  8
2
  6
Continuous
 62
     7
370
     9
100
AcDbLine
 10
-101.0432004104065
 20
-95.6319252467792
 30
0.0
 11
-101.0432004104065
 21
-96.77156576620492
 31
0.0
  0
LINE
  5
C4
330
75
100
AcDbEntity
  8
2
  6
Continuous
 62
     7
370
     9
100
AcDbLine
 10
-101.0432004104065
 20
-99.21120628563064
 30
0.0
 11
-106.0432004104065
 21
-99.12393096098958
 31
0.0
  0
LINE
  5
C5
330
75
100
AcDbEntity
  8
2
  6
Continuous
 62
     7
370
     9
100
AcDbLine
 10
-101.0432004104065
 20
-99.21120628563064
 30
0.0
 11
-101.0432004104065
 21
-96.77156576620492
 31
0.0
  0
LINE
  5
C6
330
75
100
AcDbEntity
  8
2
  6
Continuous
 62
     7
370
     9
100
AcDbLine
 10
-115.3432004082349
 20
-90.07156575055652
 30
0.0
 11
-119.3432004082344
 21
-90.0715657502074
 31
0.0
  0
LINE
  5
C7
330
75
100
AcDbEntity
  8
2
  6
Continuous
 62
     7
370
     9
100
AcDbLine
 10
-119.343200408758
 20
-96.07156575020718
 30
0.0
 11
-115.3432004087585
 21
-96.07156575055629
 31
0.0
  0
LINE
  5
C8
330
75
100
AcDbEntity
  8
2
  6
Continuous
 62
     7
370
     9
100
AcDbLine
 10
-109.2432004104065
 20
-94.57156575108873
 30
0.0
 11
-109.0432004104065
 21
-94.5715657511062
 31
0.0
  0
LINE
  5
C9
330
75
100
AcDbEntity
  8
2
  6
Continuous
 62
     7
370
     9
100
AcDbLine
 10
-109.0432004104065
 20
-91.57156575110629
 30
0.0
 11
-109.2432004104065
 21
-91.57156575108887
 31
0.0
  0
LINE
  5
CA
330
75
100
AcDbEntity
  8
2
  6
Continuous
 62
     7
370
     9
100
AcDbLine
 10
-226.6235234567864
 20
-75.98251221040776
 30
0.0
 11
-226.4966763553273
 21
-76.22449232897576
 31
0.0
  0
LINE
  5
CB
330
75
100
AcDbEntity
  8
2
  6
Continuous
 62
     7
370
     9
100
AcDbLine
 10
-223.6670423383138
 20
-81.40794571322306
 30
0.0
 11
-223.4510617232937
 21
-81.7562145963326
 31
0.0
  0
LINE
  5
CC
330
75
100
AcDbEntity
  8
2
  6
Continuous
 62
     7
370
     9
100
AcDbLine
 10
-226.6775194488303
 20
-75.87562718825338
 30
0.0
 11
-226.676533132648
 21
-75.87745469167996
 31
0.0
  0
LINE
  5
CD
330
75
100
AcDbEntity
  8
2
  6
Continuous
 62
     7
370
     9
100
AcDbLine
 10
-226.676533132648
 20
-75.87745469167996
 30
0.0
 11
-226.5528298496053
 21
-76.06637653569216
 31
0.0
  0
LINE
  5
CE
330
75
100
AcDbEntity
  8
2
  6
Continuous
 62
     7
370
     9
100
AcDbLine
 10
-226.5528298496053
 20
-76.06637653569216
 30
0.0
 11
-226.5503610945021
 21
-76.06943682098048
 31
0.0
  0
LINE
  5
CF
330
75
100
AcDbEntity
  8
2
  6
Continuous
 62
     7
370
     9
100
AcDbLine
 10
-274.635747620232
 20
314.6672489600461
 30
0.0
 11
-275.0679790582636
 21
314.633243419661
 31
0.0
  0
ENDBLK
  5
D4
330
75
100
AcDbEntity
  8
0
100
AcDbBlockEnd
  0
BLOCK
  5
228
330
D2
100
AcDbEntity
  8
0
100
AcDbBlockBegin
  2
D_FRAME_VIEW@3969
 70
     0
 10
0.0
 20
0.0
 30
0.0
  3
D_FRAME_VIEW@3969
  1

  0
ARC
  5
D5
330
D2
100
AcDbEntity
  8
2
  6
Continuous
 62
     7
370
     9
100
AcDbCircle
 10
-691.8542674120879
 20
-482.6567904227751
 30
0.0
 40
3.024374647606787
100
AcDbArc
 50
340.6919622419862
 51
19.30785829000888
  0
LINE
  5
D6
330
D2
100
AcDbEntity
  8
2
  6
Continuous
 62
     7
370
     9
100
AcDbLine
 10
-682.9999999989677
 20
-480.1567995914939
 30
0.0
 11
-685.5042750663724
 21
-480.1567995915022
 31
0.0
  0
LINE
  5
D7
330
D2
100
AcDbEntity
  8
2
  6
Continuous
 62
     7
370
     9
100
AcDbLine
 10
-682.9999999989626
 20
-481.6568089903839
 30
0.0
 11
-683.1730208874509
 21
-482.6567995914066
 31
0.0
  0
LINE
  5
D8
330
D2
100
AcDbEntity
  8
2
  6
Continuous
 62
     7
370
     9
100
AcDbLine
 10
-686.5042740222709
 20
-480.6567995915055
 30
0.0
 11
-685.5042750663708
 21
-480.6567995915022
 31
0.0
  0
LINE
  5
D9
330
D2
100
AcDbEntity
  8
2
  6
Continuous
 62
     7
370
     9
100
AcDbLine
 10
-685.5042750663708
 20
-480.656799591244
 30
0.0
 11
-685.5042750663724
 21
-480.156799591244
 31
0.0
  0
LINE
  5
DA
330
D2
100
AcDbEntity
  8
2
  6
Continuous
 62
     7
370
     9
100
AcDbLine
 10
-686.4957249315609
 20
-480.6567995917637
 30
0.0
 11
-686.4957249315626
 21
-480.1567995917637
 31
0.0
  0
LINE
  5
DB
330
D2
100
AcDbEntity
  8
2
  6
Continuous
 62
     7
370
     9
100
AcDbLine
 10
-686.5042740222726
 20
-480.1567995915055
 30
0.0
 11
-688.9999999989673
 21
-480.1567995915138
 31
0.0
  0
LINE
  5
DC
330
D2
100
AcDbEntity
  8
2
  6
Continuous
 62
     7
370
     9
100
AcDbLine
 10
-686.5042740222709
 20
-480.6567995912474
 30
0.0
 11
-686.5042740222726
 21
-480.1567995912474
 31
0.0
  0
LINE
  5
DD
330
D2
100
AcDbEntity
  8
2
  6
Continuous
 62
     7
370
     9
100
AcDbLine
 10
-683.1730208874509
 20
-482.6567995914066
 30
0.0
 11
-682.999999998956
 21
-483.656790194378
 31
0.0
  0
LINE
  5
DE
330
D2
100
AcDbEntity
  8
2
  6
Continuous
 62
     7
370
     9
100
AcDbLine
 10
-685.5035401808568
 20
-479.6567995915022
 30
0.0
 11
-683.4999999989693
 21
-479.6567995914955
 31
0.0
  0
LINE
  5
DF
330
D2
100
AcDbEntity
  8
2
  6
Continuous
 62
     7
370
     9
100
AcDbLine
 10
-685.5042750663724
 20
-480.156799591244
 30
0.0
 11
-685.5035401808568
 21
-479.6567995912883
 31
0.0
  0
LINE
  5
E0
330
D2
100
AcDbEntity
  8
2
  6
Continuous
 62
     7
370
     9
100
AcDbLine
 10
-686.4957249315626
 20
-480.1567995917637
 30
0.0
 11
-686.4964598170816
 21
-479.6567995917193
 31
0.0
  0
LINE
  5
E1
330
D2
100
AcDbEntity
  8
2
  6
Continuous
 62
     7
370
     9
100
AcDbLine
 10
-686.5035391367569
 20
-479.6567995912918
 30
0.0
 11
-686.5042740222726
 21
-480.1567995912474
 31
0.0
  0
LINE
  5
E2
330
D2
100
AcDbEntity
  8
2
  6
Continuous
 62
     7
370
     9
100
AcDbLine
 10
-686.4964598170816
 20
-479.6567995917193
 30
0.0
 11
-686.5035391367569
 21
-479.6567995912918
 31
0.0
  0
LINE
  5
E3
330
D2
100
AcDbEntity
  8
2
  6
Continuous
 62
     7
370
     9
100
AcDbLine
 10
-688.4999999989691
 20
-479.6567995915122
 30
0.0
 11
-686.5035391367569
 21
-479.6567995915055
 31
0.0
  0
LINE
  5
E4
330
D2
100
AcDbEntity
  8
2
  6
Continuous
 62
     7
370
     9
100
AcDbLine
 10
-623.1057556252717
 20
-321.4931053543006
 30
0.0
 11
-623.1206104187354
 21
-305.9752315538533
 31
0.0
  0
LINE
  5
E5
330
D2
100
AcDbEntity
  8
2
  6
Continuous
 62
     7
370
     9
100
AcDbLine
 10
-509.9057546778002
 20
-321.4935031208217
 30
0.0
 11
-509.920610985437
 21
-305.974047558607
 31
0.0
  0
LINE
  5
E6
330
D2
100
AcDbEntity
  8
2
  6
Continuous
 62
     7
370
     9
100
AcDbLine
 10
-619.8670579718311
 20
-321.522447481991
 30
0.0
 11
-619.882846445556
 21
-305.0292162994872
 31
0.0
  0
LINE
  5
E7
330
D2
100
AcDbEntity
  8
2
  6
Continuous
 62
     7
370
     9
100
AcDbLine
 10
-619.9087740037097
 20
-321.522447481991
 30
0.0
 11
-619.9204207559907
 21
-309.3558136932049
 31
0.0
  0
LINE
  5
E8
330
D2
100
AcDbEntity
  8
2
  6
Continuous
 62
     7
370
     9
100
AcDbLine
 10
-513.1422830379018
 20
-321.522447481991
 30
0.0
 11
-513.1580725801974
 21
-305.0281000307102
 31
0.0
  0
LINE
  5
E9
330
D2
100
AcDbEntity
  8
2
  6
Continuous
 62
     7
370
     9
100
AcDbLine
 10
-513.1087734690478
 20
-321.522447481991
 30
0.0
 11
-513.1204212906524
 21
-309.3546966376191
 31
0.0
  0
LINE
  5
EA
330
D2
100
AcDbEntity
  8
2
  6
Continuous
 62
     7
370
     9
100
AcDbLine
 10
-619.9204207559907
 20
-309.3558136932049
 30
0.0
 11
-619.882846445556
 21
-305.0292162994872
 31
0.0
  0
LINE
  5
EB
330
D2
100
AcDbEntity
  8
2
  6
Continuous
 62
     7
370
     9
100
AcDbLine
 10
-619.882846445556
 20
-305.0292162994872
 30
0.0
 11
-619.4825611237331
 21
-304.9872019771464
 31
0.0
  0
LINE
  5
EC
330
D2
100
AcDbEntity
  8
2
  6
Continuous
 62
     7
370
     9
100
AcDbLine
 10
-619.520135434168
 20
-309.313799370864
 30
0.0
 11
-619.9204207559906
 21
-309.3558136932049
 31
0.0
  0
LINE
  5
ED
330
D2
100
AcDbEntity
  8
2
  6
Continuous
 62
     7
370
     9
100
AcDbLine
 10
-513.1204212906524
 20
-309.3546966376191
 30
0.0
 11
-513.1580725801974
 21
-305.0281000307102
 31
0.0
  0
LINE
  5
EE
330
D2
100
AcDbEntity
  8
2
  6
Continuous
 62
     7
370
     9
100
AcDbLine
 10
-513.1580725801974
 20
-305.0281000307102
 30
0.0
 11
-513.5584383320959
 21
-304.9860940826368
 31
0.0
  0
LINE
  5
EF
330
D2
100
AcDbEntity
  8
2
  6
Continuous
 62
     7
370
     9
100
AcDbLine
 10
-513.5207870425509
 20
-309.3126906895457
 30
0.0
 11
-513.1204212906524
 21
-309.354696637619
 31
0.0
  0
LINE
  5
F0
330
D2
100
AcDbEntity
  8
2
  6
Continuous
 62
     7
370
     9
100
AcDbLine
 10
-513.5584383320959
 20
-304.9860940826368
 30
0.0
 11
-619.4825611237331
 21
-304.9872019771464
 31
0.0
  0
LINE
  5
F1
330
D2
100
AcDbEntity
  8
2
  6
Continuous
 62
     7
370
     9
100
AcDbLine
 10
-513.5207870425509
 20
-309.3126906895457
 30
0.0
 11
-619.520135434168
 21
-309.313799370864
 31
0.0
  0
LINE
  5
F2
330
D2
100
AcDbEntity
  8
2
  6
Continuous
 62
     7
370
     9
100
AcDbLine
 10
-623.0919043312741
 20
-302.6697901031056
 30
0.0
 11
-623.1206104187354
 21
-305.9752315538533
 31
0.0
  0
LWPOLYLINE
  5
F3
330
D2
100
AcDbEntity
  8
2
  6
Continuous
 62
     7
370
     9
100
AcDbPolyline
 90
        3
 70
     0
 43
0.0
 10
623.1206104187354
 20
-305.9752315538533
 10
623.0344617018892
 20
-305.9142672104575
 42
0.0544218707051657
 10
621.1191838096215
 20
-305.7651599421491
210
0.0
220
0.0
230
-1.0
  0
LINE
  5
F4
330
D2
100
AcDbEntity
  8
2
  6
Continuous
 62
     7
370
     9
100
AcDbLine
 10
-509.9493758835336
 20
-302.6686067089668
 30
0.0
 11
-509.920610985437
 21
-305.974047558607
 31
0.0
  0
LWPOLYLINE
  5
F5
330
D2
100
AcDbEntity
  8
2
  6
Continuous
 62
     7
370
     9
100
AcDbPolyline
 90
        3
 70
     0
 43
0.0
 10
-509.920610985437
 20
-305.974047558607
 10
-510.0068764192184
 20
-305.9130850185463
 42
0.0544041966953053
 10
-511.9224397449292
 20
-305.7640178182398
  0
LINE
  5
F6
330
D2
100
AcDbEntity
  8
2
  6
Continuous
 62
     7
370
     9
100
AcDbLine
 10
-566.5207949497047
 20
-301.6173076834359
 30
0.0
 11
-587.3297649992405
 21
-301.6746752593336
 31
0.0
  0
LINE
  5
F7
330
D2
100
AcDbEntity
  8
2
  6
Continuous
 62
     7
370
     9
100
AcDbLine
 10
-539.3315114170097
 20
-301.7145924032594
 30
0.0
 11
-511.9436161332001
 21
-302.0098845902549
 31
0.0
  0
LINE
  5
F8
330
D2
100
AcDbEntity
  8
2
  6
Continuous
 62
     7
370
     9
100
AcDbLine
 10
-511.9224397449292
 20
-305.7640178182398
 30
0.0
 11
-621.1191838096215
 21
-305.7651599421492
 31
0.0
  0
LINE
  5
F9
330
D2
100
AcDbEntity
  8
2
  6
Continuous
 62
     7
370
     9
100
AcDbLine
 10
-748.8942443806742
 20
-321.4931115653411
 30
0.0
 11
-748.8793895812648
 21
-305.9752315538536
 31
0.0
  0
LINE
  5
FA
330
D2
100
AcDbEntity
  8
2
  6
Continuous
 62
     7
370
     9
100
AcDbLine
 10
-862.0942453161534
 20
-321.4934968044239
 30
0.0
 11
-862.0793890145633
 21
-305.9740475586074
 31
0.0
  0
LINE
  5
FB
330
D2
100
AcDbEntity
  8
2
  6
Continuous
 62
     7
370
     9
100
AcDbLine
 10
-752.1329420281694
 20
-321.5224474819911
 30
0.0
 11
-752.1171535544443
 21
-305.0292162994875
 31
0.0
  0
LINE
  5
FC
330
D2
100
AcDbEntity
  8
2
  6
Continuous
 62
     7
370
     9
100
AcDbLine
 10
-752.0912259962906
 20
-321.522447481991
 30
0.0
 11
-752.0795792440097
 21
-309.3558136932052
 31
0.0
  0
LINE
  5
FD
330
D2
100
AcDbEntity
  8
2
  6
Continuous
 62
     7
370
     9
100
AcDbLine
 10
-858.8577169620983
 20
-321.522447481991
 30
0.0
 11
-858.8419274198028
 21
-305.0281000307105
 31
0.0
  0
LINE
  5
FE
330
D2
100
AcDbEntity
  8
2
  6
Continuous
 62
     7
370
     9
100
AcDbLine
 10
-858.8912265309525
 20
-321.522447481991
 30
0.0
 11
-858.8795787093477
 21
-309.3546966376194
 31
0.0
  0
LINE
  5
FF
330
D2
100
AcDbEntity
  8
2
  6
Continuous
 62
     7
370
     9
100
AcDbLine
 10
-752.0795792440097
 20
-309.3558136932052
 30
0.0
 11
-752.1171535544443
 21
-305.0292162994875
 31
0.0
  0
LINE
  5
100
330
D2
100
AcDbEntity
  8
2
  6
Continuous
 62
     7
370
     9
100
AcDbLine
 10
-752.1171535544443
 20
-305.0292162994875
 30
0.0
 11
-752.5174388762672
 21
-304.9872019771467
 31
0.0
  0
LINE
  5
101
330
D2
100
AcDbEntity
  8
2
  6
Continuous
 62
     7
370
     9
100
AcDbLine
 10
-752.4798645658325
 20
-309.3137993708643
 30
0.0
 11
-752.0795792440097
 21
-309.3558136932051
 31
0.0
  0
LINE
  5
102
330
D2
100
AcDbEntity
  8
2
  6
Continuous
 62
     7
370
     9
100
AcDbLine
 10
-858.8795787093477
 20
-309.3546966376194
 30
0.0
 11
-858.8419274198028
 21
-305.0281000307105
 31
0.0
  0
LINE
  5
103
330
D2
100
AcDbEntity
  8
2
  6
Continuous
 62
     7
370
     9
100
AcDbLine
 10
-858.8419274198028
 20
-305.0281000307105
 30
0.0
 11
-858.4415616679042
 21
-304.9860940826371
 31
0.0
  0
LINE
  5
104
330
D2
100
AcDbEntity
  8
2
  6
Continuous
 62
     7
370
     9
100
AcDbLine
 10
-858.4792129574494
 20
-309.3126906895459
 30
0.0
 11
-858.8795787093477
 21
-309.3546966376194
 31
0.0
  0
LINE
  5
105
330
D2
100
AcDbEntity
  8
2
  6
Continuous
 62
     7
370
     9
100
AcDbLine
 10
-858.4415616679042
 20
-304.9860940826371
 30
0.0
 11
-752.5174388762672
 21
-304.9872019771467
 31
0.0
  0
LINE
  5
106
330
D2
100
AcDbEntity
  8
2
  6
Continuous
 62
     7
370
     9
100
AcDbLine
 10
-858.4792129574494
 20
-309.3126906895459
 30
0.0
 11
-752.4798645658325
 21
-309.3137993708643
 31
0.0
  0
LINE
  5
107
330
D2
100
AcDbEntity
  8
2
  6
Continuous
 62
     7
370
     9
100
AcDbLine
 10
-748.9080956687262
 20
-302.6697901031059
 30
0.0
 11
-748.8793895812648
 21
-305.9752315538536
 31
0.0
  0
LWPOLYLINE
  5
108
330
D2
100
AcDbEntity
  8
2
  6
Continuous
 62
     7
370
     9
100
AcDbPolyline
 90
        3
 70
     0
 43
0.0
 10
-748.8793895812648
 20
-305.9752315538536
 10
-748.965538298111
 20
-305.9142672104578
 42
0.0544218707051911
 10
-750.8808161903788
 20
-305.7651599421495
  0
LINE
  5
109
330
D2
100
AcDbEntity
  8
2
  6
Continuous
 62
     7
370
     9
100
AcDbLine
 10
-862.0506241164665
 20
-302.6686067089671
 30
0.0
 11
-862.0793890145633
 21
-305.9740475586074
 31
0.0
  0
LWPOLYLINE
  5
10A
330
D2
100
AcDbEntity
  8
2
  6
Continuous
 62
     7
370
     9
100
AcDbPolyline
 90
        3
 70
     0
 43
0.0
 10
862.0793890145633
 20
-305.9740475586074
 10
861.9931235807818
 20
-305.9130850185466
 42
0.0544041966953392
 10
860.0775602550709
 20
-305.7640178182401
210
0.0
220
0.0
230
-1.0
  0
LINE
  5
10B
330
D2
100
AcDbEntity
  8
2
  6
Continuous
 62
     7
370
     9
100
AcDbLine
 10
-778.2899232532982
 20
-301.7151611661863
 30
0.0
 11
-750.9020332281775
 21
-302.011026270758
 31
0.0
  0
LINE
  5
10C
330
D2
100
AcDbEntity
  8
2
  6
Continuous
 62
     7
370
     9
100
AcDbLine
 10
-805.4792050503052
 20
-301.6173076834362
 30
0.0
 11
-826.2881761165786
 21
-301.6742399638862
 31
0.0
  0
LINE
  5
10D
330
D2
100
AcDbEntity
  8
2
  6
Continuous
 62
     7
370
     9
100
AcDbLine
 10
-860.0775602550709
 20
-305.7640178182401
 30
0.0
 11
-750.8808161903788
 21
-305.7651599421495
 31
0.0
  0
LINE
  5
10E
330
D2
100
AcDbEntity
  8
2
  6
Continuous
 62
     7
370
     9
100
AcDbLine
 10
-600.4999999999974
 20
-478.3347895895938
 30
0.0
 11
-600.4999999999974
 21
-493.8347895895939
 31
0.0
  0
LINE
  5
10F
330
D2
100
AcDbEntity
  8
2
  6
Continuous
 62
     7
370
     9
100
AcDbLine
 10
-600.9999999999973
 20
-493.8347895895939
 30
0.0
 11
-600.9999999999973
 21
-478.3347896072638
 31
0.0
  0
LINE
  5
110
330
D2
100
AcDbEntity
  8
2
  6
Continuous
 62
     7
370
     9
100
AcDbLine
 10
-600.9999999999973
 20
-493.8347895895939
 30
0.0
 11
-600.4999999999974
 21
-493.8347895895939
 31
0.0
  0
LINE
  5
111
330
D2
100
AcDbEntity
  8
2
  6
Continuous
 62
     7
370
     9
100
AcDbLine
 10
-631.4999999999973
 20
-478.3347895895938
 30
0.0
 11
-631.4999999999973
 21
-493.8347895895939
 31
0.0
  0
LINE
  5
112
330
D2
100
AcDbEntity
  8
2
  6
Continuous
 62
     7
370
     9
100
AcDbLine
 10
-630.9999999999973
 20
-493.8347895895939
 30
0.0
 11
-630.9999999999973
 21
-478.3347896072638
 31
0.0
  0
LINE
  5
113
330
D2
100
AcDbEntity
  8
2
  6
Continuous
 62
     7
370
     9
100
AcDbLine
 10
-630.9999999999973
 20
-493.8347895895939
 30
0.0
 11
-631.4999999999973
 21
-493.8347895895939
 31
0.0
  0
ARC
  5
114
330
D2
100
AcDbEntity
  8
2
  6
Continuous
 62
     7
370
     9
100
AcDbCircle
 10
615.9999999999975
 20
-478.3347895895939
 30
0.0
 40
15.50000000000018
210
0.0
220
0.0
230
-1.0
100
AcDbArc
 50
90.00000000000082
 51
179.9999999999998
  0
ARC
  5
115
330
D2
100
AcDbEntity
  8
2
  6
Continuous
 62
     7
370
     9
100
AcDbCircle
 10
-615.9999999999977
 20
-478.3347895895932
 30
0.0
 40
15.49999999999951
100
AcDbArc
 50
89.99999999999837
 51
180.0000000000023
  0
LINE
  5
116
330
D2
100
AcDbEntity
  8
2
  6
Continuous
 62
     7
370
     9
100
AcDbLine
 10
-634.3999687961758
 20
-475.2009030191693
 30
0.0
 11
-634.5439357311088
 21
-491.6978797563959
 31
0.0
  0
ARC
  5
117
330
D2
100
AcDbEntity
  8
2
  6
Continuous
 62
     7
370
     9
100
AcDbCircle
 10
615.9999999999973
 20
-475.2347895895937
 30
0.0
 40
18.40000000000027
210
0.0
220
0.0
230
-1.0
100
AcDbArc
 50
0.1055194872300032
 51
54.08836037057433
  0
ARC
  5
118
330
D2
100
AcDbEntity
  8
2
  6
Continuous
 62
     7
370
     9
100
AcDbCircle
 10
615.9999999999973
 20
-475.2347895895937
 30
0.0
 40
18.40000000000027
210
0.0
220
0.0
230
-1.0
100
AcDbArc
 50
126.149995504495
 51
179.89448051277
  0
LINE
  5
119
330
D2
100
AcDbEntity
  8
2
  6
Continuous
 62
     7
370
     9
100
AcDbLine
 10
-597.6000312038187
 20
-475.2009030191693
 30
0.0
 11
-597.4560642688889
 21
-491.6978797560555
 31
0.0
  0
LINE
  5
11A
330
D2
100
AcDbEntity
  8
2
  6
Continuous
 62
     7
370
     9
100
AcDbLine
 10
-634.5496724534268
 20
-493.8347895895939
 30
0.0
 11
-631.4999999999973
 21
-493.8347895895939
 31
0.0
  0
LINE
  5
11B
330
D2
100
AcDbEntity
  8
2
  6
Continuous
 62
     7
370
     9
100
AcDbLine
 10
-597.4503275465698
 20
-493.8347895895939
 30
0.0
 11
-600.4999999999974
 21
-493.8347895895939
 31
0.0
  0
ARC
  5
11C
330
D2
100
AcDbEntity
  8
2
  6
Continuous
 62
     7
370
     9
100
AcDbCircle
 10
-615.999961937406
 20
-478.3347514997631
 30
0.0
 40
15.00003806263954
100
AcDbArc
 50
90.00014545552466
 51
180.000145559561
  0
ARC
  5
11D
330
D2
100
AcDbEntity
  8
2
  6
Continuous
 62
     7
370
     9
100
AcDbCircle
 10
616.0000380625886
 20
-478.3347514997633
 30
0.0
 40
15.00003806263976
210
0.0
220
0.0
230
-1.0
100
AcDbArc
 50
90.00014545552466
 51
180.0001455595601
  0
LINE
  5
11E
330
D2
100
AcDbEntity
  8
2
  6
Continuous
 62
     7
370
     9
100
AcDbLine
 10
-600.9999999999973
 20
-493.8347895895939
 30
0.0
 11
-630.9999999999973
 21
-493.8347895895939
 31
0.0
  0
LINE
  5
11F
330
D2
100
AcDbEntity
  8
2
  6
Continuous
 62
     7
370
     9
100
AcDbLine
 10
-634.4229543760517
 20
-477.8347895895938
 30
0.0
 11
-634.5067190467545
 21
-477.8347895895938
 31
0.0
  0
LINE
  5
120
330
D2
100
AcDbEntity
  8
2
  6
Continuous
 62
     7
370
     9
100
AcDbLine
 10
-597.5770456239428
 20
-477.8347895895938
 30
0.0
 11
-597.4932809532421
 21
-477.8347895895938
 31
0.0
  0
ARC
  5
121
330
D2
100
AcDbEntity
  8
2
  6
Continuous
 62
     7
370
     9
100
AcDbCircle
 10
515.9999999999985
 20
-478.3347895895939
 30
0.0
 40
15.50000000000018
210
0.0
220
0.0
230
-1.0
100
AcDbArc
 50
90.00000000000124
 51
179.9999999999998
  0
ARC
  5
122
330
D2
100
AcDbEntity
  8
2
  6
Continuous
 62
     7
370
     9
100
AcDbCircle
 10
-515.9999999999989
 20
-478.334789589593
 30
0.0
 40
15.49999999999935
100
AcDbArc
 50
89.99999999999754
 51
180.0000000000029
  0
LINE
  5
123
330
D2
100
AcDbEntity
  8
2
  6
Continuous
 62
     7
370
     9
100
AcDbLine
 10
-531.4999999999982
 20
-478.3347895895938
 30
0.0
 11
-531.4999999999982
 21
-493.8347895895939
 31
0.0
  0
LINE
  5
124
330
D2
100
AcDbEntity
  8
2
  6
Continuous
 62
     7
370
     9
100
AcDbLine
 10
-534.549672453426
 20
-493.8347895895939
 30
0.0
 11
-531.4999999999982
 21
-493.8347895895939
 31
0.0
  0
LINE
  5
125
330
D2
100
AcDbEntity
  8
2
  6
Continuous
 62
     7
370
     9
100
AcDbLine
 10
-534.3999687961767
 20
-475.2009030191693
 30
0.0
 11
-534.5439357311072
 21
-491.6978797561111
 31
0.0
  0
ARC
  5
126
330
D2
100
AcDbEntity
  8
2
  6
Continuous
 62
     7
370
     9
100
AcDbCircle
 10
515.9999999999982
 20
-475.2347895895937
 30
0.0
 40
18.40000000000027
210
0.0
220
0.0
230
-1.0
100
AcDbArc
 50
0.1055194872300026
 51
54.08836037051801
  0
ARC
  5
127
330
D2
100
AcDbEntity
  8
2
  6
Continuous
 62
     7
370
     9
100
AcDbCircle
 10
515.9999999999982
 20
-475.2347895895937
 30
0.0
 40
18.40000000000027
210
0.0
220
0.0
230
-1.0
100
AcDbArc
 50
126.1499955044341
 51
179.89448051277
  0
LINE
  5
128
330
D2
100
AcDbEntity
  8
2
  6
Continuous
 62
     7
370
     9
100
AcDbLine
 10
-497.6000312038198
 20
-475.2009030191693
 30
0.0
 11
-497.4560642688873
 21
-491.6978797563316
 31
0.0
  0
LINE
  5
129
330
D2
100
AcDbEntity
  8
2
  6
Continuous
 62
     7
370
     9
100
AcDbLine
 10
-497.4503275465692
 20
-493.8347895895939
 30
0.0
 11
-500.4999999999984
 21
-493.8347895895939
 31
0.0
  0
LINE
  5
12A
330
D2
100
AcDbEntity
  8
2
  6
Continuous
 62
     7
370
     9
100
AcDbLine
 10
-500.4999999999984
 20
-478.3347895895938
 30
0.0
 11
-500.4999999999984
 21
-493.8347895895939
 31
0.0
  0
LINE
  5
12B
330
D2
100
AcDbEntity
  8
2
  6
Continuous
 62
     7
370
     9
100
AcDbLine
 10
-530.9999999999982
 20
-493.8347895895939
 30
0.0
 11
-530.9999999999982
 21
-478.3347896072638
 31
0.0
  0
LINE
  5
12C
330
D2
100
AcDbEntity
  8
2
  6
Continuous
 62
     7
370
     9
100
AcDbLine
 10
-530.9999999999983
 20
-493.8347895895939
 30
0.0
 11
-531.4999999999982
 21
-493.8347895895939
 31
0.0
  0
LINE
  5
12D
330
D2
100
AcDbEntity
  8
2
  6
Continuous
 62
     7
370
     9
100
AcDbLine
 10
-500.9999999999984
 20
-493.8347895895939
 30
0.0
 11
-500.9999999999984
 21
-478.3347896072638
 31
0.0
  0
LINE
  5
12E
330
D2
100
AcDbEntity
  8
2
  6
Continuous
 62
     7
370
     9
100
AcDbLine
 10
-500.9999999999984
 20
-493.8347895895939
 30
0.0
 11
-500.4999999999984
 21
-493.8347895895939
 31
0.0
  0
ARC
  5
12F
330
D2
100
AcDbEntity
  8
2
  6
Continuous
 62
     7
370
     9
100
AcDbCircle
 10
-515.999961937407
 20
-478.3347514997631
 30
0.0
 40
15.00003806263954
100
AcDbArc
 50
90.00014545552513
 51
180.000145559561
  0
ARC
  5
130
330
D2
100
AcDbEntity
  8
2
  6
Continuous
 62
     7
370
     9
100
AcDbCircle
 10
516.0000380625896
 20
-478.3347514997633
 30
0.0
 40
15.00003806263976
210
0.0
220
0.0
230
-1.0
100
AcDbArc
 50
90.00014545552513
 51
180.0001455595601
  0
LINE
  5
131
330
D2
100
AcDbEntity
  8
2
  6
Continuous
 62
     7
370
     9
100
AcDbLine
 10
-500.9999999999984
 20
-493.8347895895939
 30
0.0
 11
-530.9999999999982
 21
-493.8347895895939
 31
0.0
  0
LINE
  5
132
330
D2
100
AcDbEntity
  8
2
  6
Continuous
 62
     7
370
     9
100
AcDbLine
 10
-497.5770456239438
 20
-477.8347895895938
 30
0.0
 11
-497.4932809532414
 21
-477.8347895895938
 31
0.0
  0
LINE
  5
133
330
D2
100
AcDbEntity
  8
2
  6
Continuous
 62
     7
370
     9
100
AcDbLine
 10
-534.4229543760526
 20
-477.8347895895938
 30
0.0
 11
-534.5067190467537
 21
-477.8347895895938
 31
0.0
  0
LINE
  5
134
330
D2
100
AcDbEntity
  8
2
  6
Continuous
 62
     7
370
     9
100
AcDbLine
 10
-774.5496724534278
 20
-493.8347895895939
 30
0.0
 11
-771.5000000000001
 21
-493.8347895895939
 31
0.0
  0
LINE
  5
135
330
D2
100
AcDbEntity
  8
2
  6
Continuous
 62
     7
370
     9
100
AcDbLine
 10
-774.3999687961788
 20
-475.2009030191691
 30
0.0
 11
-774.5439357311091
 21
-491.6978797560751
 31
0.0
  0
ARC
  5
136
330
D2
100
AcDbEntity
  8
2
  6
Continuous
 62
     7
370
     9
100
AcDbCircle
 10
-756.0000000000001
 20
-475.2347895895936
 30
0.0
 40
18.40000000000099
100
AcDbArc
 50
0.1055194872299988
 51
53.95357858406989
  0
ARC
  5
137
330
D2
100
AcDbEntity
  8
2
  6
Continuous
 62
     7
370
     9
100
AcDbCircle
 10
-756.0000000000001
 20
-475.2347895895936
 30
0.0
 40
18.40000000000099
100
AcDbArc
 50
125.0057804618422
 51
179.89448051277
  0
LINE
  5
138
330
D2
100
AcDbEntity
  8
2
  6
Continuous
 62
     7
370
     9
100
AcDbLine
 10
-737.6000312038215
 20
-475.2009030191691
 30
0.0
 11
-737.4560642688892
 21
-491.697879756314
 31
0.0
  0
LINE
  5
139
330
D2
100
AcDbEntity
  8
2
  6
Continuous
 62
     7
370
     9
100
AcDbLine
 10
-737.450327546571
 20
-493.8347895895939
 30
0.0
 11
-740.5
 21
-493.8347895895939
 31
0.0
  0
LINE
  5
13A
330
D2
100
AcDbEntity
  8
2
  6
Continuous
 62
     7
370
     9
100
AcDbLine
 10
-740.5
 20
-478.3347895895936
 30
0.0
 11
-740.5
 21
-493.8347895895939
 31
0.0
  0
ARC
  5
13B
330
D2
100
AcDbEntity
  8
2
  6
Continuous
 62
     7
370
     9
100
AcDbCircle
 10
756.0000000000002
 20
-478.3347895895936
 30
0.0
 40
15.50000000000018
210
0.0
220
0.0
230
-1.0
100
AcDbArc
 50
90.00000000000043
 51
180.0000000000002
  0
ARC
  5
13C
330
D2
100
AcDbEntity
  8
2
  6
Continuous
 62
     7
370
     9
100
AcDbCircle
 10
-756.0
 20
-478.3347895895936
 30
0.0
 40
15.50000000000018
100
AcDbArc
 50
90.00000000000043
 51
180.0000000000002
  0
LINE
  5
13D
330
D2
100
AcDbEntity
  8
2
  6
Continuous
 62
     7
370
     9
100
AcDbLine
 10
-771.5000000000001
 20
-478.3347895895936
 30
0.0
 11
-771.5000000000001
 21
-493.8347895895939
 31
0.0
  0
LINE
  5
13E
330
D2
100
AcDbEntity
  8
2
  6
Continuous
 62
     7
370
     9
100
AcDbLine
 10
-741.0
 20
-493.8347895895939
 30
0.0
 11
-740.5
 21
-493.8347895895939
 31
0.0
  0
LINE
  5
13F
330
D2
100
AcDbEntity
  8
2
  6
Continuous
 62
     7
370
     9
100
AcDbLine
 10
-741.0
 20
-493.8347895895939
 30
0.0
 11
-741.0
 21
-478.3347896072636
 31
0.0
  0
LINE
  5
140
330
D2
100
AcDbEntity
  8
2
  6
Continuous
 62
     7
370
     9
100
AcDbLine
 10
-771.0000000000002
 20
-493.8347895895939
 30
0.0
 11
-771.5000000000001
 21
-493.8347895895939
 31
0.0
  0
LINE
  5
141
330
D2
100
AcDbEntity
  8
2
  6
Continuous
 62
     7
370
     9
100
AcDbLine
 10
-771.0000000000002
 20
-493.8347895895939
 30
0.0
 11
-771.0000000000002
 21
-478.3347896072636
 31
0.0
  0
ARC
  5
142
330
D2
100
AcDbEntity
  8
2
  6
Continuous
 62
     7
370
     9
100
AcDbCircle
 10
-755.9999619374086
 20
-478.3347514997633
 30
0.0
 40
15.00003806264004
100
AcDbArc
 50
90.00014545552594
 51
180.0001455595597
  0
ARC
  5
143
330
D2
100
AcDbEntity
  8
2
  6
Continuous
 62
     7
370
     9
100
AcDbCircle
 10
756.0000380625917
 20
-478.3347514997633
 30
0.0
 40
15.00003806264004
210
0.0
220
0.0
230
-1.0
100
AcDbArc
 50
90.00014545552594
 51
180.0001455595597
  0
LINE
  5
144
330
D2
100
AcDbEntity
  8
2
  6
Continuous
 62
     7
370
     9
100
AcDbLine
 10
-771.0000000000002
 20
-493.8347895895939
 30
0.0
 11
-741.0
 21
-493.8347895895939
 31
0.0
  0
LINE
  5
145
330
D2
100
AcDbEntity
  8
2
  6
Continuous
 62
     7
370
     9
100
AcDbLine
 10
-774.4229543760547
 20
-477.8347895895936
 30
0.0
 11
-774.5067190467555
 21
-477.8347895895936
 31
0.0
  0
LINE
  5
146
330
D2
100
AcDbEntity
  8
2
  6
Continuous
 62
     7
370
     9
100
AcDbLine
 10
-737.5770456239455
 20
-477.8347895895936
 30
0.0
 11
-737.4932809532432
 21
-477.8347895895936
 31
0.0
  0
LINE
  5
147
330
D2
100
AcDbEntity
  8
2
  6
Continuous
 62
     7
370
     9
100
AcDbLine
 10
-841.0000000000001
 20
-493.8347895895939
 30
0.0
 11
-840.5
 21
-493.8347895895939
 31
0.0
  0
LINE
  5
148
330
D2
100
AcDbEntity
  8
2
  6
Continuous
 62
     7
370
     9
100
AcDbLine
 10
-841.0000000000001
 20
-493.8347895895939
 30
0.0
 11
-841.0000000000001
 21
-478.3347896072636
 31
0.0
  0
LINE
  5
149
330
D2
100
AcDbEntity
  8
2
  6
Continuous
 62
     7
370
     9
100
AcDbLine
 10
-871.0000000000002
 20
-493.8347895895939
 30
0.0
 11
-871.5000000000001
 21
-493.8347895895939
 31
0.0
  0
LINE
  5
14A
330
D2
100
AcDbEntity
  8
2
  6
Continuous
 62
     7
370
     9
100
AcDbLine
 10
-871.0000000000002
 20
-493.8347895895939
 30
0.0
 11
-871.0000000000002
 21
-478.3347896072636
 31
0.0
  0
LINE
  5
14B
330
D2
100
AcDbEntity
  8
2
  6
Continuous
 62
     7
370
     9
100
AcDbLine
 10
-874.5496724534285
 20
-493.8347895895939
 30
0.0
 11
-871.5000000000001
 21
-493.8347895895939
 31
0.0
  0
LINE
  5
14C
330
D2
100
AcDbEntity
  8
2
  6
Continuous
 62
     7
370
     9
100
AcDbLine
 10
-874.3999687961788
 20
-475.2009030191691
 30
0.0
 11
-874.54393573111
 21
-491.6978797561935
 31
0.0
  0
ARC
  5
14D
330
D2
100
AcDbEntity
  8
2
  6
Continuous
 62
     7
370
     9
100
AcDbCircle
 10
-856.0000000000001
 20
-475.2347895895936
 30
0.0
 40
18.40000000000099
100
AcDbArc
 50
0.1055194872299988
 51
53.95357858404331
  0
ARC
  5
14E
330
D2
100
AcDbEntity
  8
2
  6
Continuous
 62
     7
370
     9
100
AcDbCircle
 10
-856.0000000000001
 20
-475.2347895895936
 30
0.0
 40
18.40000000000099
100
AcDbArc
 50
125.0057804615619
 51
179.89448051277
  0
LINE
  5
14F
330
D2
100
AcDbEntity
  8
2
  6
Continuous
 62
     7
370
     9
100
AcDbLine
 10
-837.6000312038215
 20
-475.2009030191691
 30
0.0
 11
-837.4560642688901
 21
-491.6978797561945
 31
0.0
  0
LINE
  5
150
330
D2
100
AcDbEntity
  8
2
  6
Continuous
 62
     7
370
     9
100
AcDbLine
 10
-837.4503275465717
 20
-493.8347895895939
 30
0.0
 11
-840.5
 21
-493.8347895895939
 31
0.0
  0
LINE
  5
151
330
D2
100
AcDbEntity
  8
2
  6
Continuous
 62
     7
370
     9
100
AcDbLine
 10
-840.5
 20
-478.3347895895936
 30
0.0
 11
-840.5
 21
-493.8347895895939
 31
0.0
  0
ARC
  5
152
330
D2
100
AcDbEntity
  8
2
  6
Continuous
 62
     7
370
     9
100
AcDbCircle
 10
856.0000000000002
 20
-478.3347895895936
 30
0.0
 40
15.50000000000018
210
0.0
220
0.0
230
-1.0
100
AcDbArc
 50
90.00000000000043
 51
180.0000000000002
  0
ARC
  5
153
330
D2
100
AcDbEntity
  8
2
  6
Continuous
 62
     7
370
     9
100
AcDbCircle
 10
-856.0000000000002
 20
-478.3347895895934
 30
0.0
 40
15.50000000000001
100
AcDbArc
 50
89.99999999999957
 51
180.0000000000009
  0
LINE
  5
154
330
D2
100
AcDbEntity
  8
2
  6
Continuous
 62
     7
370
     9
100
AcDbLine
 10
-871.5000000000001
 20
-478.3347895895936
 30
0.0
 11
-871.5000000000001
 21
-493.8347895895939
 31
0.0
  0
ARC
  5
155
330
D2
100
AcDbEntity
  8
2
  6
Continuous
 62
     7
370
     9
100
AcDbCircle
 10
-855.9999619374088
 20
-478.3347514997631
 30
0.0
 40
15.00003806263982
100
AcDbArc
 50
90.00014545552513
 51
180.0001455595606
  0
ARC
  5
156
330
D2
100
AcDbEntity
  8
2
  6
Continuous
 62
     7
370
     9
100
AcDbCircle
 10
856.0000380625914
 20
-478.3347514997631
 30
0.0
 40
15.00003806263982
210
0.0
220
0.0
230
-1.0
100
AcDbArc
 50
90.00014545552513
 51
180.0001455595606
  0
LINE
  5
157
330
D2
100
AcDbEntity
  8
2
  6
Continuous
 62
     7
370
     9
100
AcDbLine
 10
-871.0000000000002
 20
-493.8347895895939
 30
0.0
 11
-841.0000000000001
 21
-493.8347895895939
 31
0.0
  0
LINE
  5
158
330
D2
100
AcDbEntity
  8
2
  6
Continuous
 62
     7
370
     9
100
AcDbLine
 10
-837.5770456239455
 20
-477.8347895895936
 30
0.0
 11
-837.4932809532439
 21
-477.8347895895936
 31
0.0
  0
LINE
  5
159
330
D2
100
AcDbEntity
  8
2
  6
Continuous
 62
     7
370
     9
100
AcDbLine
 10
-874.4229543760548
 20
-477.8347895895936
 30
0.0
 11
-874.5067190467562
 21
-477.8347895895936
 31
0.0
  0
LINE
  5
15A
330
D2
100
AcDbEntity
  8
2
  6
Continuous
 62
     7
370
     9
100
AcDbLine
 10
-693.9441437922287
 20
-490.7567995895934
 30
0.0
 11
-693.8548183282071
 21
-485.6393471831562
 31
0.0
  0
LINE
  5
15B
330
D2
100
AcDbEntity
  8
2
  6
Continuous
 62
     7
370
     9
100
AcDbLine
 10
-692.9442960970722
 20
-490.7567995895934
 30
0.0
 11
-693.9441437922287
 21
-490.7567995895934
 31
0.0
  0
LINE
  5
15C
330
D2
100
AcDbEntity
  8
2
  6
Continuous
 62
     7
370
     9
100
AcDbLine
 10
-678.1451816717905
 20
-485.6393471831562
 30
0.0
 11
-678.0558562077691
 21
-490.7567995895934
 31
0.0
  0
LINE
  5
15D
330
D2
100
AcDbEntity
  8
2
  6
Continuous
 62
     7
370
     9
100
AcDbLine
 10
-678.0558562077691
 20
-490.7567995895934
 30
0.0
 11
-679.0557039029254
 21
-490.7567995895934
 31
0.0
  0
LINE
  5
15E
330
D2
100
AcDbEntity
  8
2
  6
Continuous
 62
     7
370
     9
100
AcDbLine
 10
-679.0557039029254
 20
-490.7567995895934
 30
0.0
 11
-692.9442960970722
 21
-490.7567995895934
 31
0.0
  0
ARC
  5
15F
330
D2
100
AcDbEntity
  8
2
  6
Continuous
 62
     7
370
     9
100
AcDbCircle
 10
-692.8549706330508
 20
-485.6567995895935
 30
0.0
 40
1.000000000000001
100
AcDbArc
 50
90.0
 51
178.9999999999999
  0
ARC
  5
160
330
D2
100
AcDbEntity
  8
2
  6
Continuous
 62
     7
370
     9
100
AcDbCircle
 10
679.1450293669469
 20
-485.6567995895935
 30
0.0
 40
1.000000000000001
210
0.0
220
0.0
230
-1.0
100
AcDbArc
 50
90.0
 51
178.9999999999999
  0
LINE
  5
161
330
D2
100
AcDbEntity
  8
2
  6
Continuous
 62
     7
370
     9
100
AcDbLine
 10
-692.8549706330508
 20
-484.6567995895935
 30
0.0
 11
-679.1450293669469
 21
-484.6567995895935
 31
0.0
  0
LINE
  5
162
330
D2
100
AcDbEntity
  8
2
  6
Continuous
 62
     7
370
     9
100
AcDbLine
 10
-451.9857814979171
 20
-375.0392993239002
 30
0.0
 11
-441.999999999997
 21
-493.9567995895933
 31
0.0
  0
LINE
  5
163
330
D2
100
AcDbEntity
  8
2
  6
Continuous
 62
     7
370
     9
100
AcDbLine
 10
-453.5236205924567
 20
-493.9567995895934
 30
0.0
 11
-442.4245231319543
 21
-493.9567995895934
 31
0.0
  0
LINE
  5
164
330
D2
100
AcDbEntity
  8
2
  6
Continuous
 62
     7
370
     9
100
AcDbLine
 10
-464.4999999999972
 20
-493.9567995895934
 30
0.0
 11
-453.5236205924567
 21
-493.9567995895934
 31
0.0
  0
LINE
  5
165
330
D2
100
AcDbEntity
  8
2
  6
Continuous
 62
     7
370
     9
100
AcDbLine
 10
-464.4999999999972
 20
-493.9567995895934
 30
0.0
 11
-464.4999999999972
 21
-492.2567995895935
 31
0.0
  0
ARC
  5
166
330
D2
100
AcDbEntity
  8
2
  6
Continuous
 62
     7
370
     9
100
AcDbCircle
 10
-465.9999999999972
 20
-492.2567995895935
 30
0.0
 40
1.499999999999992
100
AcDbArc
 50
0.0
 51
180.0
  0
LINE
  5
167
330
D2
100
AcDbEntity
  8
2
  6
Continuous
 62
     7
370
     9
100
AcDbLine
 10
-467.4999999999972
 20
-492.2567995895935
 30
0.0
 11
-467.4999999999972
 21
-493.9567995895934
 31
0.0
  0
LINE
  5
168
330
D2
100
AcDbEntity
  8
2
  6
Continuous
 62
     7
370
     9
100
AcDbLine
 10
-479.4999999999974
 20
-493.9567995895934
 30
0.0
 11
-467.4999999999972
 21
-493.9567995895934
 31
0.0
  0
LINE
  5
169
330
D2
100
AcDbEntity
  8
2
  6
Continuous
 62
     7
370
     9
100
AcDbLine
 10
-479.4999999999974
 20
-493.9567995895934
 30
0.0
 11
-479.4999999999974
 21
-492.2567995895935
 31
0.0
  0
ARC
  5
16A
330
D2
100
AcDbEntity
  8
2
  6
Continuous
 62
     7
370
     9
100
AcDbCircle
 10
-480.9999999999974
 20
-492.2567995895935
 30
0.0
 40
1.499999999999992
100
AcDbArc
 50
0.0
 51
180.0
  0
LINE
  5
16B
330
D2
100
AcDbEntity
  8
2
  6
Continuous
 62
     7
370
     9
100
AcDbLine
 10
-482.4999999999974
 20
-492.2567995895935
 30
0.0
 11
-482.4999999999974
 21
-493.9567995895934
 31
0.0
  0
LINE
  5
16C
330
D2
100
AcDbEntity
  8
2
  6
Continuous
 62
     7
370
     9
100
AcDbLine
 10
-497.4499999999974
 20
-493.9567995895934
 30
0.0
 11
-482.4999999999974
 21
-493.9567995895934
 31
0.0
  0
LINE
  5
16D
330
D2
100
AcDbEntity
  8
2
  6
Continuous
 62
     7
370
     9
100
AcDbLine
 10
-497.5000666645008
 20
-475.3071348920955
 30
0.0
 11
-497.4499999999974
 21
-493.9567995895934
 31
0.0
  0
ARC
  5
16E
330
D2
100
AcDbEntity
  8
2
  6
Continuous
 62
     7
370
     9
100
AcDbCircle
 10
515.9999999999976
 20
-475.3567995895935
 30
0.0
 40
18.49999999999988
210
0.0
220
0.0
230
-1.0
100
AcDbArc
 50
0.1538151878613561
 51
54.31008100445155
  0
ARC
  5
16F
330
D2
100
AcDbEntity
  8
2
  6
Continuous
 62
     7
370
     9
100
AcDbCircle
 10
515.9999999999976
 20
-475.3567995895935
 30
0.0
 40
18.49999999999988
210
0.0
220
0.0
230
-1.0
100
AcDbArc
 50
54.31008100445155
 51
125.9269647420904
  0
ARC
  5
170
330
D2
100
AcDbEntity
  8
2
  6
Continuous
 62
     7
370
     9
100
AcDbCircle
 10
515.9999999999976
 20
-475.3567995895935
 30
0.0
 40
18.49999999999988
210
0.0
220
0.0
230
-1.0
100
AcDbArc
 50
125.9269647420904
 51
179.8461848121385
  0
LINE
  5
171
330
D2
100
AcDbEntity
  8
2
  6
Continuous
 62
     7
370
     9
100
AcDbLine
 10
-534.5499999999978
 20
-493.9567995895934
 30
0.0
 11
-534.4999333354945
 21
-475.3071348920955
 31
0.0
  0
LINE
  5
172
330
D2
100
AcDbEntity
  8
2
  6
Continuous
 62
     7
370
     9
100
AcDbLine
 10
-597.4499999999981
 20
-493.9567995895934
 30
0.0
 11
-534.5499999999978
 21
-493.9567995895934
 31
0.0
  0
LINE
  5
173
330
D2
100
AcDbEntity
  8
2
  6
Continuous
 62
     7
370
     9
100
AcDbLine
 10
-597.5000666645014
 20
-475.3071348920955
 30
0.0
 11
-597.4499999999981
 21
-493.9567995895934
 31
0.0
  0
ARC
  5
174
330
D2
100
AcDbEntity
  8
2
  6
Continuous
 62
     7
370
     9
100
AcDbCircle
 10
615.9999999999983
 20
-475.3567995895936
 30
0.0
 40
18.49999999999988
210
0.0
220
0.0
230
-1.0
100
AcDbArc
 50
0.1538151878615271
 51
54.31008100451202
  0
ARC
  5
175
330
D2
100
AcDbEntity
  8
2
  6
Continuous
 62
     7
370
     9
100
AcDbCircle
 10
615.9999999999983
 20
-475.3567995895936
 30
0.0
 40
18.49999999999988
210
0.0
220
0.0
230
-1.0
100
AcDbArc
 50
54.31008100451204
 51
125.9269647421552
  0
ARC
  5
176
330
D2
100
AcDbEntity
  8
2
  6
Continuous
 62
     7
370
     9
100
AcDbCircle
 10
615.9999999999983
 20
-475.3567995895936
 30
0.0
 40
18.49999999999988
210
0.0
220
0.0
230
-1.0
100
AcDbArc
 50
125.9269647421552
 51
179.8461848121385
  0
LINE
  5
177
330
D2
100
AcDbEntity
  8
2
  6
Continuous
 62
     7
370
     9
100
AcDbLine
 10
-634.5499999999985
 20
-493.9567995895934
 30
0.0
 11
-634.4999333354953
 21
-475.3071348920955
 31
0.0
  0
LINE
  5
178
330
D2
100
AcDbEntity
  8
2
  6
Continuous
 62
     7
370
     9
100
AcDbLine
 10
-677.9999999999989
 20
-493.9567995895934
 30
0.0
 11
-634.5499999999985
 21
-493.9567995895934
 31
0.0
  0
LINE
  5
179
330
D2
100
AcDbEntity
  8
2
  6
Continuous
 62
     7
370
     9
100
AcDbLine
 10
-677.9999999999989
 20
-493.9567995895934
 30
0.0
 11
-677.9999999999989
 21
-490.7567995895935
 31
0.0
  0
LINE
  5
17A
330
D2
100
AcDbEntity
  8
2
  6
Continuous
 62
     7
370
     9
100
AcDbLine
 10
-693.999999999999
 20
-490.7567995895934
 30
0.0
 11
-693.999999999999
 21
-493.9567995895934
 31
0.0
  0
LINE
  5
17B
330
D2
100
AcDbEntity
  8
2
  6
Continuous
 62
     7
370
     9
100
AcDbLine
 10
-737.4499999999992
 20
-493.9567995895934
 30
0.0
 11
-693.999999999999
 21
-493.9567995895934
 31
0.0
  0
LINE
  5
17C
330
D2
100
AcDbEntity
  8
2
  6
Continuous
 62
     7
370
     9
100
AcDbLine
 10
-737.5000666645025
 20
-475.3071348920955
 30
0.0
 11
-737.4499999999992
 21
-493.9567995895934
 31
0.0
  0
ARC
  5
17D
330
D2
100
AcDbEntity
  8
2
  6
Continuous
 62
     7
370
     9
100
AcDbCircle
 10
755.9999999999993
 20
-475.3567995895936
 30
0.0
 40
18.49999999999988
210
0.0
220
0.0
230
-1.0
100
AcDbArc
 50
0.1538151878615271
 51
55.21106608433262
  0
ARC
  5
17E
330
D2
100
AcDbEntity
  8
2
  6
Continuous
 62
     7
370
     9
100
AcDbCircle
 10
755.9999999999993
 20
-475.3567995895936
 30
0.0
 40
18.49999999999988
210
0.0
220
0.0
230
-1.0
100
AcDbArc
 50
55.21106608433262
 51
125.8238712314936
  0
ARC
  5
17F
330
D2
100
AcDbEntity
  8
2
  6
Continuous
 62
     7
370
     9
100
AcDbCircle
 10
755.9999999999993
 20
-475.3567995895936
 30
0.0
 40
18.49999999999988
210
0.0
220
0.0
230
-1.0
100
AcDbArc
 50
125.8238712314936
 51
179.8461848121385
  0
LINE
  5
180
330
D2
100
AcDbEntity
  8
2
  6
Continuous
 62
     7
370
     9
100
AcDbLine
 10
-774.5499999999995
 20
-493.9567995895934
 30
0.0
 11
-774.4999333354963
 21
-475.3071348920955
 31
0.0
  0
LINE
  5
181
330
D2
100
AcDbEntity
  8
2
  6
Continuous
 62
     7
370
     9
100
AcDbLine
 10
-837.45
 20
-493.9567995895934
 30
0.0
 11
-774.5499999999995
 21
-493.9567995895934
 31
0.0
  0
LINE
  5
182
330
D2
100
AcDbEntity
  8
2
  6
Continuous
 62
     7
370
     9
100
AcDbLine
 10
-837.5000666645033
 20
-475.3071348920955
 30
0.0
 11
-837.45
 21
-493.9567995895934
 31
0.0
  0
ARC
  5
183
330
D2
100
AcDbEntity
  8
2
  6
Continuous
 62
     7
370
     9
100
AcDbCircle
 10
856.0000000000001
 20
-475.3567995895936
 30
0.0
 40
18.49999999999988
210
0.0
220
0.0
230
-1.0
100
AcDbArc
 50
0.1538151878615271
 51
55.21106608461352
  0
ARC
  5
184
330
D2
100
AcDbEntity
  8
2
  6
Continuous
 62
     7
370
     9
100
AcDbCircle
 10
856.0000000000001
 20
-475.3567995895936
 30
0.0
 40
18.49999999999988
210
0.0
220
0.0
230
-1.0
100
AcDbArc
 50
55.21106608461352
 51
125.823871231522
  0
ARC
  5
185
330
D2
100
AcDbEntity
  8
2
  6
Continuous
 62
     7
370
     9
100
AcDbCircle
 10
856.0000000000001
 20
-475.3567995895936
 30
0.0
 40
18.49999999999988
210
0.0
220
0.0
230
-1.0
100
AcDbArc
 50
125.823871231522
 51
179.8461848121385
  0
LINE
  5
186
330
D2
100
AcDbEntity
  8
2
  6
Continuous
 62
     7
370
     9
100
AcDbLine
 10
-874.5500000000003
 20
-493.9567995895934
 30
0.0
 11
-874.499933335497
 21
-475.3071348920955
 31
0.0
  0
LINE
  5
187
330
D2
100
AcDbEntity
  8
2
  6
Continuous
 62
     7
370
     9
100
AcDbLine
 10
-889.5000000000003
 20
-493.9567995895934
 30
0.0
 11
-874.5500000000003
 21
-493.9567995895934
 31
0.0
  0
LINE
  5
188
330
D2
100
AcDbEntity
  8
2
  6
Continuous
 62
     7
370
     9
100
AcDbLine
 10
-889.5000000000003
 20
-493.9567995895934
 30
0.0
 11
-889.5000000000003
 21
-492.2567995895935
 31
0.0
  0
ARC
  5
189
330
D2
100
AcDbEntity
  8
2
  6
Continuous
 62
     7
370
     9
100
AcDbCircle
 10
-891.0000000000003
 20
-492.2567995895935
 30
0.0
 40
1.499999999999992
100
AcDbArc
 50
0.0
 51
180.0
  0
LINE
  5
18A
330
D2
100
AcDbEntity
  8
2
  6
Continuous
 62
     7
370
     9
100
AcDbLine
 10
-892.5000000000003
 20
-492.2567995895935
 30
0.0
 11
-892.5000000000003
 21
-493.9567995895934
 31
0.0
  0
LINE
  5
18B
330
D2
100
AcDbEntity
  8
2
  6
Continuous
 62
     7
370
     9
100
AcDbLine
 10
-904.5000000000005
 20
-493.9567995895934
 30
0.0
 11
-892.5000000000003
 21
-493.9567995895934
 31
0.0
  0
LINE
  5
18C
330
D2
100
AcDbEntity
  8
2
  6
Continuous
 62
     7
370
     9
100
AcDbLine
 10
-904.5000000000005
 20
-493.9567995895934
 30
0.0
 11
-904.5000000000005
 21
-492.2567995895935
 31
0.0
  0
ARC
  5
18D
330
D2
100
AcDbEntity
  8
2
  6
Continuous
 62
     7
370
     9
100
AcDbCircle
 10
-906.0000000000005
 20
-492.2567995895935
 30
0.0
 40
1.499999999999992
100
AcDbArc
 50
0.0
 51
180.0
  0
LINE
  5
18E
330
D2
100
AcDbEntity
  8
2
  6
Continuous
 62
     7
370
     9
100
AcDbLine
 10
-907.5000000000005
 20
-492.2567995895935
 30
0.0
 11
-907.5000000000005
 21
-493.9567995895934
 31
0.0
  0
LINE
  5
18F
330
D2
100
AcDbEntity
  8
2
  6
Continuous
 62
     7
370
     9
100
AcDbLine
 10
-918.476379407541
 20
-493.9567995895934
 30
0.0
 11
-907.5000000000005
 21
-493.9567995895934
 31
0.0
  0
LINE
  5
190
330
D2
100
AcDbEntity
  8
2
  6
Continuous
 62
     7
370
     9
100
AcDbLine
 10
-693.9441437922287
 20
-490.7567995895934
 30
0.0
 11
-693.999999999999
 21
-490.7567995895934
 31
0.0
  0
LINE
  5
191
330
D2
100
AcDbEntity
  8
2
  6
Continuous
 62
     7
370
     9
100
AcDbLine
 10
-678.0558562077691
 20
-490.7567995895934
 30
0.0
 11
-677.9999999999989
 21
-490.7567995895935
 31
0.0
  0
LINE
  5
192
330
D2
100
AcDbEntity
  8
2
  6
Continuous
 62
     7
370
     9
100
AcDbLine
 10
-918.476379407541
 20
-493.9567995895934
 30
0.0
 11
-929.5754768131967
 21
-493.9567995895934
 31
0.0
  0
LINE
  5
193
330
D2
100
AcDbEntity
  8
2
  6
Continuous
 62
     7
370
     9
100
AcDbLine
 10
-920.0142185020806
 20
-375.0392993239002
 30
0.0
 11
-930.0000000000006
 21
-493.9567995895933
 31
0.0
  0
LINE
  5
194
330
D2
100
AcDbEntity
  8
2
  6
Continuous
 62
     7
370
     9
100
AcDbLine
 10
-892.1000000000004
 20
-491.2369956868749
 30
0.0
 11
-892.1000000000004
 21
-493.9567995895934
 31
0.0
  0
LINE
  5
195
330
D2
100
AcDbEntity
  8
2
  6
Continuous
 62
     7
370
     9
100
AcDbLine
 10
-467.0999999999972
 20
-491.2369956868749
 30
0.0
 11
-467.0999999999972
 21
-493.9567995895934
 31
0.0
  0
LINE
  5
196
330
D2
100
AcDbEntity
  8
2
  6
Continuous
 62
     7
370
     9
100
AcDbLine
 10
-904.9000000000004
 20
-493.9567995895934
 30
0.0
 11
-904.9000000000004
 21
-491.2369956868749
 31
0.0
  0
LINE
  5
197
330
D2
100
AcDbEntity
  8
2
  6
Continuous
 62
     7
370
     9
100
AcDbLine
 10
-889.9000000000003
 20
-493.9567995895934
 30
0.0
 11
-889.9000000000003
 21
-491.2369956868749
 31
0.0
  0
LINE
  5
198
330
D2
100
AcDbEntity
  8
2
  6
Continuous
 62
     7
370
     9
100
AcDbLine
 10
-482.0999999999974
 20
-491.2369956868749
 30
0.0
 11
-482.0999999999974
 21
-493.9567995895934
 31
0.0
  0
LINE
  5
199
330
D2
100
AcDbEntity
  8
2
  6
Continuous
 62
     7
370
     9
100
AcDbLine
 10
-479.8999999999974
 20
-493.9567995895934
 30
0.0
 11
-479.8999999999974
 21
-491.2369956868749
 31
0.0
  0
LINE
  5
19A
330
D2
100
AcDbEntity
  8
2
  6
Continuous
 62
     7
370
     9
100
AcDbLine
 10
-464.8999999999972
 20
-493.9567995895934
 30
0.0
 11
-464.8999999999972
 21
-491.2369956868749
 31
0.0
  0
LINE
  5
19B
330
D2
100
AcDbEntity
  8
2
  6
Continuous
 62
     7
370
     9
100
AcDbLine
 10
-907.1000000000005
 20
-491.2369956868749
 30
0.0
 11
-907.1000000000005
 21
-493.9567995895934
 31
0.0
  0
LINE
  5
19C
330
D2
100
AcDbEntity
  8
2
  6
Continuous
 62
     7
370
     9
100
AcDbLine
 10
-451.9857814979171
 20
-375.0392993239002
 30
0.0
 11
-455.4946026525922
 21
-333.2538626327184
 31
0.0
  0
LINE
  5
19D
330
D2
100
AcDbEntity
  8
2
  6
Continuous
 62
     7
370
     9
100
AcDbLine
 10
-920.0142185020806
 20
-375.0392993239002
 30
0.0
 11
-916.5053973474055
 21
-333.2538626327184
 31
0.0
  0
ELLIPSE
  5
19E
330
D2
100
AcDbEntity
  8
2
  6
Continuous
 62
     7
370
     9
100
AcDbEllipse
 10
-867.7914039778121
 20
-300.6081358381427
 30
0.0
 11
1.499999999999946
 21
0.0
 31
0.0
210
0.0
220
0.0
230
1.0
 40
0.9945218953682697
 41
1.570796326794897
 42
2.164208272473327
  0
LINE
  5
19F
330
D2
100
AcDbEntity
  8
2
  6
Continuous
 62
     7
370
     9
100
AcDbLine
 10
-750.6999999999994
 20
-299.2869974757581
 30
0.0
 11
-860.3000000000001
 21
-299.2869974757581
 31
0.0
  0
LWPOLYLINE
  5
1A0
330
D2
100
AcDbEntity
  8
2
  6
Continuous
 62
     7
370
     9
100
AcDbPolyline
 90
        5
 70
     0
 43
0.0
 10
866.3000000000002
 20
-299.9372925677507
 10
866.2376316688508
 20
-299.8303993930023
 10
866.1306098418793
 20
-299.7700795411553
 10
866.1306098418793
 20
-299.7700795411553
 42
0.0624941695510984
 10
860.3000000000001
 20
-299.2869974757581
210
0.0
220
0.0
230
-1.0
  0
LINE
  5
1A1
330
D2
100
AcDbEntity
  8
2
  6
Continuous
 62
     7
370
     9
100
AcDbLine
 10
-866.3000000000002
 20
-299.9372925677507
 30
0.0
 11
-866.2890441204141
 21
-320.9160975970995
 31
0.0
  0
LINE
  5
1A2
330
D2
100
AcDbEntity
  8
2
  6
Continuous
 62
     7
370
     9
100
AcDbLine
 10
-866.289044120414
 20
-320.9160975970995
 30
0.0
 11
-866.0213396183535
 21
-321.0810391244794
 31
0.0
  0
LINE
  5
1A3
330
D2
100
AcDbEntity
  8
2
  6
Continuous
 62
     7
370
     9
100
AcDbLine
 10
-750.6999999999994
 20
-321.522447481991
 30
0.0
 11
-860.3000000000001
 21
-321.522447481991
 31
0.0
  0
ARC
  5
1A4
330
D2
100
AcDbEntity
  8
2
  6
Continuous
 62
     7
370
     9
100
AcDbCircle
 10
-749.8221829011826
 20
-295.6016609428181
 30
0.0
 40
25.93564608156766
100
AcDbArc
 50
268.0603983277236
 51
280.7631362921555
  0
LINE
  5
1A5
330
D2
100
AcDbEntity
  8
2
  6
Continuous
 62
     7
370
     9
100
AcDbLine
 10
-744.6999999999992
 20
-299.9372925677507
 30
0.0
 11
-744.7109558795852
 21
-320.9160975970995
 31
0.0
  0
LWPOLYLINE
  5
1A6
330
D2
100
AcDbEntity
  8
2
  6
Continuous
 62
     7
370
     9
100
AcDbPolyline
 90
        5
 70
     0
 43
0.0
 10
750.6999999999994
 20
-299.2869974757581
 42
0.0667367070209937
 10
744.8105999015704
 20
-299.7990911155815
 10
744.7167293904051
 20
-299.8790951110851
 10
744.6999999999992
 20
-299.9372925677507
 10
744.6999999999992
 20
-299.9372925677507
210
0.0
220
0.0
230
-1.0
  0
LINE
  5
1A7
330
D2
100
AcDbEntity
  8
2
  6
Continuous
 62
     7
370
     9
100
AcDbLine
 10
-621.2999999999984
 20
-321.522447481991
 30
0.0
 11
-511.6999999999976
 21
-321.522447481991
 31
0.0
  0
LINE
  5
1A8
330
D2
100
AcDbEntity
  8
2
  6
Continuous
 62
     7
370
     9
100
AcDbLine
 10
-505.7109558795835
 20
-320.9160975970995
 30
0.0
 11
-505.9787195882291
 21
-321.0810369561684
 31
0.0
  0
LINE
  5
1A9
330
D2
100
AcDbEntity
  8
2
  6
Continuous
 62
     7
370
     9
100
AcDbLine
 10
-505.6999999999976
 20
-299.9372925677507
 30
0.0
 11
-505.7109558795836
 21
-320.9160975970995
 31
0.0
  0
LWPOLYLINE
  5
1AA
330
D2
100
AcDbEntity
  8
2
  6
Continuous
 62
     7
370
     9
100
AcDbPolyline
 90
        5
 70
     0
 43
0.0
 10
-505.6999999999976
 20
-299.9372925677507
 10
-505.7623681156242
 20
-299.8303831484628
 10
-505.8695141261354
 20
-299.770031700604
 10
-505.8695141261354
 20
-299.770031700604
 42
0.0624852578884656
 10
-511.6999999999976
 20
-299.2869974757581
  0
LINE
  5
1AB
330
D2
100
AcDbEntity
  8
2
  6
Continuous
 62
     7
370
     9
100
AcDbLine
 10
-621.2999999999984
 20
-299.2869974757581
 30
0.0
 11
-511.6999999999976
 21
-299.2869974757581
 31
0.0
  0
LWPOLYLINE
  5
1AC
330
D2
100
AcDbEntity
  8
2
  6
Continuous
 62
     7
370
     9
100
AcDbPolyline
 90
        5
 70
     0
 43
0.0
 10
-621.2999999999984
 20
-299.2869974757581
 42
0.0667421365191613
 10
-627.1894506037704
 20
-299.7991106061195
 10
-627.2832702219396
 20
-299.8791243295938
 10
-627.2999999999984
 20
-299.9372925677507
 10
-627.2999999999984
 20
-299.9372925677507
  0
LINE
  5
1AD
330
D2
100
AcDbEntity
  8
2
  6
Continuous
 62
     7
370
     9
100
AcDbLine
 10
-627.2999999999984
 20
-299.9372925677507
 30
0.0
 11
-627.2890441204124
 21
-320.9160975970995
 31
0.0
  0
ARC
  5
1AE
330
D2
100
AcDbEntity
  8
2
  6
Continuous
 62
     7
370
     9
100
AcDbCircle
 10
622.1775747930837
 20
-295.5977426839225
 30
0.0
 40
25.93955389717506
210
0.0
220
0.0
230
-1.0
100
AcDbArc
 50
268.0612261581368
 51
280.762173860913
  0
ELLIPSE
  5
1AF
330
D2
100
AcDbEntity
  8
2
  6
Continuous
 62
     7
370
     9
100
AcDbEllipse
 10
-504.2085960221856
 20
-300.6081358381427
 30
0.0
 11
-1.499999999999946
 21
0.0
 31
0.0
210
0.0
220
0.0
230
-1.0
 40
0.9945218953682697
 41
1.570796326794897
 42
2.164208272473388
  0
LINE
  5
1B0
330
D2
100
AcDbEntity
  8
2
  6
Continuous
 62
     7
370
     9
100
AcDbLine
 10
-627.0213397243441
 20
-321.0810391283612
 30
0.0
 11
-627.2890441204124
 21
-320.9160975970995
 31
0.0
  0
LINE
  5
1B1
330
D2
100
AcDbEntity
  8
2
  6
Continuous
 62
     7
370
     9
100
AcDbLine
 10
-627.2890441204124
 20
-320.9160975970995
 30
0.0
 11
-626.8675488153701
 21
-321.1262632445701
 31
0.0
  0
LINE
  5
1B2
330
D2
100
AcDbEntity
  8
2
  6
Continuous
 62
     7
370
     9
100
AcDbLine
 10
-744.9787196942852
 20
-321.0810369522844
 30
0.0
 11
-744.7109558795851
 21
-320.9160975970995
 31
0.0
  0
LINE
  5
1B3
330
D2
100
AcDbEntity
  8
2
  6
Continuous
 62
     7
370
     9
100
AcDbLine
 10
-744.7109558795852
 20
-320.9160975970995
 30
0.0
 11
-745.1324113409346
 21
-321.1262433777402
 31
0.0
  0
ARC
  5
1B4
330
D2
100
AcDbEntity
  8
2
  6
Continuous
 62
     7
370
     9
100
AcDbCircle
 10
-861.1775752256594
 20
-295.5977496779561
 30
0.0
 40
25.93954692177982
100
AcDbArc
 50
259.2378244214051
 51
271.9387753194427
  0
LINE
  5
1B5
330
D2
100
AcDbEntity
  8
2
  6
Continuous
 62
     7
370
     9
100
AcDbLine
 10
-866.2890441204141
 20
-320.9160975970995
 30
0.0
 11
-865.8675488864098
 21
-321.1262632091493
 31
0.0
  0
ARC
  5
1B6
330
D2
100
AcDbEntity
  8
2
  6
Continuous
 62
     7
370
     9
100
AcDbCircle
 10
510.8221833332927
 20
-295.6016539541644
 30
0.0
 40
25.93565305159202
210
0.0
220
0.0
230
-1.0
100
AcDbArc
 50
259.2368654246923
 51
271.9396001956753
  0
LINE
  5
1B7
330
D2
100
AcDbEntity
  8
2
  6
Continuous
 62
     7
370
     9
100
AcDbLine
 10
-505.7109558795836
 20
-320.9160975970995
 30
0.0
 11
-506.1324114120849
 21
-321.1262434132179
 31
0.0
  0
LINE
  5
1B8
330
D2
100
AcDbEntity
  8
2
  6
Continuous
 62
     7
370
     9
100
AcDbLine
 10
-623.2999999999984
 20
-301.9263363584872
 30
0.0
 11
-623.2999999999984
 21
-321.4863984197431
 31
0.0
  0
LINE
  5
1B9
330
D2
100
AcDbEntity
  8
2
  6
Continuous
 62
     7
370
     9
100
AcDbLine
 10
-748.6999999999994
 20
-301.9263363584872
 30
0.0
 11
-748.6999999999994
 21
-321.4864030145438
 31
0.0
  0
LINE
  5
1BA
330
D2
100
AcDbEntity
  8
2
  6
Continuous
 62
     7
370
     9
100
AcDbLine
 10
-862.3000000000002
 20
-301.9263363584872
 30
0.0
 11
-862.3000000000002
 21
-321.4863984279423
 31
0.0
  0
LINE
  5
1BB
330
D2
100
AcDbEntity
  8
2
  6
Continuous
 62
     7
370
     9
100
AcDbLine
 10
-509.6999999999976
 20
-301.9263363584872
 30
0.0
 11
-509.6999999999976
 21
-321.4864030063442
 31
0.0
  0
ARC
  5
1BC
330
D2
100
AcDbEntity
  8
2
  6
Continuous
 62
     7
370
     9
100
AcDbCircle
 10
-621.8250085719783
 20
-306.1099163114209
 30
0.0
 40
4.435982521981019
100
AcDbArc
 50
83.20298344947857
 51
109.4209588003343
  0
ARC
  5
1BD
330
D2
100
AcDbEntity
  8
2
  6
Continuous
 62
     7
370
     9
100
AcDbCircle
 10
860.8250085719806
 20
-306.1099163114158
 30
0.0
 40
4.435982521976091
210
0.0
220
0.0
230
-1.0
100
AcDbArc
 50
70.57904119965077
 51
96.7970165505377
  0
ARC
  5
1BE
330
D2
100
AcDbEntity
  8
2
  6
Continuous
 62
     7
370
     9
100
AcDbCircle
 10
750.1749914280192
 20
-306.1099163114196
 30
0.0
 40
4.435982521979832
210
0.0
220
0.0
230
-1.0
100
AcDbArc
 50
83.20298344947386
 51
109.4209588003368
  0
ARC
  5
1BF
330
D2
100
AcDbEntity
  8
2
  6
Continuous
 62
     7
370
     9
100
AcDbCircle
 10
-511.1749914280172
 20
-306.1099163114169
 30
0.0
 40
4.435982521977174
100
AcDbArc
 50
70.5790411996542
 51
96.79701655053313
  0
LWPOLYLINE
  5
1C0
330
D2
100
AcDbEntity
  8
2
  6
Continuous
 62
     7
370
     9
100
AcDbPolyline
 90
        5
 70
     0
 43
0.0
 10
750.6999999999994
 20
-305.7367827821517
 42
0.0510447007979092
 10
748.8169118696333
 20
-305.8761741518641
 10
748.7216469800697
 20
-305.9161472640675
 10
748.6999999999994
 20
-305.9469912526831
 10
748.6999999999994
 20
-305.9469912526831
210
0.0
220
0.0
230
-1.0
  0
LWPOLYLINE
  5
1C1
330
D2
100
AcDbEntity
  8
2
  6
Continuous
 62
     7
370
     9
100
AcDbPolyline
 90
        5
 70
     0
 43
0.0
 10
-621.2999999999984
 20
-305.7367827821517
 42
0.0510447007979188
 10
-623.1830881303644
 20
-305.8761741518641
 10
-623.278353019928
 20
-305.9161472640675
 10
-623.2999999999984
 20
-305.9469912526831
 10
-623.2999999999984
 20
-305.9469912526831
  0
LWPOLYLINE
  5
1C2
330
D2
100
AcDbEntity
  8
2
  6
Continuous
 62
     7
370
     9
100
AcDbPolyline
 90
        3
 70
     0
 43
0.0
 10
-509.6999999999976
 20
-305.9469912526831
 10
-509.7861193285331
 20
-305.8859709546588
 42
0.0545073728687534
 10
-511.6999999999976
 20
-305.7367827821517
  0
LWPOLYLINE
  5
1C3
330
D2
100
AcDbEntity
  8
2
  6
Continuous
 62
     7
370
     9
100
AcDbPolyline
 90
        3
 70
     0
 43
0.0
 10
862.3000000000001
 20
-305.9469912526831
 10
862.2138806714645
 20
-305.8859709546588
 42
0.0545073728687534
 10
860.3000000000001
 20
-305.7367827821517
210
0.0
220
0.0
230
-1.0
  0
LINE
  5
1C4
330
D2
100
AcDbEntity
  8
2
  6
Continuous
 62
     7
370
     9
100
AcDbLine
 10
-750.6999999999994
 20
-301.7051113288287
 30
0.0
 11
-860.3000000000001
 21
-301.7051113288287
 31
0.0
  0
LINE
  5
1C5
330
D2
100
AcDbEntity
  8
2
  6
Continuous
 62
     7
370
     9
100
AcDbLine
 10
-621.2999999999984
 20
-301.7051113288287
 30
0.0
 11
-511.6999999999976
 21
-301.7051113288287
 31
0.0
  0
LINE
  5
1C6
330
D2
100
AcDbEntity
  8
2
  6
Continuous
 62
     7
370
     9
100
AcDbLine
 10
-621.2999999999984
 20
-305.7367827821521
 30
0.0
 11
-511.6999999999976
 21
-305.7367827821521
 31
0.0
  0
LINE
  5
1C7
330
D2
100
AcDbEntity
  8
2
  6
Continuous
 62
     7
370
     9
100
AcDbLine
 10
-750.6999999999994
 20
-305.7367827821521
 30
0.0
 11
-860.3000000000001
 21
-305.7367827821521
 31
0.0
  0
LINE
  5
1C8
330
D2
100
AcDbEntity
  8
2
  6
Continuous
 62
     7
370
     9
100
AcDbLine
 10
-503.3719165653788
 20
-299.3631589361249
 30
0.0
 11
-503.3698066669794
 21
-299.3713918111592
 31
0.0
  0
LINE
  5
1C9
330
D2
100
AcDbEntity
  8
2
  6
Continuous
 62
     7
370
     9
100
AcDbLine
 10
-868.6280834346188
 20
-299.3631589361249
 30
0.0
 11
-868.6301933330183
 21
-299.3713918111592
 31
0.0
  0
LINE
  5
1CA
330
D2
100
AcDbEntity
  8
2
  6
Continuous
 62
     7
370
     9
100
AcDbLine
 10
-681.8523651947847
 20
-493.9567995895934
 30
0.0
 11
-679.4474825003718
 21
-493.9567995895934
 31
0.0
  0
LINE
  5
1CB
330
D2
100
AcDbEntity
  8
2
  6
Continuous
 62
     7
370
     9
100
AcDbLine
 10
-681.9396405194259
 20
-498.9567995895934
 30
0.0
 11
-681.8523651947847
 21
-493.9567995895934
 31
0.0
  0
LINE
  5
1CC
330
D2
100
AcDbEntity
  8
2
  6
Continuous
 62
     7
370
     9
100
AcDbLine
 10
-692.6397928242694
 20
-498.9567995895934
 30
0.0
 11
-681.9396405194259
 21
-498.9567995895934
 31
0.0
  0
LINE
  5
1CD
330
D2
100
AcDbEntity
  8
2
  6
Continuous
 62
     7
370
     9
100
AcDbLine
 10
-692.5001523048437
 20
-490.9567995895934
 30
0.0
 11
-679.4998476951565
 21
-490.9567995895934
 31
0.0
  0
LINE
  5
1CE
330
D2
100
AcDbEntity
  8
2
  6
Continuous
 62
     7
370
     9
100
AcDbLine
 10
-693.6396405194258
 20
-498.9567995895934
 30
0.0
 11
-693.5000000000001
 21
-490.9567995895934
 31
0.0
  0
LINE
  5
1CF
330
D2
100
AcDbEntity
  8
2
  6
Continuous
 62
     7
370
     9
100
AcDbLine
 10
-693.5000000000001
 20
-490.9567995895934
 30
0.0
 11
-692.5001523048437
 21
-490.9567995895934
 31
0.0
  0
LINE
  5
1D0
330
D2
100
AcDbEntity
  8
2
  6
Continuous
 62
     7
370
     9
100
AcDbLine
 10
-692.6397928242694
 20
-498.9567995895934
 30
0.0
 11
-693.6396405194258
 21
-498.9567995895934
 31
0.0
  0
LINE
  5
1D1
330
D2
100
AcDbEntity
  8
2
  6
Continuous
 62
     7
370
     9
100
AcDbLine
 10
-679.4998476951565
 20
-490.9567995895934
 30
0.0
 11
-678.5000000000001
 21
-490.9567995895934
 31
0.0
  0
LINE
  5
1D2
330
D2
100
AcDbEntity
  8
2
  6
Continuous
 62
     7
370
     9
100
AcDbLine
 10
-678.5000000000001
 20
-490.9567995895934
 30
0.0
 11
-678.4476348052156
 21
-493.9567995895934
 31
0.0
  0
LINE
  5
1D3
330
D2
100
AcDbEntity
  8
2
  6
Continuous
 62
     7
370
     9
100
AcDbLine
 10
-678.4476348052156
 20
-493.9567995895934
 30
0.0
 11
-679.4474825003718
 21
-493.9567995895934
 31
0.0
  0
LINE
  5
1D4
330
D2
100
AcDbEntity
  8
2
  6
Continuous
 62
     7
370
     9
100
AcDbLine
 10
-680.8000000000002
 20
-498.9567995895934
 30
0.0
 11
-681.9396405194259
 21
-498.9567995895934
 31
0.0
  0
LINE
  5
1D5
330
D2
100
AcDbEntity
  8
2
  6
Continuous
 62
     7
370
     9
100
AcDbLine
 10
-678.4476348052156
 20
-493.9567995895934
 30
0.0
 11
-678.3603594805744
 21
-498.9567995895934
 31
0.0
  0
LINE
  5
1D6
330
D2
100
AcDbEntity
  8
2
  6
Continuous
 62
     7
370
     9
100
AcDbLine
 10
-680.8000000000002
 20
-498.9567995895934
 30
0.0
 11
-678.3603594805744
 21
-498.9567995895934
 31
0.0
  0
LINE
  5
1D7
330
D2
100
AcDbEntity
  8
2
  6
Continuous
 62
     7
370
     9
100
AcDbLine
 10
-727.4685808831292
 20
-497.1567995895934
 30
0.0
 11
-702.5314191168709
 21
-497.1567995895934
 31
0.0
  0
LINE
  5
1D8
330
D2
100
AcDbEntity
  8
2
  6
Continuous
 62
     7
370
     9
100
AcDbLine
 10
-702.5000000000001
 20
-498.9567995895934
 30
0.0
 11
-702.5314191168709
 21
-497.1567995895934
 31
0.0
  0
LINE
  5
1D9
330
D2
100
AcDbEntity
  8
2
  6
Continuous
 62
     7
370
     9
100
AcDbLine
 10
-727.5000000000001
 20
-498.9567995895934
 30
0.0
 11
-727.4685808831292
 21
-497.1567995895934
 31
0.0
  0
LINE
  5
1DA
330
D2
100
AcDbEntity
  8
2
  6
Continuous
 62
     7
370
     9
100
AcDbLine
 10
-919.0891029827645
 20
-498.9567995895934
 30
0.0
 11
-727.5000000000001
 21
-498.9567995895934
 31
0.0
  0
LINE
  5
1DB
330
D2
100
AcDbEntity
  8
2
  6
Continuous
 62
     7
370
     9
100
AcDbLine
 10
-702.5000000000001
 20
-498.9567995895934
 30
0.0
 11
-693.6396405194258
 21
-498.9567995895934
 31
0.0
  0
LINE
  5
1DC
330
D2
100
AcDbEntity
  8
2
  6
Continuous
 62
     7
370
     9
100
AcDbLine
 10
-931.0872753246413
 20
-498.9567995895934
 30
0.0
 11
-931.0171504320408
 21
-494.9393471831562
 31
0.0
  0
LINE
  5
1DD
330
D2
100
AcDbEntity
  8
2
  6
Continuous
 62
     7
370
     9
100
AcDbLine
 10
-919.0891029827645
 20
-498.9567995895934
 30
0.0
 11
-931.0872753246412
 21
-498.9567995895934
 31
0.0
  0
LINE
  5
1DE
330
D2
100
AcDbEntity
  8
2
  6
Continuous
 62
     7
370
     9
100
AcDbLine
 10
-440.9127246753589
 20
-498.9567995895934
 30
0.0
 11
-440.9828495679593
 21
-494.9393471831562
 31
0.0
  0
LINE
  5
1DF
330
D2
100
AcDbEntity
  8
2
  6
Continuous
 62
     7
370
     9
100
AcDbLine
 10
-452.9108970172356
 20
-498.9567995895934
 30
0.0
 11
-440.9127246753589
 21
-498.9567995895934
 31
0.0
  0
LINE
  5
1E0
330
D2
100
AcDbEntity
  8
2
  6
Continuous
 62
     7
370
     9
100
AcDbLine
 10
-644.5314191168709
 20
-497.1567995895934
 30
0.0
 11
-669.4685808831293
 21
-497.1567995895934
 31
0.0
  0
LINE
  5
1E1
330
D2
100
AcDbEntity
  8
2
  6
Continuous
 62
     7
370
     9
100
AcDbLine
 10
-669.5000000000001
 20
-498.9567995895934
 30
0.0
 11
-669.4685808831293
 21
-497.1567995895934
 31
0.0
  0
LINE
  5
1E2
330
D2
100
AcDbEntity
  8
2
  6
Continuous
 62
     7
370
     9
100
AcDbLine
 10
-644.5000000000001
 20
-498.9567995895934
 30
0.0
 11
-644.5314191168709
 21
-497.1567995895934
 31
0.0
  0
LINE
  5
1E3
330
D2
100
AcDbEntity
  8
2
  6
Continuous
 62
     7
370
     9
100
AcDbLine
 10
-644.5000000000001
 20
-498.9567995895934
 30
0.0
 11
-452.9108970172356
 21
-498.9567995895934
 31
0.0
  0
LINE
  5
1E4
330
D2
100
AcDbEntity
  8
2
  6
Continuous
 62
     7
370
     9
100
AcDbLine
 10
-678.3603594805744
 20
-498.9567995895934
 30
0.0
 11
-669.5000000000001
 21
-498.9567995895934
 31
0.0
  0
LINE
  5
1E5
330
D2
100
AcDbEntity
  8
2
  6
Continuous
 62
     7
370
     9
100
AcDbLine
 10
-441.9826972631157
 20
-493.9567995895934
 30
0.0
 11
-442.4245231339111
 21
-493.9567995895934
 31
0.0
  0
ARC
  5
1E6
330
D2
100
AcDbEntity
  8
2
  6
Continuous
 62
     7
370
     9
100
AcDbCircle
 10
441.9826972631157
 20
-494.9567995895934
 30
0.0
 40
1.000000000000001
210
0.0
220
0.0
230
-1.0
100
AcDbArc
 50
90.0
 51
179.0000000000001
  0
LINE
  5
1E7
330
D2
100
AcDbEntity
  8
2
  6
Continuous
 62
     7
370
     9
100
AcDbLine
 10
-907.5000000000005
 20
-493.9567995895934
 30
0.0
 11
-904.5000000000005
 21
-493.9567995895934
 31
0.0
  0
LINE
  5
1E8
330
D2
100
AcDbEntity
  8
2
  6
Continuous
 62
     7
370
     9
100
AcDbLine
 10
-892.5000000000003
 20
-493.9567995895934
 30
0.0
 11
-889.5000000000003
 21
-493.9567995895934
 31
0.0
  0
LINE
  5
1E9
330
D2
100
AcDbEntity
  8
2
  6
Continuous
 62
     7
370
     9
100
AcDbLine
 10
-874.5500000000003
 20
-493.9567995895934
 30
0.0
 11
-837.45
 21
-493.9567995895934
 31
0.0
  0
LINE
  5
1EA
330
D2
100
AcDbEntity
  8
2
  6
Continuous
 62
     7
370
     9
100
AcDbLine
 10
-774.5499999999995
 20
-493.9567995895934
 30
0.0
 11
-737.4499999999992
 21
-493.9567995895934
 31
0.0
  0
LINE
  5
1EB
330
D2
100
AcDbEntity
  8
2
  6
Continuous
 62
     7
370
     9
100
AcDbLine
 10
-693.999999999999
 20
-493.9567995895934
 30
0.0
 11
-693.5523651947848
 21
-493.9567995895934
 31
0.0
  0
LINE
  5
1EC
330
D2
100
AcDbEntity
  8
2
  6
Continuous
 62
     7
370
     9
100
AcDbLine
 10
-930.0173027368844
 20
-493.9567995895934
 30
0.0
 11
-929.5754768090264
 21
-493.9567995895934
 31
0.0
  0
ARC
  5
1ED
330
D2
100
AcDbEntity
  8
2
  6
Continuous
 62
     7
370
     9
100
AcDbCircle
 10
-930.0173027368845
 20
-494.9567995895934
 30
0.0
 40
1.000000000000001
100
AcDbArc
 50
89.99999999999841
 51
179.0000000000001
  0
LINE
  5
1EE
330
D2
100
AcDbEntity
  8
2
  6
Continuous
 62
     7
370
     9
100
AcDbLine
 10
-678.4476348052156
 20
-493.9567995895934
 30
0.0
 11
-677.9999999999989
 21
-493.9567995895934
 31
0.0
  0
LINE
  5
1EF
330
D2
100
AcDbEntity
  8
2
  6
Continuous
 62
     7
370
     9
100
AcDbLine
 10
-634.5499999999985
 20
-493.9567995895934
 30
0.0
 11
-597.4499999999982
 21
-493.9567995895934
 31
0.0
  0
LINE
  5
1F0
330
D2
100
AcDbEntity
  8
2
  6
Continuous
 62
     7
370
     9
100
AcDbLine
 10
-534.5499999999978
 20
-493.9567995895934
 30
0.0
 11
-497.4499999999975
 21
-493.9567995895934
 31
0.0
  0
LINE
  5
1F1
330
D2
100
AcDbEntity
  8
2
  6
Continuous
 62
     7
370
     9
100
AcDbLine
 10
-482.4999999999974
 20
-493.9567995895934
 30
0.0
 11
-479.4999999999975
 21
-493.9567995895934
 31
0.0
  0
LINE
  5
1F2
330
D2
100
AcDbEntity
  8
2
  6
Continuous
 62
     7
370
     9
100
AcDbLine
 10
-467.4999999999972
 20
-493.9567995895934
 30
0.0
 11
-464.4999999999973
 21
-493.9567995895934
 31
0.0
  0
LINE
  5
1F3
330
D2
100
AcDbEntity
  8
2
  6
Continuous
 62
     7
370
     9
100
AcDbLine
 10
-680.3636233767946
 20
-490.7567995895934
 30
0.0
 11
-680.360132363809
 21
-490.9567995895934
 31
0.0
  0
LINE
  5
1F4
330
D2
100
AcDbEntity
  8
2
  6
Continuous
 62
     7
370
     9
100
AcDbLine
 10
-683.1281552206506
 20
-490.9567995895934
 30
0.0
 11
-683.1246642076649
 21
-490.7567995895934
 31
0.0
  0
LINE
  5
1F5
330
D2
100
AcDbEntity
  8
2
  6
Continuous
 62
     7
370
     9
100
AcDbLine
 10
-691.6363766232055
 20
-490.7567995895934
 30
0.0
 11
-691.6398676361912
 21
-490.9567995895934
 31
0.0
  0
LINE
  5
1F6
330
D2
100
AcDbEntity
  8
2
  6
Continuous
 62
     7
370
     9
100
AcDbLine
 10
-688.8718447793497
 20
-490.9567995895934
 30
0.0
 11
-688.8753357923352
 21
-490.7567995895934
 31
0.0
  0
LINE
  5
1F7
330
D2
100
AcDbEntity
  8
2
  6
Continuous
 62
     7
370
     9
100
AcDbLine
 10
-874.4021737846374
 20
-473.4567995895934
 30
0.0
 11
-874.3138950406493
 21
-473.4567995895934
 31
0.0
  0
LINE
  5
1F8
330
D2
100
AcDbEntity
  8
2
  6
Continuous
 62
     7
370
     9
100
AcDbLine
 10
-837.6861049593509
 20
-473.4567995895934
 30
0.0
 11
-837.5978262153627
 21
-473.4567995895934
 31
0.0
  0
LINE
  5
1F9
330
D2
100
AcDbEntity
  8
2
  6
Continuous
 62
     7
370
     9
100
AcDbLine
 10
-774.4021737846367
 20
-473.4567995895934
 30
0.0
 11
-774.3138950406493
 21
-473.4567995895934
 31
0.0
  0
LINE
  5
1FA
330
D2
100
AcDbEntity
  8
2
  6
Continuous
 62
     7
370
     9
100
AcDbLine
 10
-737.6861049593509
 20
-473.4567995895934
 30
0.0
 11
-737.597826215362
 21
-473.4567995895934
 31
0.0
  0
LINE
  5
1FB
330
D2
100
AcDbEntity
  8
2
  6
Continuous
 62
     7
370
     9
100
AcDbLine
 10
-634.4021737846357
 20
-473.4567995895934
 30
0.0
 11
-634.3138950406461
 21
-473.4567995895934
 31
0.0
  0
LINE
  5
1FC
330
D2
100
AcDbEntity
  8
2
  6
Continuous
 62
     7
370
     9
100
AcDbLine
 10
-597.6861049593484
 20
-473.4567995895934
 30
0.0
 11
-597.5978262153609
 21
-473.4567995895934
 31
0.0
  0
LINE
  5
1FD
330
D2
100
AcDbEntity
  8
2
  6
Continuous
 62
     7
370
     9
100
AcDbLine
 10
-534.4021737846349
 20
-473.4567995895934
 30
0.0
 11
-534.3138950406471
 21
-473.4567995895934
 31
0.0
  0
LINE
  5
1FE
330
D2
100
AcDbEntity
  8
2
  6
Continuous
 62
     7
370
     9
100
AcDbLine
 10
-497.6861049593494
 20
-473.4567995895934
 30
0.0
 11
-497.5978262153602
 21
-473.4567995895934
 31
0.0
  0
LINE
  5
1FF
330
D2
100
AcDbEntity
  8
2
  6
Continuous
 62
     7
370
     9
100
AcDbLine
 10
-837.6240150650896
 20
-473.2567995895934
 30
0.0
 11
-837.7072172977475
 21
-473.2567995895934
 31
0.0
  0
LINE
  5
200
330
D2
100
AcDbEntity
  8
2
  6
Continuous
 62
     7
370
     9
100
AcDbLine
 10
-597.6240150650876
 20
-473.2567995895934
 30
0.0
 11
-597.7088036418143
 21
-473.2567995895934
 31
0.0
  0
LINE
  5
201
330
D2
100
AcDbEntity
  8
2
  6
Continuous
 62
     7
370
     9
100
AcDbLine
 10
-774.2912512166447
 20
-473.2567995895934
 30
0.0
 11
-774.3777015926287
 21
-473.2567995895934
 31
0.0
  0
LINE
  5
202
330
D2
100
AcDbEntity
  8
2
  6
Continuous
 62
     7
370
     9
100
AcDbLine
 10
-534.2928371414473
 20
-473.2567995895934
 30
0.0
 11
-534.377701592627
 21
-473.2567995895934
 31
0.0
  0
LINE
  5
203
330
D2
100
AcDbEntity
  8
2
  6
Continuous
 62
     7
370
     9
100
AcDbLine
 10
-737.6239648228876
 20
-473.2567995895934
 30
0.0
 11
-737.7070853979794
 21
-473.2567995895934
 31
0.0
  0
LINE
  5
204
330
D2
100
AcDbEntity
  8
2
  6
Continuous
 62
     7
370
     9
100
AcDbLine
 10
-497.6239648228859
 20
-473.2567995895934
 30
0.0
 11
-497.7086813428914
 21
-473.2567995895934
 31
0.0
  0
LINE
  5
205
330
D2
100
AcDbEntity
  8
2
  6
Continuous
 62
     7
370
     9
100
AcDbLine
 10
-873.3577072218653
 20
-468.9567995895934
 30
0.0
 11
-873.295861977939
 21
-468.9567995895934
 31
0.0
  0
LINE
  5
206
330
D2
100
AcDbEntity
  8
2
  6
Continuous
 62
     7
370
     9
100
AcDbLine
 10
-838.7041380220612
 20
-468.9567995895934
 30
0.0
 11
-838.6422927781348
 21
-468.9567995895934
 31
0.0
  0
LINE
  5
207
330
D2
100
AcDbEntity
  8
2
  6
Continuous
 62
     7
370
     9
100
AcDbLine
 10
-773.3577072218646
 20
-468.9567995895934
 30
0.0
 11
-773.2958619779391
 21
-468.9567995895934
 31
0.0
  0
LINE
  5
208
330
D2
100
AcDbEntity
  8
2
  6
Continuous
 62
     7
370
     9
100
AcDbLine
 10
-738.7041380220611
 20
-468.9567995895934
 30
0.0
 11
-738.6422927781342
 21
-468.9567995895934
 31
0.0
  0
LINE
  5
209
330
D2
100
AcDbEntity
  8
2
  6
Continuous
 62
     7
370
     9
100
AcDbLine
 10
-633.3577072218635
 20
-468.9567995895934
 30
0.0
 11
-633.2958619779358
 21
-468.9567995895934
 31
0.0
  0
LINE
  5
20A
330
D2
100
AcDbEntity
  8
2
  6
Continuous
 62
     7
370
     9
100
AcDbLine
 10
-598.7041380220588
 20
-468.9567995895934
 30
0.0
 11
-598.6422927781331
 21
-468.9567995895934
 31
0.0
  0
LINE
  5
20B
330
D2
100
AcDbEntity
  8
2
  6
Continuous
 62
     7
370
     9
100
AcDbLine
 10
-533.3577072218628
 20
-468.9567995895934
 30
0.0
 11
-533.2958619779367
 21
-468.9567995895934
 31
0.0
  0
LINE
  5
20C
330
D2
100
AcDbEntity
  8
2
  6
Continuous
 62
     7
370
     9
100
AcDbLine
 10
-498.7041380220598
 20
-468.9567995895934
 30
0.0
 11
-498.6422927781323
 21
-468.9567995895934
 31
0.0
  0
LINE
  5
20D
330
D2
100
AcDbEntity
  8
2
  6
Continuous
 62
     7
370
     9
100
AcDbLine
 10
-727.5000000000001
 20
-498.9567995895934
 30
0.0
 11
-702.5000000000001
 21
-498.9567995895934
 31
0.0
  0
LINE
  5
20E
330
D2
100
AcDbEntity
  8
2
  6
Continuous
 62
     7
370
     9
100
AcDbLine
 10
-669.5000000000001
 20
-498.9567995895934
 30
0.0
 11
-644.5000000000001
 21
-498.9567995895934
 31
0.0
  0
LINE
  5
20F
330
D2
100
AcDbEntity
  8
2
  6
Continuous
 62
     7
370
     9
100
AcDbLine
 10
-682.9999999989626
 20
-481.6569522378893
 30
0.0
 11
-682.9999999989676
 21
-480.1567995914938
 31
0.0
  0
LINE
  5
210
330
D2
100
AcDbEntity
  8
2
  6
Continuous
 62
     7
370
     9
100
AcDbLine
 10
-682.9999999989526
 20
-484.6567995914933
 30
0.0
 11
-682.999999998956
 21
-483.6567840180616
 31
0.0
  0
LINE
  5
211
330
D2
100
AcDbEntity
  8
2
  6
Continuous
 62
     7
370
     9
100
AcDbLine
 10
-688.9999999989558
 20
-483.6567801202061
 30
0.0
 11
-688.9999999989525
 21
-484.6567995915132
 31
0.0
  0
LINE
  5
212
330
D2
100
AcDbEntity
  8
2
  6
Continuous
 62
     7
370
     9
100
AcDbLine
 10
-688.9999999989674
 20
-480.1567995915138
 30
0.0
 11
-688.9999999989624
 21
-481.6568910715538
 31
0.0
  0
LINE
  5
213
330
D2
100
AcDbEntity
  8
2
  6
Continuous
 62
     7
370
     9
100
AcDbLine
 10
-682.9999999989676
 20
-480.1567995914939
 30
0.0
 11
-683.4999999989692
 21
-479.6567995914955
 31
0.0
  0
LINE
  5
214
330
D2
100
AcDbEntity
  8
2
  6
Continuous
 62
     7
370
     9
100
AcDbLine
 10
-688.4999999989691
 20
-479.6567995915122
 30
0.0
 11
-688.9999999989674
 21
-480.1567995915138
 31
0.0
  0
LINE
  5
215
330
D2
100
AcDbEntity
  8
2
  6
Continuous
 62
     7
370
     9
100
AcDbLine
 10
-687.4999999989321
 20
-490.7567995895934
 30
0.0
 11
-687.4999999989315
 21
-490.9567995895934
 31
0.0
  0
LINE
  5
216
330
D2
100
AcDbEntity
  8
2
  6
Continuous
 62
     7
370
     9
100
AcDbLine
 10
-684.4999999989316
 20
-490.9567995895934
 30
0.0
 11
-684.4999999989323
 21
-490.7567995895934
 31
0.0
  0
LWPOLYLINE
  5
217
330
D2
100
AcDbEntity
  8
2
  6
Continuous
 62
     7
370
     9
100
AcDbPolyline
 90
        9
 70
     0
 43
0.0
 10
-621.0979023930424
 20
-302.0144129329857
 42
0.0620323376757967
 10
-622.7706888137154
 20
-302.1943802017117
 10
-622.8614779898019
 20
-302.2486024134605
 10
-622.9501285658396
 20
-302.3293612237898
 10
-623.0151891294946
 20
-302.4218516640237
 10
-623.0554794829861
 20
-302.516134156152
 10
-623.0769646752882
 20
-302.6278219566892
 10
-623.0782320448476
 20
-302.6519514805661
 10
-623.0782320448476
 20
-302.6519514805661
  0
LWPOLYLINE
  5
218
330
D2
100
AcDbEntity
  8
2
  6
Continuous
 62
     7
370
     9
100
AcDbPolyline
 90
        9
 70
     0
 43
0.0
 10
-509.9630777494907
 20
-302.650779678343
 10
-509.9797556295617
 20
-302.5359892685461
 10
-510.0169678412851
 20
-302.4380630264365
 10
-510.0824301619546
 20
-302.3384276104143
 10
-510.1656005478543
 20
-302.2581753567109
 10
-510.2593475580421
 20
-302.1988091390244
 10
-510.3536574266768
 20
-302.1602200585984
 10
-510.3536574266768
 20
-302.1602200585984
 42
0.0529424555898583
 10
-511.9437048414169
 20
-302.0132711615797
  0
LINE
  5
219
330
D2
100
AcDbEntity
  8
2
  6
Continuous
 62
     7
370
     9
100
AcDbLine
 10
-587.429758127663
 20
-301.6786136936527
 30
0.0
 11
-621.0979023930424
 21
-302.0144129329857
 31
0.0
  0
LINE
  5
21A
330
D2
100
AcDbEntity
  8
2
  6
Continuous
 62
     7
370
     9
100
AcDbLine
 10
-539.2315146827644
 20
-301.7186973938141
 30
0.0
 11
-566.5208071153311
 21
-301.6206944675631
 31
0.0
  0
LWPOLYLINE
  5
21B
330
D2
100
AcDbEntity
  8
2
  6
Continuous
 62
     7
370
     9
100
AcDbPolyline
 90
        9
 70
     0
 43
0.0
 10
-748.9217679551527
 20
-302.6519514805663
 10
-748.9384426619641
 20
-302.5371595012608
 10
-748.9756512954896
 20
-302.4392319578693
 10
-749.0411078333264
 20
-302.3395954739215
 10
-749.1242688954328
 20
-302.2593429633232
 10
-749.2179983627022
 20
-302.1999779158391
 10
-749.3122706540579
 20
-302.1613927873192
 10
-749.3122706540579
 20
-302.1613927873192
 42
0.0529558091543017
 10
-750.9020976069579
 20
-302.0144129329859
  0
LWPOLYLINE
  5
21C
330
D2
100
AcDbEntity
  8
2
  6
Continuous
 62
     7
370
     9
100
AcDbPolyline
 90
        9
 70
     0
 43
0.0
 10
-860.0562951585832
 20
-302.0132711615801
 42
0.0620191388110147
 10
-861.7293365142059
 20
-302.1932111263545
 10
-861.8201443169846
 20
-302.2474347425746
 10
-861.908805398847
 20
-302.3281934382587
 10
-861.9738717912941
 20
-302.4206829464567
 10
-862.0141658419155
 20
-302.5149642112244
 10
-862.0356542649758
 20
-302.6266504792497
 10
-862.0369222505094
 20
-302.6507796783433
 10
-862.0369222505094
 20
-302.6507796783433
  0
LINE
  5
21D
330
D2
100
AcDbEntity
  8
2
  6
Continuous
 62
     7
370
     9
100
AcDbLine
 10
-778.189902201248
 20
-301.719268295046
 30
0.0
 11
-805.4791928846595
 21
-301.6206944675635
 31
0.0
  0
LINE
  5
21E
330
D2
100
AcDbEntity
  8
2
  6
Continuous
 62
     7
370
     9
100
AcDbLine
 10
-826.3881449251312
 20
-301.6781762713048
 30
0.0
 11
-860.0562951585832
 21
-302.0132711615801
 31
0.0
  0
LINE
  5
21F
330
D2
100
AcDbEntity
  8
2
  6
Continuous
 62
     7
370
     9
100
AcDbLine
 10
-455.5043473434057
 20
-333.1680433215316
 30
0.0
 11
-455.6724958213856
 21
-332.6333564867915
 31
0.0
  0
LWPOLYLINE
  5
220
330
D2
100
AcDbEntity
  8
2
  6
Continuous
 62
     7
370
     9
100
AcDbPolyline
 90
        3
 70
     0
 43
0.0
 10
-455.6724958213856
 20
-332.6333564867915
 42
0.0703902340592898
 10
-462.9576770450473
 20
-326.5946431918643
 42
0.0063570847424919
 10
-466.8069484765286
 20
-323.9388330786214
  0
LWPOLYLINE
  5
221
330
D2
100
AcDbEntity
  8
2
  6
Continuous
 62
     7
370
     9
100
AcDbPolyline
 90
        3
 70
     0
 43
0.0
 10
-905.1930515234691
 20
-323.9388330786214
 42
0.0494320338035806
 10
-916.1411495133535
 20
-332.320849092919
 42
0.1123987462560146
 10
-916.4858635326774
 20
-333.104904621881
  0
LINE
  5
222
330
D2
100
AcDbEntity
  8
2
  6
Continuous
 62
     7
370
     9
100
AcDbLine
 10
-916.4858635326774
 20
-333.104904621881
 30
0.0
 11
-916.495652656592
 21
-333.1680433215316
 31
0.0
  0
LINE
  5
223
330
D2
100
AcDbEntity
  8
2
  6
Continuous
 62
     7
370
     9
100
AcDbLine
 10
-504.2054492650646
 20
-299.1081358381431
 30
0.0
 11
-867.7945507349332
 21
-299.1081358381431
 31
0.0
  0
LINE
  5
224
330
D2
100
AcDbEntity
  8
2
  6
Continuous
 62
     7
370
     9
100
AcDbLine
 10
-466.7974972645051
 20
-323.9427839744829
 30
0.0
 11
-503.3719165623777
 21
-299.3631589381418
 31
0.0
  0
LINE
  5
225
330
D2
100
AcDbEntity
  8
2
  6
Continuous
 62
     7
370
     9
100
AcDbLine
 10
-868.6280834376199
 20
-299.3631589381418
 30
0.0
 11
-905.2025027354927
 21
-323.9427839744829
 31
0.0
  0
ENDBLK
  5
229
330
D2
100
AcDbEntity
  8
0
100
AcDbBlockEnd
  0
BLOCK
  5
408
330
227
100
AcDbEntity
  8
0
100
AcDbBlockBegin
  2
D_FRAME_VIEW@2448
 70
     0
 10
0.0
 20
0.0
 30
0.0
  3
D_FRAME_VIEW@2448
  1

  0
ARC
  5
22A
330
227
100
AcDbEntity
  8
2
  6
Continuous
 62
     7
370
     9
100
AcDbCircle
 10
-685.9999999989692
 20
-93.07156575012003
 30
0.0
 40
2.499999999999905
100
AcDbArc
 50
281.4541631604141
 51
78.38024509478208
  0
LINE
  5
22B
330
227
100
AcDbEntity
  8
2
  6
Continuous
 62
     7
370
     9
100
AcDbLine
 10
-685.5035401808568
 20
-95.52177546542995
 30
0.0
 11
-685.4964608611814
 21
-90.62280109488763
 31
0.0
  0
LINE
  5
22C
330
227
100
AcDbEntity
  8
2
  6
Continuous
 62
     7
370
     9
100
AcDbLine
 10
-685.4964608611814
 20
-90.62280109488763
 30
0.0
 11
-685.4957259756625
 21
-90.11425147714185
 31
0.0
  0
ARC
  5
22D
330
227
100
AcDbEntity
  8
2
  6
Continuous
 62
     7
370
     9
100
AcDbCircle
 10
685.9999999989675
 20
-93.07156575016369
 30
0.0
 40
2.999999999999894
210
0.0
220
0.0
230
-1.0
100
AcDbArc
 50
99.67686409926286
 51
260.4887276455407
  0
LINE
  5
22E
330
227
100
AcDbEntity
  8
2
  6
Continuous
 62
     7
370
     9
100
AcDbLine
 10
-685.5042750663724
 20
-96.03032508326308
 30
0.0
 11
-685.5035401808568
 21
-95.52177546542995
 31
0.0
  0
ARC
  5
22F
330
227
100
AcDbEntity
  8
2
  6
Continuous
 62
     7
370
     9
100
AcDbCircle
 10
-685.9999999989692
 20
-93.07156575012003
 30
0.0
 40
2.499999999999905
100
AcDbArc
 50
101.4541631604141
 51
258.3802450947824
  0
LINE
  5
230
330
227
100
AcDbEntity
  8
2
  6
Continuous
 62
     7
370
     9
100
AcDbLine
 10
-686.4964598170816
 20
-90.62135603481009
 30
0.0
 11
-686.5035391367569
 21
-95.52033040535241
 31
0.0
  0
ARC
  5
231
330
227
100
AcDbEntity
  8
2
  6
Continuous
 62
     7
370
     9
100
AcDbCircle
 10
685.9999999989675
 20
-93.07156575016369
 30
0.0
 40
2.999999999999894
210
0.0
220
0.0
230
-1.0
100
AcDbArc
 50
279.6768640992627
 51
80.48872764554108
  0
LINE
  5
232
330
227
100
AcDbEntity
  8
2
  6
Continuous
 62
     7
370
     9
100
AcDbLine
 10
-686.4957249315626
 20
-90.11280641706428
 30
0.0
 11
-686.4964598170816
 21
-90.62135603481009
 31
0.0
  0
LINE
  5
233
330
227
100
AcDbEntity
  8
2
  6
Continuous
 62
     7
370
     9
100
AcDbLine
 10
-686.5035391367569
 20
-95.52033040535241
 30
0.0
 11
-686.5042740222726
 21
-96.02888002318554
 31
0.0
  0
ARC
  5
234
330
227
100
AcDbEntity
  8
2
  6
Continuous
 62
     7
370
     9
100
AcDbCircle
 10
-685.9999999989659
 20
-93.07156575020731
 30
0.0
 40
2.999999999999894
100
AcDbArc
 50
260.3231359007374
 51
279.5112723544592
  0
ARC
  5
235
330
227
100
AcDbEntity
  8
2
  6
Continuous
 62
     7
370
     9
100
AcDbCircle
 10
-685.9999999989659
 20
-93.07156575020731
 30
0.0
 40
2.999999999999913
100
AcDbArc
 50
80.32313590073714
 51
99.51127235445908
  0
LINE
  5
236
330
227
100
AcDbEntity
  8
2
  6
Continuous
 62
     7
370
     9
100
AcDbLine
 10
-585.3012636028183
 20
107.6185596480069
 30
0.0
 11
-575.5012927323921
 21
107.623211942792
 31
0.0
  0
LINE
  5
237
330
227
100
AcDbEntity
  8
2
  6
Continuous
 62
     7
370
     9
100
AcDbLine
 10
-575.5014048313528
 20
108.1205169861512
 30
0.0
 11
-575.5012927323921
 21
107.623211942792
 31
0.0
  0
ELLIPSE
  5
238
330
227
100
AcDbEntity
  8
2
  6
Continuous
 62
     7
370
     9
100
AcDbEllipse
 10
-570.001421179583
 20
108.1231279679184
 30
0.0
 11
-5.498492791996212
 21
-0.1287517625762191
 31
0.0
210
0.0
220
0.0
230
-1.0
 40
0.9946072367660516
 41
0.0230611441922886
 42
1.593857470987172
  0
LINE
  5
239
330
227
100
AcDbEntity
  8
2
  6
Continuous
 62
     7
370
     9
100
AcDbLine
 10
-563.0026750749885
 20
113.5968065125734
 30
0.0
 11
-570.00265426815
 21
113.5934834448697
 31
0.0
  0
ELLIPSE
  5
23A
330
227
100
AcDbEntity
  8
2
  6
Continuous
 62
     7
370
     9
100
AcDbEllipse
 10
-563.0014419864216
 20
108.1264510356221
 30
0.0
 11
-5.4984927919961
 21
-0.1287517625764313
 31
0.0
210
0.0
220
0.0
230
-1.0
 40
0.994607236766051
 41
1.593857470987231
 42
3.141592653589791
  0
LINE
  5
23B
330
227
100
AcDbEntity
  8
2
  6
Continuous
 62
     7
370
     9
100
AcDbLine
 10
-557.5014583346517
 20
108.1290620173893
 30
0.0
 11
-557.501346235691
 21
107.63175697403
 31
0.0
  0
LINE
  5
23C
330
227
100
AcDbEntity
  8
2
  6
Continuous
 62
     7
370
     9
100
AcDbLine
 10
-547.7013753652649
 20
107.6364092688152
 30
0.0
 11
-557.501346235691
 21
107.63175697403
 31
0.0
  0
LINE
  5
23D
330
227
100
AcDbEntity
  8
2
  6
Continuous
 62
     7
370
     9
100
AcDbLine
 10
-547.7009269694224
 20
105.6471890953784
 30
0.0
 11
-585.3008152069757
 21
105.6293394745701
 31
0.0
  0
ELLIPSE
  5
23E
330
227
100
AcDbEntity
  8
2
  6
Continuous
 62
     7
370
     9
100
AcDbEllipse
 10
-570.0050629798593
 20
108.2786552567751
 30
0.0
 11
-5.498492791996102
 21
-0.1287517625762165
 31
0.0
210
0.0
220
0.0
230
-1.0
 40
0.9946072367660515
 41
0.0230611441922891
 42
1.593857470987193
  0
ELLIPSE
  5
23F
330
227
100
AcDbEntity
  8
2
  6
Continuous
 62
     7
370
     9
100
AcDbEllipse
 10
-563.0014419864216
 20
108.1264510356221
 30
0.0
 11
-5.498492791996101
 21
-0.1287517625764353
 31
0.0
210
0.0
220
0.0
230
-1.0
 40
0.9946072367660515
 41
3.141592653589793
 42
3.164653797782122
  0
ELLIPSE
  5
240
330
227
100
AcDbEntity
  8
2
  6
Continuous
 62
     7
370
     9
100
AcDbEllipse
 10
-563.0050837866978
 20
108.2819783244787
 30
0.0
 11
-5.4984927919961
 21
-0.1287517625764313
 31
0.0
210
0.0
220
0.0
230
-1.0
 40
0.994607236766051
 41
1.593857470987211
 42
3.141592653589793
  0
LINE
  5
241
330
227
100
AcDbEntity
  8
2
  6
Continuous
 62
     7
370
     9
100
AcDbLine
 10
-575.5049345326684
 20
107.7787392316487
 30
0.0
 11
-575.505046631629
 21
108.2760442750079
 31
0.0
  0
LINE
  5
242
330
227
100
AcDbEntity
  8
2
  6
Continuous
 62
     7
370
     9
100
AcDbLine
 10
-575.5012927323921
 20
107.623211942792
 30
0.0
 11
-575.5049345326684
 21
107.7787392316487
 31
0.0
  0
ELLIPSE
  5
243
330
227
100
AcDbEntity
  8
2
  6
Continuous
 62
     7
370
     9
100
AcDbEllipse
 10
-585.3036914696692
 20
107.7222445072447
 30
0.0
 11
0.9999999745945454
 21
0.0002254128714034522
 31
0.0
210
0.0
220
0.0
230
-1.0
 40
0.1036857036108786
 41
1.568391829590594
 42
3.139188156385587
  0
LINE
  5
244
330
227
100
AcDbEntity
  8
2
  6
Continuous
 62
     7
370
     9
100
AcDbLine
 10
-586.3036884972637
 20
107.721769783287
 30
0.0
 11
-586.3085442309654
 21
107.9291395017625
 31
0.0
  0
LINE
  5
245
330
227
100
AcDbEntity
  8
2
  6
Continuous
 62
     7
370
     9
100
AcDbLine
 10
-576.5085733556837
 20
107.9337915891884
 30
0.0
 11
-586.3085442309654
 21
107.9291395017625
 31
0.0
  0
LINE
  5
246
330
227
100
AcDbEntity
  8
2
  6
Continuous
 62
     7
370
     9
100
AcDbLine
 10
-586.313399964667
 20
108.1365092202381
 30
0.0
 11
-586.3170417649434
 21
108.2920365090947
 31
0.0
  0
ELLIPSE
  5
247
330
227
100
AcDbEntity
  8
2
  6
Continuous
 62
     7
370
     9
100
AcDbEllipse
 10
-585.3170447373487
 20
108.2925112330524
 30
0.0
 11
0.9999999745944345
 21
0.0002254128714059866
 31
0.0
210
0.0
220
0.0
230
-1.0
 40
0.10368570361088
 41
3.139188156385471
 42
3.226584497915597
  0
LINE
  5
248
330
227
100
AcDbEntity
  8
2
  6
Continuous
 62
     7
370
     9
100
AcDbLine
 10
-556.5135469727502
 20
108.4098709959575
 30
0.0
 11
-557.506559839954
 21
108.409399587558
 31
0.0
  0
LINE
  5
249
330
227
100
AcDbEntity
  8
2
  6
Continuous
 62
     7
370
     9
100
AcDbLine
 10
-575.5036430317878
 20
108.4008559156034
 30
0.0
 11
-576.5086785304493
 21
108.4003787997557
 31
0.0
  0
LINE
  5
24A
330
227
100
AcDbEntity
  8
2
  6
Continuous
 62
     7
370
     9
100
AcDbLine
 10
-556.5134885423508
 20
108.1506559941765
 30
0.0
 11
-556.5086328037936
 21
107.9432860683417
 31
0.0
  0
LINE
  5
24B
330
227
100
AcDbEntity
  8
2
  6
Continuous
 62
     7
370
     9
100
AcDbLine
 10
-546.7086619382229
 20
107.9479385704861
 30
0.0
 11
-556.5086328037936
 21
107.9432860683417
 31
0.0
  0
LINE
  5
24C
330
227
100
AcDbEntity
  8
2
  6
Continuous
 62
     7
370
     9
100
AcDbLine
 10
-546.7038062045212
 20
107.7405688520106
 30
0.0
 11
-546.7086619382229
 21
107.9479385704861
 31
0.0
  0
ELLIPSE
  5
24D
330
227
100
AcDbEntity
  8
2
  6
Continuous
 62
     7
370
     9
100
AcDbEllipse
 10
-547.7038032321158
 20
107.7400941280529
 30
0.0
 11
0.9999999745945454
 21
0.0002254128714031244
 31
0.0
210
0.0
220
0.0
230
-1.0
 40
0.10368570361088
 41
6.280780809975242
 42
7.851577136770181
  0
ELLIPSE
  5
24E
330
227
100
AcDbEntity
  8
2
  6
Continuous
 62
     7
370
     9
100
AcDbEllipse
 10
-585.3032430738266
 20
105.7330243338078
 30
0.0
 11
-0.9999999745945454
 21
-0.0002254128714031181
 31
0.0
210
0.0
220
0.0
230
1.0
 40
0.1036857036108801
 41
0.0024044972043442
 42
1.573200823999199
  0
LINE
  5
24F
330
227
100
AcDbEntity
  8
2
  6
Continuous
 62
     7
370
     9
100
AcDbLine
 10
-546.7033578086787
 20
105.7513486785738
 30
0.0
 11
-546.7038062045212
 21
107.7405688520106
 31
0.0
  0
ELLIPSE
  5
250
330
227
100
AcDbEntity
  8
2
  6
Continuous
 62
     7
370
     9
100
AcDbEllipse
 10
-547.7033548362733
 20
105.7508739546161
 30
0.0
 11
-0.9999999745944345
 21
-0.0002254128714034286
 31
0.0
210
0.0
220
0.0
230
1.0
 40
0.1036857036108781
 41
1.573200823999199
 42
3.143997150793997
  0
ELLIPSE
  5
251
330
227
100
AcDbEntity
  8
2
  6
Continuous
 62
     7
370
     9
100
AcDbEllipse
 10
-570.0061839694656
 20
113.2517056903671
 30
0.0
 11
-0.0002373626576124236
 21
0.4999999436589575
 31
0.0
210
0.0
220
0.0
230
-1.0
 40
0.0023915349291611
 41
0.0
 42
0.1038726891122715
  0
ELLIPSE
  5
252
330
227
100
AcDbEntity
  8
2
  6
Continuous
 62
     7
370
     9
100
AcDbEllipse
 10
-563.0062047763041
 20
113.2550287580708
 30
0.0
 11
-0.0002373626576124236
 21
0.4999999436589575
 31
0.0
210
0.0
220
0.0
230
-1.0
 40
0.0023915349291611
 41
0.0
 42
0.1038726891124975
  0
LINE
  5
253
330
227
100
AcDbEntity
  8
2
  6
Continuous
 62
     7
370
     9
100
AcDbLine
 10
-586.3165933691008
 20
106.3028163356579
 30
0.0
 11
-586.3170417649434
 21
108.2920365090947
 31
0.0
  0
LINE
  5
254
330
227
100
AcDbEntity
  8
2
  6
Continuous
 62
     7
370
     9
100
AcDbLine
 10
-586.3141846573915
 20
111.6176445237525
 30
0.0
 11
-586.313399964667
 21
108.1365092202381
 31
0.0
  0
LINE
  5
255
330
227
100
AcDbEntity
  8
2
  6
Continuous
 62
     7
370
     9
100
AcDbLine
 10
-586.3085442309654
 20
107.9291395017625
 30
0.0
 11
-586.3093289236898
 21
111.410274805277
 31
0.0
  0
LINE
  5
256
330
227
100
AcDbEntity
  8
2
  6
Continuous
 62
     7
370
     9
100
AcDbLine
 10
-586.3165933691008
 20
106.3028163356579
 30
0.0
 11
-586.3032401014211
 21
105.7325496098502
 31
0.0
  0
LINE
  5
257
330
227
100
AcDbEntity
  8
2
  6
Continuous
 62
     7
370
     9
100
AcDbLine
 10
-576.3185868960447
 20
104.3525197237489
 30
0.0
 11
-576.3179773603543
 21
101.6484342337934
 31
0.0
  0
LINE
  5
258
330
227
100
AcDbEntity
  8
2
  6
Continuous
 62
     7
370
     9
100
AcDbLine
 10
-576.3131683704577
 20
101.6484342337934
 30
0.0
 11
-576.3137468304624
 21
104.21465854256
 31
0.0
  0
ELLIPSE
  5
259
330
227
100
AcDbEntity
  8
2
  6
Continuous
 62
     7
370
     9
100
AcDbEllipse
 10
-579.31420546423
 20
111.6209675914562
 30
0.0
 11
6.998081735267724
 21
0.163865879642732
 31
0.0
210
0.0
220
0.0
230
1.0
 40
0.9946072367660516
 41
1.54773518260258
 42
3.118531509397467
  0
ELLIPSE
  5
25A
330
227
100
AcDbEntity
  8
2
  6
Continuous
 62
     7
370
     9
100
AcDbEllipse
 10
-579.3093497305283
 20
111.4135978729806
 30
0.0
 11
-6.998081735267835
 21
-0.1638658796425793
 31
0.0
210
0.0
220
0.0
230
-1.0
 40
0.9946072367660508
 41
0.0230611441923043
 42
1.593857470987223
  0
ELLIPSE
  5
25B
330
227
100
AcDbEntity
  8
2
  6
Continuous
 62
     7
370
     9
100
AcDbEllipse
 10
-553.709425824109
 20
111.4257508062969
 30
0.0
 11
-6.998081735267834
 21
-0.1638658796427347
 31
0.0
210
0.0
220
0.0
230
-1.0
 40
0.9946072367660515
 41
1.593857470987229
 42
3.141592653589793
  0
LINE
  5
25C
330
227
100
AcDbEntity
  8
2
  6
Continuous
 62
     7
370
     9
100
AcDbLine
 10
-556.5086328037936
 20
107.9432860683417
 30
0.0
 11
-556.5087449027543
 21
108.440591111701
 31
0.0
  0
ELLIPSE
  5
25D
330
227
100
AcDbEntity
  8
2
  6
Continuous
 62
     7
370
     9
100
AcDbEllipse
 10
-563.008725586974
 20
108.4375056133354
 30
0.0
 11
6.498219205431479
 21
0.1521419014014039
 31
0.0
210
0.0
220
0.0
230
1.0
 40
0.9946072375017769
 41
6.260127112814021
 42
6.283188257008399
  0
LINE
  5
25E
330
227
100
AcDbEntity
  8
2
  6
Continuous
 62
     7
370
     9
100
AcDbLine
 10
-563.0101828686068
 20
114.9024709696458
 30
0.0
 11
-570.0101620617684
 21
114.8991479019421
 31
0.0
  0
ELLIPSE
  5
25F
330
227
100
AcDbEntity
  8
2
  6
Continuous
 62
     7
370
     9
100
AcDbEllipse
 10
-570.0087047801355
 20
108.4341825456317
 30
0.0
 11
6.498218764586117
 21
0.1521607294294102
 31
0.0
210
0.0
220
0.0
230
1.0
 40
0.9946072048642736
 41
1.547735250640823
 42
3.118531577435604
  0
LINE
  5
260
330
227
100
AcDbEntity
  8
2
  6
Continuous
 62
     7
370
     9
100
AcDbLine
 10
-576.5086854546444
 20
108.4310966325476
 30
0.0
 11
-576.5085733556837
 21
107.9337915891884
 31
0.0
  0
LINE
  5
261
330
227
100
AcDbEntity
  8
2
  6
Continuous
 62
     7
370
     9
100
AcDbLine
 10
-553.7109952095578
 20
118.3880214133258
 30
0.0
 11
-579.3109191159771
 21
118.3758684800096
 31
0.0
  0
LINE
  5
262
330
227
100
AcDbEntity
  8
2
  6
Continuous
 62
     7
370
     9
100
AcDbLine
 10
-546.7086619382229
 20
107.9479385704861
 30
0.0
 11
-546.7094466309475
 21
111.4290738740006
 31
0.0
  0
LINE
  5
263
330
227
100
AcDbEntity
  8
2
  6
Continuous
 62
     7
370
     9
100
AcDbLine
 10
-553.7158509432596
 20
118.5953911318013
 30
0.0
 11
-579.3157748496789
 21
118.5832381984851
 31
0.0
  0
ELLIPSE
  5
264
330
227
100
AcDbEntity
  8
2
  6
Continuous
 62
     7
370
     9
100
AcDbEllipse
 10
-553.7142815578106
 20
111.6331205247725
 30
0.0
 11
6.998081735267834
 21
0.1638658796427386
 31
0.0
210
0.0
220
0.0
230
1.0
 40
0.994607236766051
 41
0.0
 42
1.54773518260258
  0
ELLIPSE
  5
265
330
227
100
AcDbEntity
  8
2
  6
Continuous
 62
     7
370
     9
100
AcDbEllipse
 10
-553.709425824109
 20
111.4257508062969
 30
0.0
 11
-6.998081735267834
 21
-0.1638658796427369
 31
0.0
210
0.0
220
0.0
230
-1.0
 40
0.994607236766051
 41
3.141592653589793
 42
3.16465379778212
  0
ELLIPSE
  5
266
330
227
100
AcDbEntity
  8
2
  6
Continuous
 62
     7
370
     9
100
AcDbEllipse
 10
-563.008725586974
 20
108.4375056133354
 30
0.0
 11
6.498218754177221
 21
0.1521611739539631
 31
0.0
210
0.0
220
0.0
230
1.0
 40
0.9946072367660515
 41
0.0
 42
1.54773518260257
  0
LINE
  5
267
330
227
100
AcDbEntity
  8
2
  6
Continuous
 62
     7
370
     9
100
AcDbLine
 10
-556.5134885423508
 20
108.1506559941765
 30
0.0
 11
-556.5136006413115
 21
108.6479610375357
 31
0.0
  0
ELLIPSE
  5
268
330
227
100
AcDbEntity
  8
2
  6
Continuous
 62
     7
370
     9
100
AcDbEllipse
 10
-578.3137408856513
 20
104.2137090946446
 30
0.0
 11
1.999451924362239
 21
0.04681882275506602
 31
0.0
210
0.0
220
0.0
230
1.0
 40
0.9946072367660515
 41
0.0
 42
0.7711604865192169
  0
ELLIPSE
  5
269
330
227
100
AcDbEntity
  8
2
  6
Continuous
 62
     7
370
     9
100
AcDbEllipse
 10
-578.3137408856513
 20
104.2137090946446
 30
0.0
 11
1.999451924362239
 21
0.04681882275506294
 31
0.0
210
0.0
220
0.0
230
1.0
 40
0.9946072367660517
 41
6.260124162987254
 42
6.283185307179586
  0
ELLIPSE
  5
26A
330
227
100
AcDbEntity
  8
2
  6
Continuous
 62
     7
370
     9
100
AcDbEllipse
 10
-554.713811034421
 20
104.2249125800456
 30
0.0
 11
1.999451924362238
 21
0.04681882275515597
 31
0.0
210
0.0
220
0.0
230
1.0
 40
0.9946072367660508
 41
2.324309878685873
 42
3.11853150939742
  0
LINE
  5
26B
330
227
100
AcDbEntity
  8
2
  6
Continuous
 62
     7
370
     9
100
AcDbLine
 10
-556.713224532231
 20
101.6484342337934
 30
0.0
 11
-556.7138050896101
 21
104.2239631321302
 31
0.0
  0
LINE
  5
26C
330
227
100
AcDbEntity
  8
2
  6
Continuous
 62
     7
370
     9
100
AcDbLine
 10
-824.2986246347353
 20
107.6364092688152
 30
0.0
 11
-814.4986537643092
 21
107.63175697403
 31
0.0
  0
LINE
  5
26D
330
227
100
AcDbEntity
  8
2
  6
Continuous
 62
     7
370
     9
100
AcDbLine
 10
-814.4985416653486
 20
108.1290620173893
 30
0.0
 11
-814.4986537643092
 21
107.63175697403
 31
0.0
  0
ELLIPSE
  5
26E
330
227
100
AcDbEntity
  8
2
  6
Continuous
 62
     7
370
     9
100
AcDbEllipse
 10
-808.9985580135788
 20
108.1264510356221
 30
0.0
 11
5.4984927919961
 21
-0.1287517625764313
 31
0.0
210
0.0
220
0.0
230
1.0
 40
0.994607236766051
 41
1.593857470987231
 42
3.141592653589791
  0
LINE
  5
26F
330
227
100
AcDbEntity
  8
2
  6
Continuous
 62
     7
370
     9
100
AcDbLine
 10
-808.9973249250119
 20
113.5968065125734
 30
0.0
 11
-801.9973457318503
 21
113.5934834448697
 31
0.0
  0
ELLIPSE
  5
270
330
227
100
AcDbEntity
  8
2
  6
Continuous
 62
     7
370
     9
100
AcDbEllipse
 10
-801.9985788204173
 20
108.1231279679184
 30
0.0
 11
5.498492791996102
 21
-0.1287517625762162
 31
0.0
210
0.0
220
0.0
230
1.0
 40
0.9946072367660515
 41
0.0230611441922891
 42
1.593857470987193
  0
LINE
  5
271
330
227
100
AcDbEntity
  8
2
  6
Continuous
 62
     7
370
     9
100
AcDbLine
 10
-796.4985951686475
 20
108.1205169861512
 30
0.0
 11
-796.4987072676082
 21
107.623211942792
 31
0.0
  0
LINE
  5
272
330
227
100
AcDbEntity
  8
2
  6
Continuous
 62
     7
370
     9
100
AcDbLine
 10
-786.698736397182
 20
107.6185596480069
 30
0.0
 11
-796.4987072676082
 21
107.623211942792
 31
0.0
  0
LINE
  5
273
330
227
100
AcDbEntity
  8
2
  6
Continuous
 62
     7
370
     9
100
AcDbLine
 10
-824.2990730305779
 20
105.6471890953784
 30
0.0
 11
-786.6991847930245
 21
105.6293394745701
 31
0.0
  0
ELLIPSE
  5
274
330
227
100
AcDbEntity
  8
2
  6
Continuous
 62
     7
370
     9
100
AcDbEllipse
 10
-801.994937020141
 20
108.2786552567751
 30
0.0
 11
5.498492791996102
 21
-0.1287517625762162
 31
0.0
210
0.0
220
0.0
230
1.0
 40
0.9946072367660515
 41
0.0230611441922891
 42
1.593857470987173
  0
ELLIPSE
  5
275
330
227
100
AcDbEntity
  8
2
  6
Continuous
 62
     7
370
     9
100
AcDbEllipse
 10
-808.9985580135788
 20
108.1264510356221
 30
0.0
 11
5.498492791996101
 21
-0.1287517625764368
 31
0.0
210
0.0
220
0.0
230
1.0
 40
0.9946072367660515
 41
3.141592653589793
 42
3.164653797782122
  0
ELLIPSE
  5
276
330
227
100
AcDbEntity
  8
2
  6
Continuous
 62
     7
370
     9
100
AcDbEllipse
 10
-808.9949162133025
 20
108.2819783244787
 30
0.0
 11
5.4984927919961
 21
-0.1287517625764313
 31
0.0
210
0.0
220
0.0
230
1.0
 40
0.994607236766051
 41
1.593857470987211
 42
3.14159265358979
  0
LINE
  5
277
330
227
100
AcDbEntity
  8
2
  6
Continuous
 62
     7
370
     9
100
AcDbLine
 10
-796.4950654673319
 20
107.7787392316487
 30
0.0
 11
-796.4949533683713
 21
108.2760442750079
 31
0.0
  0
LINE
  5
278
330
227
100
AcDbEntity
  8
2
  6
Continuous
 62
     7
370
     9
100
AcDbLine
 10
-796.4987072676082
 20
107.623211942792
 30
0.0
 11
-796.4950654673319
 21
107.7787392316487
 31
0.0
  0
ELLIPSE
  5
279
330
227
100
AcDbEntity
  8
2
  6
Continuous
 62
     7
370
     9
100
AcDbEllipse
 10
-824.2961967678846
 20
107.7400941280529
 30
0.0
 11
-0.9999999745944345
 21
0.0002254128714030947
 31
0.0
210
0.0
220
0.0
230
1.0
 40
0.1036857036108803
 41
6.280780809975242
 42
7.851577136770292
  0
LINE
  5
27A
330
227
100
AcDbEntity
  8
2
  6
Continuous
 62
     7
370
     9
100
AcDbLine
 10
-825.296193795479
 20
107.7405688520106
 30
0.0
 11
-825.2913380617773
 21
107.9479385704861
 31
0.0
  0
LINE
  5
27B
330
227
100
AcDbEntity
  8
2
  6
Continuous
 62
     7
370
     9
100
AcDbLine
 10
-825.2913380617773
 20
107.9479385704861
 30
0.0
 11
-815.4913671962066
 21
107.9432860683417
 31
0.0
  0
LINE
  5
27C
330
227
100
AcDbEntity
  8
2
  6
Continuous
 62
     7
370
     9
100
AcDbLine
 10
-815.4865114576495
 20
108.1506559941765
 30
0.0
 11
-815.4913671962066
 21
107.9432860683417
 31
0.0
  0
LINE
  5
27D
330
227
100
AcDbEntity
  8
2
  6
Continuous
 62
     7
370
     9
100
AcDbLine
 10
-815.48645302725
 20
108.4098709959575
 30
0.0
 11
-814.4934401600464
 21
108.409399587558
 31
0.0
  0
LINE
  5
27E
330
227
100
AcDbEntity
  8
2
  6
Continuous
 62
     7
370
     9
100
AcDbLine
 10
-796.4963569682125
 20
108.4008559156034
 30
0.0
 11
-795.491321469551
 21
108.4003787997557
 31
0.0
  0
ELLIPSE
  5
27F
330
227
100
AcDbEntity
  8
2
  6
Continuous
 62
     7
370
     9
100
AcDbEllipse
 10
-786.6829552626514
 20
108.2925112330524
 30
0.0
 11
-0.9999999745945454
 21
0.0002254128714060131
 31
0.0
210
0.0
220
0.0
230
1.0
 40
0.1036857036108803
 41
3.139188156385471
 42
3.226584497915596
  0
LINE
  5
280
330
227
100
AcDbEntity
  8
2
  6
Continuous
 62
     7
370
     9
100
AcDbLine
 10
-785.6866000353332
 20
108.1365092202381
 30
0.0
 11
-785.682958235057
 21
108.2920365090947
 31
0.0
  0
LINE
  5
281
330
227
100
AcDbEntity
  8
2
  6
Continuous
 62
     7
370
     9
100
AcDbLine
 10
-795.4914266443166
 20
107.9337915891884
 30
0.0
 11
-785.6914557690349
 21
107.9291395017625
 31
0.0
  0
LINE
  5
282
330
227
100
AcDbEntity
  8
2
  6
Continuous
 62
     7
370
     9
100
AcDbLine
 10
-785.6963115027366
 20
107.721769783287
 30
0.0
 11
-785.6914557690349
 21
107.9291395017625
 31
0.0
  0
ELLIPSE
  5
283
330
227
100
AcDbEntity
  8
2
  6
Continuous
 62
     7
370
     9
100
AcDbEllipse
 10
-786.6963085303311
 20
107.7222445072447
 30
0.0
 11
-0.9999999745945454
 21
0.0002254128714034522
 31
0.0
210
0.0
220
0.0
230
1.0
 40
0.1036857036108785
 41
1.568391829590594
 42
3.139188156385587
  0
ELLIPSE
  5
284
330
227
100
AcDbEntity
  8
2
  6
Continuous
 62
     7
370
     9
100
AcDbEllipse
 10
-786.6967569261736
 20
105.7330243338078
 30
0.0
 11
0.9999999745945454
 21
-0.0002254128714031196
 31
0.0
210
0.0
220
0.0
230
-1.0
 40
0.10368570361088
 41
0.0024044972043439
 42
1.573200823999199
  0
LINE
  5
285
330
227
100
AcDbEntity
  8
2
  6
Continuous
 62
     7
370
     9
100
AcDbLine
 10
-825.2966421913216
 20
105.7513486785738
 30
0.0
 11
-825.296193795479
 21
107.7405688520106
 31
0.0
  0
ELLIPSE
  5
286
330
227
100
AcDbEntity
  8
2
  6
Continuous
 62
     7
370
     9
100
AcDbEllipse
 10
-824.296645163727
 20
105.7508739546161
 30
0.0
 11
0.9999999745944345
 21
-0.0002254128714034287
 31
0.0
210
0.0
220
0.0
230
-1.0
 40
0.1036857036108778
 41
1.573200823999199
 42
3.143997150793997
  0
ELLIPSE
  5
287
330
227
100
AcDbEntity
  8
2
  6
Continuous
 62
     7
370
     9
100
AcDbEllipse
 10
-801.9938160305346
 20
113.2517056903671
 30
0.0
 11
0.0002373626576263014
 21
0.4999999436589575
 31
0.0
210
0.0
220
0.0
230
1.0
 40
0.0023915349291612
 41
0.0
 42
0.1038726890316643
  0
ELLIPSE
  5
288
330
227
100
AcDbEntity
  8
2
  6
Continuous
 62
     7
370
     9
100
AcDbEllipse
 10
-808.9937952236962
 20
113.2550287580708
 30
0.0
 11
0.0002373626576263014
 21
0.4999999436589575
 31
0.0
210
0.0
220
0.0
230
1.0
 40
0.0023915349291612
 41
0.0
 42
0.103872689031667
  0
LINE
  5
289
330
227
100
AcDbEntity
  8
2
  6
Continuous
 62
     7
370
     9
100
AcDbLine
 10
-785.6914557690349
 20
107.9291395017625
 30
0.0
 11
-785.6906710763105
 21
111.410274805277
 31
0.0
  0
LINE
  5
28A
330
227
100
AcDbEntity
  8
2
  6
Continuous
 62
     7
370
     9
100
AcDbLine
 10
-785.6858153426087
 20
111.6176445237525
 30
0.0
 11
-785.6866000353332
 21
108.1365092202381
 31
0.0
  0
LINE
  5
28B
330
227
100
AcDbEntity
  8
2
  6
Continuous
 62
     7
370
     9
100
AcDbLine
 10
-785.6834066308995
 20
106.3028163356579
 30
0.0
 11
-785.682958235057
 21
108.2920365090947
 31
0.0
  0
LINE
  5
28C
330
227
100
AcDbEntity
  8
2
  6
Continuous
 62
     7
370
     9
100
AcDbLine
 10
-785.6834066308995
 20
106.3028163356579
 30
0.0
 11
-785.6967598985791
 21
105.7325496098502
 31
0.0
  0
LINE
  5
28D
330
227
100
AcDbEntity
  8
2
  6
Continuous
 62
     7
370
     9
100
AcDbLine
 10
-795.6868316295427
 20
101.6484342337934
 30
0.0
 11
-795.6862531695378
 21
104.21465854256
 31
0.0
  0
LINE
  5
28E
330
227
100
AcDbEntity
  8
2
  6
Continuous
 62
     7
370
     9
100
AcDbLine
 10
-795.6814131039556
 20
104.3525197237487
 30
0.0
 11
-795.6820226396459
 21
101.6484342337934
 31
0.0
  0
ELLIPSE
  5
28F
330
227
100
AcDbEntity
  8
2
  6
Continuous
 62
     7
370
     9
100
AcDbEllipse
 10
-792.6857945357702
 20
111.6209675914562
 30
0.0
 11
-6.998081735267834
 21
0.1638658796427346
 31
0.0
210
0.0
220
0.0
230
-1.0
 40
0.9946072367660515
 41
1.547735182602565
 42
3.118531509397467
  0
ELLIPSE
  5
290
330
227
100
AcDbEntity
  8
2
  6
Continuous
 62
     7
370
     9
100
AcDbEllipse
 10
-792.690650269472
 20
111.4135978729806
 30
0.0
 11
6.998081735267835
 21
-0.1638658796425793
 31
0.0
210
0.0
220
0.0
230
1.0
 40
0.9946072367660508
 41
0.0230611441923043
 42
1.593857470987207
  0
LINE
  5
291
330
227
100
AcDbEntity
  8
2
  6
Continuous
 62
     7
370
     9
100
AcDbLine
 10
-795.4913145453559
 20
108.4310966325476
 30
0.0
 11
-795.4914266443166
 21
107.9337915891884
 31
0.0
  0
ELLIPSE
  5
292
330
227
100
AcDbEntity
  8
2
  6
Continuous
 62
     7
370
     9
100
AcDbEllipse
 10
-801.9912952198648
 20
108.4341825456317
 30
0.0
 11
-6.498218764586117
 21
0.1521607294294102
 31
0.0
210
0.0
220
0.0
230
-1.0
 40
0.9946072048642736
 41
1.547735250640823
 42
3.118531577435604
  0
LINE
  5
293
330
227
100
AcDbEntity
  8
2
  6
Continuous
 62
     7
370
     9
100
AcDbLine
 10
-808.9898171313935
 20
114.9024709696458
 30
0.0
 11
-801.989837938232
 21
114.8991479019421
 31
0.0
  0
ELLIPSE
  5
294
330
227
100
AcDbEntity
  8
2
  6
Continuous
 62
     7
370
     9
100
AcDbEllipse
 10
-808.9912744130263
 20
108.4375056133354
 30
0.0
 11
-6.498219205431368
 21
0.1521419014014014
 31
0.0
210
0.0
220
0.0
230
-1.0
 40
0.9946072375017769
 41
6.260127112814021
 42
6.283188257008399
  0
LINE
  5
295
330
227
100
AcDbEntity
  8
2
  6
Continuous
 62
     7
370
     9
100
AcDbLine
 10
-815.4913671962066
 20
107.9432860683417
 30
0.0
 11
-815.491255097246
 21
108.440591111701
 31
0.0
  0
ELLIPSE
  5
296
330
227
100
AcDbEntity
  8
2
  6
Continuous
 62
     7
370
     9
100
AcDbEllipse
 10
-818.2905741758914
 20
111.4257508062969
 30
0.0
 11
6.998081735267834
 21
-0.1638658796427347
 31
0.0
210
0.0
220
0.0
230
1.0
 40
0.9946072367660515
 41
1.593857470987213
 42
3.141592653589793
  0
LINE
  5
297
330
227
100
AcDbEntity
  8
2
  6
Continuous
 62
     7
370
     9
100
AcDbLine
 10
-818.2890047904424
 20
118.3880214133258
 30
0.0
 11
-792.6890808840232
 21
118.3758684800096
 31
0.0
  0
LINE
  5
298
330
227
100
AcDbEntity
  8
2
  6
Continuous
 62
     7
370
     9
100
AcDbLine
 10
-825.2913380617773
 20
107.9479385704861
 30
0.0
 11
-825.2905533690529
 21
111.4290738740006
 31
0.0
  0
LINE
  5
299
330
227
100
AcDbEntity
  8
2
  6
Continuous
 62
     7
370
     9
100
AcDbLine
 10
-818.2841490567407
 20
118.5953911318013
 30
0.0
 11
-792.6842251503215
 21
118.5832381984851
 31
0.0
  0
ELLIPSE
  5
29A
330
227
100
AcDbEntity
  8
2
  6
Continuous
 62
     7
370
     9
100
AcDbEllipse
 10
-818.2857184421897
 20
111.6331205247725
 30
0.0
 11
-6.998081735267725
 21
0.1638658796427412
 31
0.0
210
0.0
220
0.0
230
-1.0
 40
0.9946072367660512
 41
0.0
 42
1.547735182602578
  0
ELLIPSE
  5
29B
330
227
100
AcDbEntity
  8
2
  6
Continuous
 62
     7
370
     9
100
AcDbEllipse
 10
-818.2905741758914
 20
111.4257508062969
 30
0.0
 11
6.998081735267834
 21
-0.1638658796427421
 31
0.0
210
0.0
220
0.0
230
1.0
 40
0.994607236766051
 41
3.141592653589794
 42
3.164653797782123
  0
ELLIPSE
  5
29C
330
227
100
AcDbEntity
  8
2
  6
Continuous
 62
     7
370
     9
100
AcDbEllipse
 10
-808.9912744130263
 20
108.4375056133354
 30
0.0
 11
-6.498218754177221
 21
0.1521611739539595
 31
0.0
210
0.0
220
0.0
230
-1.0
 40
0.9946072367660515
 41
0.0
 42
1.54773518260257
  0
LINE
  5
29D
330
227
100
AcDbEntity
  8
2
  6
Continuous
 62
     7
370
     9
100
AcDbLine
 10
-815.4865114576495
 20
108.1506559941765
 30
0.0
 11
-815.4863993586888
 21
108.6479610375357
 31
0.0
  0
ELLIPSE
  5
29E
330
227
100
AcDbEntity
  8
2
  6
Continuous
 62
     7
370
     9
100
AcDbEllipse
 10
-793.6862591143489
 20
104.2137090946446
 30
0.0
 11
-1.999451924362238
 21
0.04681882275506969
 31
0.0
210
0.0
220
0.0
230
-1.0
 40
0.9946072367660521
 41
0.0
 42
0.7711604865192166
  0
ELLIPSE
  5
29F
330
227
100
AcDbEntity
  8
2
  6
Continuous
 62
     7
370
     9
100
AcDbEllipse
 10
-793.6862591143489
 20
104.2137090946446
 30
0.0
 11
-1.999451924362239
 21
0.04681882275506268
 31
0.0
210
0.0
220
0.0
230
-1.0
 40
0.9946072367660512
 41
6.260124162987254
 42
6.283185307179586
  0
ELLIPSE
  5
2A0
330
227
100
AcDbEntity
  8
2
  6
Continuous
 62
     7
370
     9
100
AcDbEllipse
 10
-817.2861889655792
 20
104.2249125800456
 30
0.0
 11
-1.999451924362238
 21
0.04681882275515597
 31
0.0
210
0.0
220
0.0
230
-1.0
 40
0.9946072367660508
 41
2.324309878685873
 42
3.11853150939742
  0
LINE
  5
2A1
330
227
100
AcDbEntity
  8
2
  6
Continuous
 62
     7
370
     9
100
AcDbLine
 10
-815.2867754677693
 20
101.6484342337934
 30
0.0
 11
-815.2861949103902
 21
104.2239631321302
 31
0.0
  0
LWPOLYLINE
  5
2A2
330
227
100
AcDbEntity
  8
2
  6
Continuous
 62
     7
370
     9
100
AcDbPolyline
 90
       40
 70
     0
 43
0.0
 10
-513.1580725801974
 20
301.3719830341486
 10
-513.1582682886084
 20
301.3844334520588
 10
-513.1588525195923
 20
301.3968718280751
 10
-513.1607101275804
 20
301.4177302683776
 10
-513.1636593037642
 20
301.4384639345093
 10
-513.1668558255411
 20
301.4551835728462
 10
-513.1707626071797
 20
301.471753310328
 10
-513.1754229191001
 20
301.4883058276516
 10
-513.1807922215265
 20
301.5046445103321
 10
-513.185119349735
 20
301.5163292039766
 10
-513.1898094011137
 20
301.5278745605909
 10
-513.1985038841003
 20
301.5469465973918
 10
-513.2081883542002
 20
301.5655408474482
 10
-513.216771876252
 20
301.5802659045548
 10
-513.2259770806423
 20
301.5946147394199
 10
-513.2358895401068
 20
301.6086986340017
 10
-513.2464014257332
 20
301.6223458609302
 10
-513.2543673721494
 20
301.6319296453706
 10
-513.2626293379877
 20
301.6412622548098
 10
-513.2722347913469
 20
301.6514152548525
 10
-513.2821937867529
 20
301.6612316065475
 10
-513.2924882440906
 20
301.6706932065475
 10
-513.3054814175113
 20
301.6817367917777
 10
-513.318936014485
 20
301.6922196497143
 10
-513.332970365919
 20
301.7022186863007
 10
-513.3474249041835
 20
301.7116070133155
 10
-513.3617557667839
 20
301.7200753060407
 10
-513.3764288262554
 20
301.7279426578066
 10
-513.3916301150236
 20
301.7352898575656
 10
-513.4071440930956
 20
301.7419972401259
 10
-513.4229288861126
 20
301.7480474172532
 10
-513.4389426197172
 20
301.7534230007132
 10
-513.4554179393658
 20
301.758183655336
 10
-513.4720837310512
 20
301.7622358432875
 10
-513.4862354618456
 20
301.7650908120882
 10
-513.5004864820141
 20
301.7674353658634
 10
-513.5148087895429
 20
301.7692647839587
 10
-513.5293179808148
 20
301.7705858385033
 10
-513.5438708808493
 20
301.7713791078962
 10
-513.5584383320959
 20
301.7716429333641
  0
LWPOLYLINE
  5
2A3
330
227
100
AcDbEntity
  8
2
  6
Continuous
 62
     7
370
     9
100
AcDbPolyline
 90
       40
 70
     0
 43
0.0
 10
619.882846445556
 20
301.3613624461884
 10
619.8825803819557
 20
301.3759576635396
 10
619.8817803276665
 20
301.3905384282672
 10
619.8804478921352
 20
301.4050757741182
 10
619.877837845684
 20
301.4244086931948
 10
619.874286071427
 20
301.4435926021247
 10
619.8702776910017
 20
301.4607417585045
 10
619.8655164148823
 20
301.477699441309
 10
619.8601534996516
 20
301.4940284415512
 10
619.8550462670335
 20
301.5077141499882
 10
619.8494394945069
 20
301.5212103207376
 10
619.8433442231803
 20
301.5344900377454
 10
619.8344459917478
 20
301.5518746442323
 10
619.8247071817085
 20
301.5688077349352
 10
619.8152130352742
 20
301.5836701022193
 10
619.8050706072329
 20
301.598102664215
 10
619.794567981359
 20
301.6117428478348
 10
619.7852007990579
 20
301.6229551775613
 10
619.7754253869897
 20
301.6338238850353
 10
619.765261108105
 20
301.6443271085798
 10
619.7510874404556
 20
301.6577737355905
 10
619.7362708456318
 20
301.670516437333
 10
619.722372692088
 20
301.6813880335895
 10
619.7080059024388
 20
301.6916393822104
 10
619.6935624666177
 20
301.7010241048931
 10
619.6791480511492
 20
301.7095418542207
 10
619.6643743505633
 20
301.7174582911375
 10
619.6492805831792
 20
301.7247530852546
 10
619.6339059673162
 20
301.7314059061837
 10
619.6180061998336
 20
301.7375009033107
 10
619.6018446800118
 20
301.7429206182273
 10
619.585465769537
 20
301.7476509366757
 10
619.5689138300953
 20
301.7516777443986
 10
619.5583166954859
 20
301.7538678485748
 10
619.5476637104933
 20
301.7557711841748
 10
619.5333132917584
 20
301.757869280102
 10
619.5188908767458
 20
301.759447572326
 10
619.5044250841814
 20
301.7605028367836
 10
619.4934972376233
 20
301.7609516205127
 10
619.4825611237331
 20
301.761102021236
210
0.0
220
0.0
230
-1.0
  0
LINE
  5
2A4
330
227
100
AcDbEntity
  8
2
  6
Continuous
 62
     7
370
     9
100
AcDbLine
 10
-513.5584383320959
 20
301.7716429333641
 30
0.0
 11
-619.4825611237331
 21
301.761102021236
 31
0.0
  0
LINE
  5
2A5
330
227
100
AcDbEntity
  8
2
  6
Continuous
 62
     7
370
     9
100
AcDbLine
 10
-513.1383599481729
 20
105.4469195749131
 30
0.0
 11
-513.1580725801974
 21
301.3719830341486
 31
0.0
  0
LINE
  5
2A6
330
227
100
AcDbEntity
  8
2
  6
Continuous
 62
     7
370
     9
100
AcDbLine
 10
-619.8631338135315
 20
105.4362989869529
 30
0.0
 11
-619.882846445556
 21
301.3613624461884
 31
0.0
  0
LINE
  5
2A7
330
227
100
AcDbEntity
  8
2
  6
Continuous
 62
     7
370
     9
100
AcDbLine
 10
-623.1005730620267
 20
103.8272236245342
 30
0.0
 11
-623.1206104187354
 21
302.9797457160541
 31
0.0
  0
LINE
  5
2A8
330
227
100
AcDbEntity
  8
2
  6
Continuous
 62
     7
370
     9
100
AcDbLine
 10
-509.9005736287281
 20
103.8384885868062
 30
0.0
 11
-509.920610985437
 21
302.991010678326
 31
0.0
  0
ELLIPSE
  5
2A9
330
227
100
AcDbEntity
  8
2
  6
Continuous
 62
     7
370
     9
100
AcDbEllipse
 10
-621.1205344278378
 20
302.9814938633736
 30
0.0
 11
-1.947591990517371
 21
-0.4559759928290384
 31
0.0
210
0.0
220
0.0
230
-1.0
 40
0.9982557932890997
 41
0.229493024346456
 42
1.801065090456333
  0
ELLIPSE
  5
2AA
330
227
100
AcDbEntity
  8
2
  6
Continuous
 62
     7
370
     9
100
AcDbEllipse
 10
-511.9206872880566
 20
302.9923607552843
 30
0.0
 11
1.947426889251264
 21
-0.456684887509435
 31
0.0
210
0.0
220
0.0
230
1.0
 40
0.9982548182712098
 41
0.2300570366125191
 42
1.801629102722426
  0
LINE
  5
2AB
330
227
100
AcDbEntity
  8
2
  6
Continuous
 62
     7
370
     9
100
AcDbLine
 10
-511.9224397449292
 20
304.9893101744034
 30
0.0
 11
-621.1191838096215
 21
304.9784435912916
 31
0.0
  0
LINE
  5
2AC
330
227
100
AcDbEntity
  8
2
  6
Continuous
 62
     7
370
     9
100
AcDbLine
 10
-619.9007005243739
 20
105.4287300464126
 30
0.0
 11
-619.9204207559907
 21
301.4293263220751
 31
0.0
  0
LINE
  5
2AD
330
227
100
AcDbEntity
  8
2
  6
Continuous
 62
     7
370
     9
100
AcDbLine
 10
-513.1007010590356
 20
105.4393581203582
 30
0.0
 11
-513.1204212906524
 21
301.4399543960208
 31
0.0
  0
LINE
  5
2AE
330
227
100
AcDbEntity
  8
2
  6
Continuous
 62
     7
370
     9
100
AcDbLine
 10
-513.5207870425509
 20
301.8396142952359
 30
0.0
 11
-619.520135434168
 21
301.8290658971224
 31
0.0
  0
LWPOLYLINE
  5
2AF
330
227
100
AcDbEntity
  8
2
  6
Continuous
 62
     7
370
     9
100
AcDbPolyline
 90
       33
 70
     0
 43
0.0
 10
-619.520135434168
 20
301.8290658971224
 10
-619.5397732563805
 20
301.8285823850517
 10
-619.559364374024
 20
301.8271369232169
 10
-619.5788615437617
 20
301.8247329973018
 10
-619.5982177488089
 20
301.8213764042947
 10
-619.6173863123131
 20
301.8170752385095
 10
-619.6363210099126
 20
301.8118398720663
 10
-619.6549761812062
 20
301.8056829298791
 10
-619.6733068398607
 20
301.798619259212
 10
-619.691268782095
 20
301.7906658938748
 10
-619.7088186932752
 20
301.7818420131468
 10
-619.7259142523669
 20
301.7721688955266
 10
-619.7425142339906
 20
301.7616698674196
 10
-619.7585786078358
 20
301.7503702468874
 10
-619.7740686351929
 20
301.7382972825937
 10
-619.7889469623692
 20
301.7254800880957
 10
-619.8031777107675
 20
301.7119495716365
 10
-619.8167265634054
 20
301.6977383616126
 10
-619.8295608476694
 20
301.6828807278902
 10
-619.8416496141051
 20
301.6674124991649
 10
-619.8529637110488
 20
301.6513709765625
 10
-619.8634758549274
 20
301.6347948436879
 10
-619.8731606960511
 20
301.6177240733411
 10
-619.8819948797436
 20
301.6001998311241
 10
-619.8899571026611
 20
301.5822643761717
 10
-619.8970281641647
 20
301.5639609592444
 10
-619.9031910126214
 20
301.5453337184309
 10
-619.9084307865248
 20
301.5264275727109
 10
-619.9127348503322
 20
301.5072881136339
 10
-619.9160928249348
 20
301.4879614953767
 10
-619.9184966126876
 20
301.4684943234448
 10
-619.919940416935
 20
301.4489335422837
 10
-619.9204207559906
 20
301.4293263220751
  0
LWPOLYLINE
  5
2B0
330
227
100
AcDbEntity
  8
2
  6
Continuous
 62
     7
370
     9
100
AcDbPolyline
 90
       33
 70
     0
 43
0.0
 10
513.5207870425509
 20
301.8396142952359
 10
513.5011491234362
 20
301.8391346916436
 10
513.4815577153203
 20
301.8376931290109
 10
513.46206006224
 20
301.8352930836188
 10
513.4427031821457
 20
301.831940343098
 10
513.423533753518
 20
301.8276429924722
 10
513.4045980028046
 20
301.8224113946612
 10
513.3859415929462
 20
301.8162581654913
 10
513.3676095132629
 20
301.8091981432727
 10
513.3496459709625
 20
301.8012483530171
 10
513.3320942845373
 20
301.7924279653824
 10
513.3149967793029
 20
301.7827582504441
 10
513.2983946853317
 20
301.7722625264018
 10
513.2823280380279
 20
301.7609661033497
 10
513.2668355815839
 20
301.7488962222408
 10
513.2519546755497
 20
301.7360819891971
 10
513.2377212047414
 20
301.7225543053206
 10
513.2241694927067
 20
301.708345792177
 10
513.2113322189535
 20
301.6934907131288
 10
513.1992403401466
 20
301.6780248907115
 10
513.1879230154543
 20
301.6619856202479
 10
513.1774075362333
 20
301.645411579912
 10
513.1677192602166
 20
301.6283427374577
 10
513.1588815503636
 20
301.6108202538381
 10
513.1509157185213
 20
301.5928863839469
 10
513.1438409740317
 20
301.5745843747226
 10
513.1376743774088
 20
301.5559583608591
 10
513.1324307991978
 20
301.5370532583773
 10
513.1281228841152
 20
301.5179146563109
 10
513.1247610205569
 20
301.4985887067705
 10
513.1223533155467
 20
301.4791220136485
 10
513.1209055751856
 20
301.459561520236
 10
513.1204212906524
 20
301.4399543960207
210
0.0
220
0.0
230
-1.0
  0
LINE
  5
2B1
330
227
100
AcDbEntity
  8
2
  6
Continuous
 62
     7
370
     9
100
AcDbLine
 10
-511.8985939936616
 20
101.8397747262695
 30
0.0
 11
-621.10215054343
 21
101.8289074652213
 31
0.0
  0
ELLIPSE
  5
2B2
330
227
100
AcDbEntity
  8
2
  6
Continuous
 62
     7
370
     9
100
AcDbEllipse
 10
-511.9006499621219
 20
103.8401445291027
 30
0.0
 11
1.299917679000891
 21
-1.521468737275761
 31
0.0
210
0.0
220
0.0
230
1.0
 40
0.9990604743365601
 41
5.57671562205814
 42
7.146584631529398
  0
ELLIPSE
  5
2B3
330
227
100
AcDbEntity
  8
2
  6
Continuous
 62
     7
370
     9
100
AcDbEllipse
 10
-621.100497101903
 20
103.829277637192
 30
0.0
 11
-1.299332945538126
 21
-1.521965272599771
 31
0.0
210
0.0
220
0.0
230
-1.0
 40
0.9990626438564493
 41
5.576898826745157
 42
7.146767836216413
  0
LWPOLYLINE
  5
2B4
330
227
100
AcDbEntity
  8
2
  6
Continuous
 62
     7
370
     9
100
AcDbPolyline
 90
       33
 70
     0
 43
0.0
 10
513.1007010590356
 20
105.4393581203582
 10
513.1011803523825
 20
105.4197394062928
 10
513.1026210270064
 20
105.4001686965724
 10
513.1050196162921
 20
105.3806930831118
 10
513.1083703486468
 20
105.3613594290005
 10
513.1126651613888
 20
105.3422142557393
 10
513.1178937201481
 20
105.3233036312978
 10
513.1240434437341
 20
105.3046730592641
 10
513.1310995344068
 20
105.2863673693514
 10
513.1390450134865
 20
105.268430609527
 10
513.1478607622073
 20
105.2509059400225
 10
513.157525567721
 20
105.2338355294792
 10
513.168016174142
 20
105.2172604534801
 10
513.1793073385052
 20
105.2012205957124
 10
513.1913718915071
 20
105.1857545519971
 10
513.2041808028824
 20
105.1708995374184
 10
513.2177032512573
 20
105.1566912967748
 10
513.2319066983135
 20
105.1431640185686
 10
513.2467569670831
 20
105.1303502527398
 10
513.2622183241873
 20
105.1182808323434
 10
513.2782535658191
 20
105.1069847993569
 10
513.2948241072648
 20
105.0964893347987
 10
513.3118900757489
 20
105.0868196933236
 10
513.3294104063766
 20
105.0779991424541
 10
513.347342940947
 20
105.0700489065932
 10
513.3656445293959
 20
105.062988115953
 10
513.3842711336249
 20
105.0568337605227
 10
513.4031779334682
 20
105.051600649187
 10
513.4223194345409
 20
105.0473013740915
 10
513.4416495777093
 20
105.0439462803438
 10
513.461121849921
 20
105.0415434411202
 10
513.4806893961261
 20
105.0400986382395
 10
513.5003051320223
 20
105.0396153482509
210
0.0
220
0.0
230
-1.0
  0
LWPOLYLINE
  5
2B5
330
227
100
AcDbEntity
  8
2
  6
Continuous
 62
     7
370
     9
100
AcDbPolyline
 90
       39
 70
     0
 43
0.0
 10
-513.5379640211596
 20
105.0471768028056
 10
-513.521479448638
 20
105.0475184634981
 10
-513.5050232615207
 20
105.0485390197295
 10
-513.4885099166644
 20
105.0502515144277
 10
-513.472082778204
 20
105.0526476177108
 10
-513.4554165418033
 20
105.0557982703477
 10
-513.4389004425859
 20
105.0596523778242
 10
-513.4224450372668
 20
105.0642395180644
 10
-513.4062026828589
 20
105.0695246041975
 10
-513.3907622017474
 20
105.0752764399957
 10
-513.3755741930605
 20
105.0816586100799
 10
-513.3604086149957
 20
105.088788796849
 10
-513.3455449064284
 20
105.0965540518973
 10
-513.3310218321781
 20
105.1049326512716
 10
-513.3168781570643
 20
105.113902871019
 10
-513.3028751900737
 20
105.1236400392641
 10
-513.2893033814534
 20
105.1339634043776
 10
-513.2766128576027
 20
105.1444860607315
 10
-513.2643697881211
 20
105.1555206087144
 10
-513.2525155803204
 20
105.1671295054253
 10
-513.2411559500117
 20
105.1792176112341
 10
-513.2300826939902
 20
105.1920393646443
 10
-513.2195650625343
 20
105.2053157708009
 10
-513.2095519660751
 20
105.2191241395336
 10
-513.2001390476464
 20
105.2333439488208
 10
-513.1915969150982
 20
105.2475082319767
 10
-513.1836495085964
 20
105.262010877592
 10
-513.1762620498972
 20
105.2769303803748
 10
-513.1695031917096
 20
105.292141789919
 10
-513.1632601292532
 20
105.3079549414987
 10
-513.1576955648376
 20
105.324016693325
 10
-513.1527868575247
 20
105.3404172770224
 10
-513.1485848422076
 20
105.3570108733638
 10
-513.1454867731707
 20
105.3717046224079
 10
-513.1429415296259
 20
105.3865083218594
 10
-513.1409542631812
 20
105.4013909819597
 10
-513.1395131251629
 20
105.4165292531656
 10
-513.1386477696532
 20
105.4317162975586
 10
-513.1383599481729
 20
105.4469195749131
  0
LWPOLYLINE
  5
2B6
330
227
100
AcDbEntity
  8
2
  6
Continuous
 62
     7
370
     9
100
AcDbPolyline
 90
       33
 70
     0
 43
0.0
 10
-619.9007005243739
 20
105.4287300464126
 10
-619.9002172832365
 20
105.4091114281326
 10
-619.898772670501
 20
105.3895410055382
 10
-619.896370162259
 20
105.370065869853
 10
-619.893015539533
 20
105.3507328830171
 10
-619.8887168743657
 20
105.3315885649255
 10
-619.8834845103971
 20
105.3126789814903
 10
-619.8773310379746
 20
105.2940496337944
 10
-619.870271263858
 20
105.275745348605
 10
-619.8623221755905
 20
105.2578101705095
 10
-619.8535029006231
 20
105.2402872559332
 10
-619.8438346602883
 20
105.2232187692947
 10
-619.8333407187372
 20
105.2066457815478
 10
-619.8220463269599
 20
105.1906081713546
 10
-619.8099786620257
 20
105.1751445291281
 10
-619.7971667616882
 20
105.1602920641737
 10
-619.7836414545133
 20
105.1460865151551
 10
-619.7694352856981
 20
105.1325620640978
 10
-619.75458243876
 20
105.119751254139
 10
-619.7391186532814
 20
105.1076849112211
 10
-619.7230811389123
 20
105.0963920699165
 10
-619.7065084858356
 20
105.0858999035635
 10
-619.6894405719078
 20
105.0762336588808
 10
-619.6719184667046
 20
105.0674165952174
 10
-619.6539843326972
 20
105.059469928585
 10
-619.6356813237984
 20
105.0524127806074
 10
-619.6170534815246
 20
105.0462621325088
 10
-619.5981456290207
 20
105.0410327842527
 10
-619.5790032632043
 20
105.0367373189304
 10
-619.5596724452901
 20
105.033386072482
 10
-619.5401996899541
 20
105.0309871088261
 10
-619.5206318534085
 20
105.0295462004561
 10
-619.5010160206546
 20
105.02906681455
  0
LWPOLYLINE
  5
2B7
330
227
100
AcDbEntity
  8
2
  6
Continuous
 62
     7
370
     9
100
AcDbPolyline
 90
       38
 70
     0
 43
0.0
 10
619.4634493098122
 20
105.0366357550901
 10
619.4799840429175
 20
105.0369773988742
 10
619.4965045009417
 20
105.0380032584586
 10
619.5129679490282
 20
105.0397097920113
 10
619.52933165232
 20
105.0420934577
 10
619.546051700822
 20
105.0452533828526
 10
619.5626357455794
 20
105.0491251658545
 10
619.5790386162367
 20
105.0536970633271
 10
619.5952151424384
 20
105.0589573318914
 10
619.6107027860685
 20
105.0647255921569
 10
619.6259494595549
 20
105.0711338106607
 10
619.6409162888855
 20
105.0781643662522
 10
619.6555644000472
 20
105.0857996377804
 10
619.6702892782444
 20
105.0942816514639
 10
619.6846502622883
 20
105.1033885039682
 10
619.69860906727
 20
105.1130942300819
 10
619.7121274082804
 20
105.1233728645937
 10
619.7248568844092
 20
105.1339263881057
 10
619.737146550956
 20
105.1450046140721
 10
619.7489657803678
 20
105.1565781211199
 10
619.7602839450917
 20
105.1686174878761
 10
619.7713930561094
 20
105.1814792913028
 10
619.7819522814574
 20
105.1948108652992
 10
619.7919342869183
 20
105.2085752938358
 10
619.8013117382751
 20
105.2227356608833
 10
619.8098805524374
 20
105.2369420155354
 10
619.8178576319839
 20
105.2515013928192
 10
619.8252236864241
 20
105.2663758397701
 10
619.831959425267
 20
105.2815274034232
 10
619.8382232001323
 20
105.2973903659954
 10
619.8438088941092
 20
105.3135181664251
 10
619.848702704276
 20
105.3298668150581
 10
619.8528908277117
 20
105.3463923222401
 10
619.8565608293021
 20
105.3641353951391
 10
619.8594261349483
 20
105.382052429322
 10
619.8614807383813
 20
105.4000885935266
 10
619.8627186333321
 20
105.4181890564909
 10
619.8631338135315
 20
105.4362989869529
210
0.0
220
0.0
230
-1.0
  0
LINE
  5
2B8
330
227
100
AcDbEntity
  8
2
  6
Continuous
 62
     7
370
     9
100
AcDbLine
 10
-619.5010160206546
 20
105.0290668145498
 30
0.0
 11
-513.5003051320223
 21
105.0396153482507
 31
0.0
  0
LINE
  5
2B9
330
227
100
AcDbEntity
  8
2
  6
Continuous
 62
     7
370
     9
100
AcDbLine
 10
-619.4634493098122
 20
105.0366357550901
 30
0.0
 11
-513.5379640211596
 21
105.0471768028056
 31
0.0
  0
LWPOLYLINE
  5
2BA
330
227
100
AcDbEntity
  8
2
  6
Continuous
 62
     7
370
     9
100
AcDbPolyline
 90
       40
 70
     0
 43
0.0
 10
858.8419274198028
 20
301.3719830341482
 10
858.8417317113916
 20
301.3844334520585
 10
858.8411474804078
 20
301.3968718280747
 10
858.8392898724197
 20
301.4177302683772
 10
858.8363406962358
 20
301.4384639345089
 10
858.8331441744591
 20
301.4551835728458
 10
858.8292373928206
 20
301.4717533103276
 10
858.8245770809001
 20
301.4883058276513
 10
858.8192077784735
 20
301.5046445103318
 10
858.8148806502651
 20
301.5163292039763
 10
858.8101905988865
 20
301.5278745605906
 10
858.8014961158997
 20
301.5469465973915
 10
858.7918116458
 20
301.5655408474479
 10
858.783228123748
 20
301.5802659045545
 10
858.7740229193579
 20
301.5946147394195
 10
858.7641104598933
 20
301.6086986340014
 10
858.753598574267
 20
301.6223458609299
 10
858.7456326278507
 20
301.6319296453703
 10
858.7373706620125
 20
301.6412622548094
 10
858.7277652086532
 20
301.6514152548521
 10
858.7178062132472
 20
301.6612316065472
 10
858.7075117559096
 20
301.6706932065472
 10
858.6945185824889
 20
301.6817367917774
 10
858.6810639855153
 20
301.692219649714
 10
858.6670296340812
 20
301.7022186863003
 10
858.6525750958167
 20
301.7116070133152
 10
858.6382442332163
 20
301.7200753060404
 10
858.6235711737446
 20
301.7279426578064
 10
858.6083698849765
 20
301.7352898575653
 10
858.5928559069047
 20
301.7419972401256
 10
858.5770711138875
 20
301.7480474172529
 10
858.5610573802829
 20
301.7534230007129
 10
858.5445820606343
 20
301.7581836553356
 10
858.5279162689491
 20
301.7622358432872
 10
858.5137645381545
 20
301.765090812088
 10
858.4995135179859
 20
301.7674353658632
 10
858.4851912104571
 20
301.7692647839585
 10
858.4706820191852
 20
301.7705858385031
 10
858.4561291191509
 20
301.7713791078961
 10
858.4415616679042
 20
301.7716429333638
210
0.0
220
0.0
230
-1.0
  0
LWPOLYLINE
  5
2BB
330
227
100
AcDbEntity
  8
2
  6
Continuous
 62
     7
370
     9
100
AcDbPolyline
 90
       40
 70
     0
 43
0.0
 10
-752.1171535544443
 20
301.361362446188
 10
-752.1174448052637
 20
301.3766298449203
 10
-752.1183203461551
 20
301.3918806977903
 10
-752.1197782523044
 20
301.4070818532265
 10
-752.1224016383239
 20
301.4258880492912
 10
-752.1259166994458
 20
301.4445497554079
 10
-752.1298410348259
 20
301.4612024507506
 10
-752.1344757116613
 20
301.4776736017411
 10
-752.1398465003487
 20
301.4940284415509
 10
-752.1452011325817
 20
301.508340112319
 10
-752.151102116489
 20
301.5224436993188
 10
-752.1575367365638
 20
301.5363084237372
 10
-752.1662723464909
 20
301.5531915421442
 10
-752.1758027447245
 20
301.5696439121157
 10
-752.1850523417154
 20
301.584065536481
 10
-752.1949132922797
 20
301.5980807942047
 10
-752.2054320186413
 20
301.6117428478345
 10
-752.2152405960877
 20
301.6234633778683
 10
-752.2254953936554
 20
301.634807345481
 10
-752.2361741837861
 20
301.645749781543
 10
-752.2500277367549
 20
301.6587774277528
 10
-752.264487919724
 20
301.6711358647186
 10
-752.278008927413
 20
301.6816728999337
 10
-752.2919715341617
 20
301.691624020371
 10
-752.3064375333827
 20
301.7010241048928
 10
-752.3208386185462
 20
301.7095343524924
 10
-752.335598343903
 20
301.7174443933914
 10
-752.3506776001142
 20
301.7247339498704
 10
-752.366037277841
 20
301.7313827442102
 10
-752.3819505095081
 20
301.7374853421944
 10
-752.3981260555415
 20
301.7429114787204
 10
-752.4145194357409
 20
301.7476469980384
 10
-752.4310861699049
 20
301.7516777443983
 10
-752.4416753417651
 20
301.7538663146916
 10
-752.4523202862079
 20
301.7557685470815
 10
-752.46667057089
 20
301.7578672175426
 10
-752.4810928726669
 20
301.7594460908131
 10
-752.495558573246
 20
301.7605019416829
 10
-752.5064945818191
 20
301.7609513961517
 10
-752.5174388762672
 20
301.7611020212356
  0
LINE
  5
2BC
330
227
100
AcDbEntity
  8
2
  6
Continuous
 62
     7
370
     9
100
AcDbLine
 10
-858.4415616679042
 20
301.7716429333638
 30
0.0
 11
-752.5174388762672
 21
301.7611020212356
 31
0.0
  0
LINE
  5
2BD
330
227
100
AcDbEntity
  8
2
  6
Continuous
 62
     7
370
     9
100
AcDbLine
 10
-858.8616400518273
 20
105.4469195749131
 30
0.0
 11
-858.8419274198028
 21
301.3719830341482
 31
0.0
  0
LINE
  5
2BE
330
227
100
AcDbEntity
  8
2
  6
Continuous
 62
     7
370
     9
100
AcDbLine
 10
-752.1368661864688
 20
105.4362989869529
 30
0.0
 11
-752.1171535544443
 21
301.361362446188
 31
0.0
  0
LINE
  5
2BF
330
227
100
AcDbEntity
  8
2
  6
Continuous
 62
     7
370
     9
100
AcDbLine
 10
-748.8994269379738
 20
103.8272236245343
 30
0.0
 11
-748.8793895812648
 21
302.9797457160538
 31
0.0
  0
LINE
  5
2C0
330
227
100
AcDbEntity
  8
2
  6
Continuous
 62
     7
370
     9
100
AcDbLine
 10
-862.0994263712721
 20
103.8384885868062
 30
0.0
 11
-862.0793890145633
 21
302.9910106783258
 31
0.0
  0
ELLIPSE
  5
2C1
330
227
100
AcDbEntity
  8
2
  6
Continuous
 62
     7
370
     9
100
AcDbEllipse
 10
-750.8794655721625
 20
302.9814938633733
 30
0.0
 11
1.947591990516988
 21
-0.4559759928306206
 31
0.0
210
0.0
220
0.0
230
1.0
 40
0.9982557932891036
 41
0.229493024347256
 42
1.80106509045715
  0
ELLIPSE
  5
2C2
330
227
100
AcDbEntity
  8
2
  6
Continuous
 62
     7
370
     9
100
AcDbEllipse
 10
-860.0793127119434
 20
302.992360755284
 30
0.0
 11
-1.947426889250854
 21
-0.4566848875111264
 31
0.0
210
0.0
220
0.0
230
-1.0
 40
0.9982548182712134
 41
0.230057036613375
 42
1.801629102723282
  0
LINE
  5
2C3
330
227
100
AcDbEntity
  8
2
  6
Continuous
 62
     7
370
     9
100
AcDbLine
 10
-860.0775602550709
 20
304.9893101744032
 30
0.0
 11
-750.8808161903788
 21
304.9784435912913
 31
0.0
  0
LINE
  5
2C4
330
227
100
AcDbEntity
  8
2
  6
Continuous
 62
     7
370
     9
100
AcDbLine
 10
-752.0992994756265
 20
105.4287300464127
 30
0.0
 11
-752.0795792440097
 21
301.4293263220748
 31
0.0
  0
LINE
  5
2C5
330
227
100
AcDbEntity
  8
2
  6
Continuous
 62
     7
370
     9
100
AcDbLine
 10
-858.8992989409646
 20
105.4393581203583
 30
0.0
 11
-858.8795787093477
 21
301.4399543960204
 31
0.0
  0
LINE
  5
2C6
330
227
100
AcDbEntity
  8
2
  6
Continuous
 62
     7
370
     9
100
AcDbLine
 10
-858.4792129574494
 20
301.8396142952357
 30
0.0
 11
-752.4798645658325
 21
301.8290658971221
 31
0.0
  0
LWPOLYLINE
  5
2C7
330
227
100
AcDbEntity
  8
2
  6
Continuous
 62
     7
370
     9
100
AcDbPolyline
 90
       33
 70
     0
 43
0.0
 10
752.4798645658325
 20
301.8290658971221
 10
752.4602267436198
 20
301.8285823850513
 10
752.4406356259763
 20
301.8271369232165
 10
752.4211384562386
 20
301.8247329973015
 10
752.4017822511913
 20
301.8213764042944
 10
752.3826136876872
 20
301.8170752385092
 10
752.3636789900877
 20
301.8118398720659
 10
752.3450238187942
 20
301.8056829298788
 10
752.3266931601396
 20
301.7986192592118
 10
752.3087312179053
 20
301.7906658938745
 10
752.2911813067251
 20
301.7818420131466
 10
752.2740857476334
 20
301.7721688955263
 10
752.2574857660097
 20
301.7616698674193
 10
752.2414213921644
 20
301.7503702468871
 10
752.2259313648074
 20
301.7382972825935
 10
752.2110530376311
 20
301.7254800880953
 10
752.1968222892328
 20
301.7119495716362
 10
752.1832734365951
 20
301.6977383616123
 10
752.1704391523308
 20
301.6828807278899
 10
752.1583503858952
 20
301.6674124991647
 10
752.1470362889515
 20
301.6513709765622
 10
752.136524145073
 20
301.6347948436876
 10
752.1268393039493
 20
301.6177240733408
 10
752.1180051202567
 20
301.6001998311239
 10
752.1100428973392
 20
301.5822643761714
 10
752.1029718358358
 20
301.563960959244
 10
752.096808987379
 20
301.5453337184306
 10
752.0915692134755
 20
301.5264275727106
 10
752.0872651496683
 20
301.5072881136335
 10
752.0839071750654
 20
301.4879614953765
 10
752.0815033873128
 20
301.4684943234444
 10
752.0800595830653
 20
301.4489335422834
 10
752.0795792440097
 20
301.4293263220748
210
0.0
220
0.0
230
-1.0
  0
LWPOLYLINE
  5
2C8
330
227
100
AcDbEntity
  8
2
  6
Continuous
 62
     7
370
     9
100
AcDbPolyline
 90
       33
 70
     0
 43
0.0
 10
-858.4792129574494
 20
301.8396142952357
 10
-858.498850876564
 20
301.8391346916433
 10
-858.5184422846801
 20
301.8376931290106
 10
-858.5379399377603
 20
301.8352930836185
 10
-858.5572968178545
 20
301.8319403430978
 10
-858.5764662464821
 20
301.8276429924719
 10
-858.5954019971956
 20
301.8224113946609
 10
-858.6140584070539
 20
301.816258165491
 10
-858.6323904867373
 20
301.8091981432725
 10
-858.6503540290378
 20
301.8012483530168
 10
-858.6679057154629
 20
301.7924279653822
 10
-858.6850032206971
 20
301.7827582504437
 10
-858.7016053146685
 20
301.7722625264016
 10
-858.7176719619722
 20
301.7609661033494
 10
-858.7331644184163
 20
301.7488962222405
 10
-858.7480453244505
 20
301.7360819891967
 10
-858.7622787952587
 20
301.7225543053203
 10
-858.7758305072936
 20
301.7083457921767
 10
-858.7886677810466
 20
301.6934907131285
 10
-858.8007596598536
 20
301.6780248907112
 10
-858.8120769845459
 20
301.6619856202477
 10
-858.8225924637669
 20
301.6454115799117
 10
-858.8322807397835
 20
301.6283427374574
 10
-858.8411184496366
 20
301.6108202538378
 10
-858.8490842814789
 20
301.5928863839467
 10
-858.8561590259684
 20
301.5745843747222
 10
-858.8623256225914
 20
301.5559583608587
 10
-858.8675692008024
 20
301.537053258377
 10
-858.8718771158849
 20
301.5179146563107
 10
-858.8752389794431
 20
301.4985887067701
 10
-858.8776466844536
 20
301.4791220136481
 10
-858.8790944248144
 20
301.4595615202358
 10
-858.8795787093477
 20
301.4399543960204
  0
LINE
  5
2C9
330
227
100
AcDbEntity
  8
2
  6
Continuous
 62
     7
370
     9
100
AcDbLine
 10
-860.1014060063385
 20
101.8397747262695
 30
0.0
 11
-750.8978494565704
 21
101.8289074652213
 31
0.0
  0
ELLIPSE
  5
2CA
330
227
100
AcDbEntity
  8
2
  6
Continuous
 62
     7
370
     9
100
AcDbEllipse
 10
-860.0993500378781
 20
103.8401445291027
 30
0.0
 11
-1.299917678997061
 21
-1.521468737279024
 31
0.0
210
0.0
220
0.0
230
-1.0
 40
0.9990604743365585
 41
5.576715622060656
 42
7.146584631531915
  0
ELLIPSE
  5
2CB
330
227
100
AcDbEntity
  8
2
  6
Continuous
 62
     7
370
     9
100
AcDbEllipse
 10
-750.8995028980975
 20
103.829277637192
 30
0.0
 11
1.299332945534209
 21
-1.521965272603107
 31
0.0
210
0.0
220
0.0
230
1.0
 40
0.9990626438564482
 41
5.576898826747725
 42
7.146767836218988
  0
LWPOLYLINE
  5
2CC
330
227
100
AcDbEntity
  8
2
  6
Continuous
 62
     7
370
     9
100
AcDbPolyline
 90
       33
 70
     0
 43
0.0
 10
-858.8992989409646
 20
105.4393581203583
 10
-858.8988196476176
 20
105.4197394062928
 10
-858.8973789729937
 20
105.4001686965725
 10
-858.8949803837081
 20
105.3806930831118
 10
-858.8916296513535
 20
105.3613594290005
 10
-858.8873348386114
 20
105.3422142557393
 10
-858.8821062798519
 20
105.3233036312979
 10
-858.8759565562663
 20
105.3046730592641
 10
-858.8689004655934
 20
105.2863673693514
 10
-858.8609549865135
 20
105.2684306095271
 10
-858.8521392377929
 20
105.2509059400226
 10
-858.8424744322791
 20
105.2338355294792
 10
-858.8319838258581
 20
105.2172604534802
 10
-858.8206926614951
 20
105.2012205957124
 10
-858.808628108493
 20
105.1857545519971
 10
-858.7958191971178
 20
105.1708995374184
 10
-858.782296748743
 20
105.1566912967748
 10
-858.7680933016868
 20
105.1431640185686
 10
-858.753243032917
 20
105.1303502527399
 10
-858.7377816758128
 20
105.1182808323435
 10
-858.7217464341811
 20
105.106984799357
 10
-858.7051758927353
 20
105.0964893347987
 10
-858.6881099242512
 20
105.0868196933236
 10
-858.6705895936236
 20
105.0779991424542
 10
-858.6526570590531
 20
105.0700489065933
 10
-858.6343554706042
 20
105.062988115953
 10
-858.6157288663752
 20
105.0568337605228
 10
-858.5968220665319
 20
105.051600649187
 10
-858.5776805654593
 20
105.0473013740915
 10
-858.5583504222909
 20
105.0439462803439
 10
-858.5388781500792
 20
105.0415434411203
 10
-858.519310603874
 20
105.0400986382396
 10
-858.499694867978
 20
105.0396153482509
  0
LWPOLYLINE
  5
2CD
330
227
100
AcDbEntity
  8
2
  6
Continuous
 62
     7
370
     9
100
AcDbPolyline
 90
       39
 70
     0
 43
0.0
 10
858.4620359788406
 20
105.0471768028056
 10
858.4744019537127
 20
105.0473692995714
 10
858.4867559367832
 20
105.0479439714004
 10
858.5074731816964
 20
105.0497713418298
 10
858.52806615436
 20
105.052672539889
 10
858.5446726266459
 20
105.0558171020893
 10
858.5611298580403
 20
105.0596601315522
 10
858.5775699319862
 20
105.0642440373411
 10
858.5937973171414
 20
105.0695246041975
 10
858.6092931532223
 20
105.0752983770644
 10
858.624534594809
 20
105.0817070067804
 10
858.6396986020612
 20
105.0888419879969
 10
858.6545605263357
 20
105.0966119937623
 10
858.6690816053647
 20
105.1049952859812
 10
858.6832230768805
 20
105.113970126558
 10
858.6971739387452
 20
105.1236757834015
 10
858.7106966185468
 20
105.1339634043776
 10
858.7202564391675
 20
105.141807236091
 10
858.7295674241328
 20
105.1499417408448
 10
858.744639827967
 20
105.1642552386214
 10
858.758943901422
 20
105.1793284309217
 10
858.7699746472255
 20
105.192108689402
 10
858.7804535405432
 20
105.205340306935
 10
858.7904568021606
 20
105.219136790105
 10
858.7998609523537
 20
105.2333439488208
 10
858.8063233434982
 20
105.2439352719272
 10
858.8124530030691
 20
105.2547204547598
 10
858.8219946273737
 20
105.2732661356844
 10
858.8305546626954
 20
105.2922797397057
 10
858.8367712080094
 20
105.3080395609149
 10
858.8423139261766
 20
105.3240460998267
 10
858.8472172545356
 20
105.3404321677945
 10
858.8514151577926
 20
105.3570108733638
 10
858.854517762015
 20
105.3717283426943
 10
858.8570657572728
 20
105.386556091295
 10
858.8590539698425
 20
105.4014629792895
 10
858.860490539807
 20
105.416577431721
 10
858.8613531472427
 20
105.4317404254752
 10
858.8616400518273
 20
105.4469195749131
210
0.0
220
0.0
230
-1.0
  0
LWPOLYLINE
  5
2CE
330
227
100
AcDbEntity
  8
2
  6
Continuous
 62
     7
370
     9
100
AcDbPolyline
 90
       33
 70
     0
 43
0.0
 10
752.0992994756265
 20
105.4287300464127
 10
752.0997827167639
 20
105.4091114281326
 10
752.1012273294994
 20
105.3895410055382
 10
752.1036298377413
 20
105.3700658698531
 10
752.1069844604673
 20
105.3507328830171
 10
752.1112831256346
 20
105.3315885649256
 10
752.1165154896032
 20
105.3126789814903
 10
752.1226689620258
 20
105.2940496337944
 10
752.1297287361424
 20
105.275745348605
 10
752.1376778244097
 20
105.2578101705095
 10
752.1464970993773
 20
105.2402872559332
 10
752.1561653397121
 20
105.2232187692948
 10
752.1666592812633
 20
105.2066457815478
 10
752.1779536730404
 20
105.1906081713547
 10
752.1900213379746
 20
105.1751445291281
 10
752.2028332383121
 20
105.1602920641738
 10
752.2163585454871
 20
105.1460865151551
 10
752.2305647143022
 20
105.1325620640978
 10
752.2454175612404
 20
105.1197512541391
 10
752.2608813467191
 20
105.1076849112212
 10
752.2769188610879
 20
105.0963920699165
 10
752.2934915141648
 20
105.0858999035636
 10
752.3105594280926
 20
105.0762336588808
 10
752.3280815332956
 20
105.0674165952174
 10
752.3460156673032
 20
105.0594699285851
 10
752.3643186762018
 20
105.0524127806075
 10
752.3829465184757
 20
105.0462621325088
 10
752.4018543709797
 20
105.0410327842528
 10
752.4209967367959
 20
105.0367373189304
 10
752.4403275547103
 20
105.033386072482
 10
752.4598003100463
 20
105.0309871088261
 10
752.4793681465918
 20
105.0295462004562
 10
752.4989839793458
 20
105.02906681455
210
0.0
220
0.0
230
-1.0
  0
LWPOLYLINE
  5
2CF
330
227
100
AcDbEntity
  8
2
  6
Continuous
 62
     7
370
     9
100
AcDbPolyline
 90
       40
 70
     0
 43
0.0
 10
-752.5365506901882
 20
105.0366357550902
 10
-752.520035051665
 20
105.0369758597468
 10
-752.5035407092034
 20
105.0379977109447
 10
-752.4871103117574
 20
105.0396986849889
 10
-752.4705046944607
 20
105.042120973564
 10
-752.4540165422266
 20
105.0452374475207
 10
-752.437439235613
 20
105.0491033871144
 10
-752.4210433099106
 20
105.0536707652065
 10
-752.4047848575619
 20
105.0589573318915
 10
-752.3892413549204
 20
105.064747742897
 10
-752.3739406278337
 20
105.0711827573266
 10
-752.3589219699969
 20
105.0782445492914
 10
-752.344224675105
 20
105.0859152929024
 10
-752.3295563029827
 20
105.0943750355306
 10
-752.3152495834404
 20
105.1034550132354
 10
-752.3013423888841
 20
105.1131295236965
 10
-752.2878725917199
 20
105.1233728645937
 10
-752.2751569686611
 20
105.133913440064
 10
-752.2628850640552
 20
105.1449724904684
 10
-752.2510880273234
 20
105.1565213189199
 10
-752.239606421517
 20
105.16873935068
 10
-752.2286497894396
 20
105.1814252213893
 10
-752.2180921654647
 20
105.194748206745
 10
-752.2081127304907
 20
105.2085049051035
 10
-752.1986882617252
 20
105.2227356608834
 10
-752.1901282831966
 20
105.2369251846721
 10
-752.1821616782653
 20
105.2514605416181
 10
-752.1748084595324
 20
105.2663042905253
 10
-752.167977113478
 20
105.2816790443599
 10
-752.1617994812347
 20
105.2973249537515
 10
-752.1562124594951
 20
105.3134440667746
 10
-752.1513185103996
 20
105.3297845285346
 10
-752.1471091722887
 20
105.3463923222402
 10
-752.144734593355
 20
105.3573854146304
 10
-752.142670133219
 20
105.3684402635785
 10
-752.1403874767971
 20
105.3833779419142
 10
-752.138669858068
 20
105.3983956424357
 10
-752.1375207732874
 20
105.413461565535
 10
-752.1370304680324
 20
105.4248756547386
 10
-752.1368661864688
 20
105.4362989869529
  0
LINE
  5
2D0
330
227
100
AcDbEntity
  8
2
  6
Continuous
 62
     7
370
     9
100
AcDbLine
 10
-752.4989839793458
 20
105.0290668145499
 30
0.0
 11
-858.499694867978
 21
105.0396153482507
 31
0.0
  0
LINE
  5
2D1
330
227
100
AcDbEntity
  8
2
  6
Continuous
 62
     7
370
     9
100
AcDbLine
 10
-752.5365506901882
 20
105.0366357550902
 30
0.0
 11
-858.4620359788406
 21
105.0471768028056
 31
0.0
  0
LWPOLYLINE
  5
2D2
330
227
100
AcDbEntity
  8
2
  6
Continuous
 62
     7
370
     9
100
AcDbPolyline
 90
        3
 70
     0
 43
0.0
 10
615.9999999999973
 20
-83.93045875343019
 42
0.0151960939424608
 10
600.5143381038797
 20
-84.18919596166242
 10
600.4999999999974
 20
-84.20101225981756
210
0.0
220
0.0
230
-1.0
  0
LWPOLYLINE
  5
2D3
330
227
100
AcDbEntity
  8
2
  6
Continuous
 62
     7
370
     9
100
AcDbPolyline
 90
        3
 70
     0
 43
0.0
 10
-615.9999999999973
 20
-83.93045875343019
 42
0.0151960939424604
 10
-631.4856618961151
 20
-84.18919596166242
 10
-631.4999999999973
 20
-84.20101225981756
  0
LINE
  5
2D4
330
227
100
AcDbEntity
  8
2
  6
Continuous
 62
     7
370
     9
100
AcDbLine
 10
-631.4999999999973
 20
-84.20101225981756
 30
0.0
 11
-631.4999999999973
 21
-84.47156576620495
 31
0.0
  0
LINE
  5
2D5
330
227
100
AcDbEntity
  8
2
  6
Continuous
 62
     7
370
     9
100
AcDbLine
 10
-634.5346200061223
 20
-84.47156576620495
 30
0.0
 11
-631.4999999999973
 21
-84.47156576620495
 31
0.0
  0
LINE
  5
2D6
330
227
100
AcDbEntity
  8
2
  6
Continuous
 62
     7
370
     9
100
AcDbLine
 10
-634.4369421118543
 20
-84.22026232968295
 30
0.0
 11
-634.5221954740703
 21
-84.39078204059284
 31
0.0
  0
LINE
  5
2D7
330
227
100
AcDbEntity
  8
2
  6
Continuous
 62
     7
370
     9
100
AcDbLine
 10
-597.5630578881401
 20
-84.22026232968345
 30
0.0
 11
-597.4778045259274
 21
-84.39078204058683
 31
0.0
  0
LINE
  5
2D8
330
227
100
AcDbEntity
  8
2
  6
Continuous
 62
     7
370
     9
100
AcDbLine
 10
-597.4653799938745
 20
-84.47156576620492
 30
0.0
 11
-600.4999999999974
 21
-84.47156576620495
 31
0.0
  0
LINE
  5
2D9
330
227
100
AcDbEntity
  8
2
  6
Continuous
 62
     7
370
     9
100
AcDbLine
 10
-600.4999999999974
 20
-84.20101225981756
 30
0.0
 11
-600.4999999999974
 21
-84.47156576620495
 31
0.0
  0
ARC
  5
2DA
330
227
100
AcDbEntity
  8
2
  6
Continuous
 62
     7
370
     9
100
AcDbCircle
 10
612.3027992827314
 20
-305.9813161448899
 30
0.0
 40
222.0729099094015
210
0.0
220
0.0
230
-1.0
100
AcDbArc
 50
89.04606201957094
 51
92.91677725191721
  0
ARC
  5
2DB
330
227
100
AcDbEntity
  8
2
  6
Continuous
 62
     7
370
     9
100
AcDbCircle
 10
-619.6972007172628
 20
-305.9813161449437
 30
0.0
 40
222.0729099094552
100
AcDbArc
 50
89.04606201957128
 51
92.91677725191671
  0
LINE
  5
2DC
330
227
100
AcDbEntity
  8
2
  6
Continuous
 62
     7
370
     9
100
AcDbLine
 10
-600.9999999999973
 20
-84.47156576620495
 30
0.0
 11
-630.9999999999973
 21
-84.47156576620495
 31
0.0
  0
LINE
  5
2DD
330
227
100
AcDbEntity
  8
2
  6
Continuous
 62
     7
370
     9
100
AcDbLine
 10
-630.9999999999973
 20
-84.47156576620495
 30
0.0
 11
-630.9999999999973
 21
-84.201012260126
 31
0.0
  0
LINE
  5
2DE
330
227
100
AcDbEntity
  8
2
  6
Continuous
 62
     7
370
     9
100
AcDbLine
 10
-600.9999999999973
 20
-84.47156576620495
 30
0.0
 11
-600.9999999999973
 21
-84.201012260126
 31
0.0
  0
ARC
  5
2DF
330
227
100
AcDbEntity
  8
2
  6
Continuous
 62
     7
370
     9
100
AcDbCircle
 10
631.2499999999972
 20
-84.47156576620495
 30
0.0
 40
0.2500000000000835
210
0.0
220
0.0
230
-1.0
100
AcDbArc
 50
0.0
 51
180.0
  0
ARC
  5
2E0
330
227
100
AcDbEntity
  8
2
  6
Continuous
 62
     7
370
     9
100
AcDbCircle
 10
-600.7499999999974
 20
-84.47156576620495
 30
0.0
 40
0.2499999999999725
100
AcDbArc
 50
0.0
 51
180.0
  0
LWPOLYLINE
  5
2E1
330
227
100
AcDbEntity
  8
2
  6
Continuous
 62
     7
370
     9
100
AcDbPolyline
 90
        3
 70
     0
 43
0.0
 10
515.9999999999982
 20
-83.93045875343019
 42
0.0151960939424608
 10
500.5143381038808
 20
-84.18919596166242
 10
500.4999999999984
 20
-84.20101225981756
210
0.0
220
0.0
230
-1.0
  0
LWPOLYLINE
  5
2E2
330
227
100
AcDbEntity
  8
2
  6
Continuous
 62
     7
370
     9
100
AcDbPolyline
 90
        3
 70
     0
 43
0.0
 10
-515.9999999999982
 20
-83.93045875343019
 42
0.0151960939424604
 10
-531.4856618961161
 20
-84.18919596166242
 10
-531.4999999999982
 20
-84.20101225981756
  0
LINE
  5
2E3
330
227
100
AcDbEntity
  8
2
  6
Continuous
 62
     7
370
     9
100
AcDbLine
 10
-531.4999999999982
 20
-84.20101225981756
 30
0.0
 11
-531.4999999999982
 21
-84.47156576620495
 31
0.0
  0
LINE
  5
2E4
330
227
100
AcDbEntity
  8
2
  6
Continuous
 62
     7
370
     9
100
AcDbLine
 10
-534.5346200061215
 20
-84.47156576620492
 30
0.0
 11
-531.4999999999982
 21
-84.47156576620495
 31
0.0
  0
LINE
  5
2E5
330
227
100
AcDbEntity
  8
2
  6
Continuous
 62
     7
370
     9
100
AcDbLine
 10
-534.4369421118554
 20
-84.22026232968337
 30
0.0
 11
-534.5221954740688
 21
-84.39078204058788
 31
0.0
  0
LINE
  5
2E6
330
227
100
AcDbEntity
  8
2
  6
Continuous
 62
     7
370
     9
100
AcDbLine
 10
-497.5630578881413
 20
-84.22026232968304
 30
0.0
 11
-497.4778045259259
 21
-84.39078204059165
 31
0.0
  0
LINE
  5
2E7
330
227
100
AcDbEntity
  8
2
  6
Continuous
 62
     7
370
     9
100
AcDbLine
 10
-497.4653799938738
 20
-84.47156576620495
 30
0.0
 11
-500.4999999999984
 21
-84.47156576620495
 31
0.0
  0
LINE
  5
2E8
330
227
100
AcDbEntity
  8
2
  6
Continuous
 62
     7
370
     9
100
AcDbLine
 10
-500.4999999999984
 20
-84.20101225981756
 30
0.0
 11
-500.4999999999984
 21
-84.47156576620495
 31
0.0
  0
ARC
  5
2E9
330
227
100
AcDbEntity
  8
2
  6
Continuous
 62
     7
370
     9
100
AcDbCircle
 10
512.3027992827331
 20
-305.9813161449804
 30
0.0
 40
222.0729099094919
210
0.0
220
0.0
230
-1.0
100
AcDbArc
 50
89.04606201957152
 51
92.91677725191639
  0
ARC
  5
2EA
330
227
100
AcDbEntity
  8
2
  6
Continuous
 62
     7
370
     9
100
AcDbCircle
 10
-519.6972007172639
 20
-305.9813161449304
 30
0.0
 40
222.0729099094419
100
AcDbArc
 50
89.04606201957122
 51
92.91677725191677
  0
LINE
  5
2EB
330
227
100
AcDbEntity
  8
2
  6
Continuous
 62
     7
370
     9
100
AcDbLine
 10
-500.9999999999984
 20
-84.47156576620495
 30
0.0
 11
-530.9999999999982
 21
-84.47156576620495
 31
0.0
  0
LINE
  5
2EC
330
227
100
AcDbEntity
  8
2
  6
Continuous
 62
     7
370
     9
100
AcDbLine
 10
-530.9999999999982
 20
-84.47156576620495
 30
0.0
 11
-530.9999999999982
 21
-84.201012260126
 31
0.0
  0
LINE
  5
2ED
330
227
100
AcDbEntity
  8
2
  6
Continuous
 62
     7
370
     9
100
AcDbLine
 10
-500.9999999999984
 20
-84.47156576620495
 30
0.0
 11
-500.9999999999984
 21
-84.201012260126
 31
0.0
  0
ARC
  5
2EE
330
227
100
AcDbEntity
  8
2
  6
Continuous
 62
     7
370
     9
100
AcDbCircle
 10
531.2499999999982
 20
-84.47156576620495
 30
0.0
 40
0.2499999999999725
210
0.0
220
0.0
230
-1.0
100
AcDbArc
 50
0.0
 51
180.0
  0
ARC
  5
2EF
330
227
100
AcDbEntity
  8
2
  6
Continuous
 62
     7
370
     9
100
AcDbCircle
 10
-500.7499999999984
 20
-84.47156576620495
 30
0.0
 40
0.2499999999999725
100
AcDbArc
 50
0.0
 51
180.0
  0
LINE
  5
2F0
330
227
100
AcDbEntity
  8
2
  6
Continuous
 62
     7
370
     9
100
AcDbLine
 10
-774.5346200061235
 20
-84.471565766207
 30
0.0
 11
-771.5000000000001
 21
-84.47156576620696
 31
0.0
  0
LINE
  5
2F1
330
227
100
AcDbEntity
  8
2
  6
Continuous
 62
     7
370
     9
100
AcDbLine
 10
-774.4369421118563
 20
-84.22026232968317
 30
0.0
 11
-774.5221954740708
 21
-84.3907820405901
 31
0.0
  0
LINE
  5
2F2
330
227
100
AcDbEntity
  8
2
  6
Continuous
 62
     7
370
     9
100
AcDbLine
 10
-737.563057888144
 20
-84.22026232968284
 30
0.0
 11
-737.4778045259272
 21
-84.39078204059423
 31
0.0
  0
LINE
  5
2F3
330
227
100
AcDbEntity
  8
2
  6
Continuous
 62
     7
370
     9
100
AcDbLine
 10
-737.4653799938753
 20
-84.471565766207
 30
0.0
 11
-740.5
 21
-84.47156576620696
 31
0.0
  0
LINE
  5
2F4
330
227
100
AcDbEntity
  8
2
  6
Continuous
 62
     7
370
     9
100
AcDbLine
 10
-740.5
 20
-84.20101225981959
 30
0.0
 11
-740.5
 21
-84.47156576620696
 31
0.0
  0
LWPOLYLINE
  5
2F5
330
227
100
AcDbEntity
  8
2
  6
Continuous
 62
     7
370
     9
100
AcDbPolyline
 90
        3
 70
     0
 43
0.0
 10
756.0000000000001
 20
-83.93045875343225
 42
0.0151960939424608
 10
740.5143381038824
 20
-84.18919596166445
 10
740.5
 20
-84.20101225981959
210
0.0
220
0.0
230
-1.0
  0
LWPOLYLINE
  5
2F6
330
227
100
AcDbEntity
  8
2
  6
Continuous
 62
     7
370
     9
100
AcDbPolyline
 90
        3
 70
     0
 43
0.0
 10
-756.0000000000001
 20
-83.93045875343225
 42
0.0151960939424608
 10
-771.4856618961178
 20
-84.18919596166445
 10
-771.5000000000001
 20
-84.20101225981959
  0
LINE
  5
2F7
330
227
100
AcDbEntity
  8
2
  6
Continuous
 62
     7
370
     9
100
AcDbLine
 10
-771.5000000000001
 20
-84.20101225981959
 30
0.0
 11
-771.5000000000001
 21
-84.47156576620696
 31
0.0
  0
ARC
  5
2F8
330
227
100
AcDbEntity
  8
2
  6
Continuous
 62
     7
370
     9
100
AcDbCircle
 10
-759.6972007172654
 20
-305.9813161449824
 30
0.0
 40
222.0729099094918
100
AcDbArc
 50
89.04606201957152
 51
92.91677725191639
  0
ARC
  5
2F9
330
227
100
AcDbEntity
  8
2
  6
Continuous
 62
     7
370
     9
100
AcDbCircle
 10
752.3027992827341
 20
-305.9813161448994
 30
0.0
 40
222.0729099094088
210
0.0
220
0.0
230
-1.0
100
AcDbArc
 50
89.04606201957101
 51
92.91677725191718
  0
LINE
  5
2FA
330
227
100
AcDbEntity
  8
2
  6
Continuous
 62
     7
370
     9
100
AcDbLine
 10
-741.0
 20
-84.47156576620696
 30
0.0
 11
-741.0
 21
-84.20101226012804
 31
0.0
  0
LINE
  5
2FB
330
227
100
AcDbEntity
  8
2
  6
Continuous
 62
     7
370
     9
100
AcDbLine
 10
-771.0000000000002
 20
-84.47156576620696
 30
0.0
 11
-741.0
 21
-84.47156576620696
 31
0.0
  0
LINE
  5
2FC
330
227
100
AcDbEntity
  8
2
  6
Continuous
 62
     7
370
     9
100
AcDbLine
 10
-771.0000000000002
 20
-84.47156576620696
 30
0.0
 11
-771.0000000000002
 21
-84.20101226012804
 31
0.0
  0
ARC
  5
2FD
330
227
100
AcDbEntity
  8
2
  6
Continuous
 62
     7
370
     9
100
AcDbCircle
 10
-740.75
 20
-84.47156576620696
 30
0.0
 40
0.2499999999999725
100
AcDbArc
 50
0.0
 51
180.0
  0
ARC
  5
2FE
330
227
100
AcDbEntity
  8
2
  6
Continuous
 62
     7
370
     9
100
AcDbCircle
 10
771.2500000000002
 20
-84.47156576620696
 30
0.0
 40
0.2499999999999725
210
0.0
220
0.0
230
-1.0
100
AcDbArc
 50
0.0
 51
180.0
  0
LINE
  5
2FF
330
227
100
AcDbEntity
  8
2
  6
Continuous
 62
     7
370
     9
100
AcDbLine
 10
-874.5346200061242
 20
-84.47156576620696
 30
0.0
 11
-871.5000000000001
 21
-84.47156576620696
 31
0.0
  0
LINE
  5
300
330
227
100
AcDbEntity
  8
2
  6
Continuous
 62
     7
370
     9
100
AcDbLine
 10
-874.4369421118563
 20
-84.22026232968301
 30
0.0
 11
-874.5221954740719
 21
-84.39078204059216
 31
0.0
  0
LINE
  5
301
330
227
100
AcDbEntity
  8
2
  6
Continuous
 62
     7
370
     9
100
AcDbLine
 10
-837.5630578881439
 20
-84.22026232968301
 30
0.0
 11
-837.4778045259284
 21
-84.39078204059216
 31
0.0
  0
LINE
  5
302
330
227
100
AcDbEntity
  8
2
  6
Continuous
 62
     7
370
     9
100
AcDbLine
 10
-837.4653799938759
 20
-84.47156576620694
 30
0.0
 11
-840.5
 21
-84.47156576620696
 31
0.0
  0
LINE
  5
303
330
227
100
AcDbEntity
  8
2
  6
Continuous
 62
     7
370
     9
100
AcDbLine
 10
-840.5
 20
-84.20101225981959
 30
0.0
 11
-840.5
 21
-84.47156576620696
 31
0.0
  0
LWPOLYLINE
  5
304
330
227
100
AcDbEntity
  8
2
  6
Continuous
 62
     7
370
     9
100
AcDbPolyline
 90
        3
 70
     0
 43
0.0
 10
856.0000000000001
 20
-83.93045875343225
 42
0.0151960939424608
 10
840.5143381038824
 20
-84.18919596166445
 10
840.5
 20
-84.20101225981959
210
0.0
220
0.0
230
-1.0
  0
LWPOLYLINE
  5
305
330
227
100
AcDbEntity
  8
2
  6
Continuous
 62
     7
370
     9
100
AcDbPolyline
 90
        3
 70
     0
 43
0.0
 10
-856.0000000000001
 20
-83.93045875343225
 42
0.0151960939424608
 10
-871.4856618961178
 20
-84.18919596166445
 10
-871.5000000000001
 20
-84.20101225981959
  0
LINE
  5
306
330
227
100
AcDbEntity
  8
2
  6
Continuous
 62
     7
370
     9
100
AcDbLine
 10
-871.5000000000001
 20
-84.20101225981959
 30
0.0
 11
-871.5000000000001
 21
-84.47156576620696
 31
0.0
  0
ARC
  5
307
330
227
100
AcDbEntity
  8
2
  6
Continuous
 62
     7
370
     9
100
AcDbCircle
 10
-859.6972007172654
 20
-305.9813161449835
 30
0.0
 40
222.0729099094929
100
AcDbArc
 50
89.04606201957151
 51
92.91677725191619
  0
ARC
  5
308
330
227
100
AcDbEntity
  8
2
  6
Continuous
 62
     7
370
     9
100
AcDbCircle
 10
852.3027992827342
 20
-305.9813161449004
 30
0.0
 40
222.07290990941
210
0.0
220
0.0
230
-1.0
100
AcDbArc
 50
89.04606201957101
 51
92.91677725191758
  0
LINE
  5
309
330
227
100
AcDbEntity
  8
2
  6
Continuous
 62
     7
370
     9
100
AcDbLine
 10
-841.0000000000001
 20
-84.47156576620696
 30
0.0
 11
-841.0000000000001
 21
-84.20101226012804
 31
0.0
  0
LINE
  5
30A
330
227
100
AcDbEntity
  8
2
  6
Continuous
 62
     7
370
     9
100
AcDbLine
 10
-871.0000000000002
 20
-84.47156576620696
 30
0.0
 11
-841.0000000000001
 21
-84.47156576620696
 31
0.0
  0
LINE
  5
30B
330
227
100
AcDbEntity
  8
2
  6
Continuous
 62
     7
370
     9
100
AcDbLine
 10
-871.0000000000002
 20
-84.47156576620696
 30
0.0
 11
-871.0000000000002
 21
-84.20101226012804
 31
0.0
  0
ARC
  5
30C
330
227
100
AcDbEntity
  8
2
  6
Continuous
 62
     7
370
     9
100
AcDbCircle
 10
871.2500000000002
 20
-84.47156576620696
 30
0.0
 40
0.2499999999999725
210
0.0
220
0.0
230
-1.0
100
AcDbArc
 50
0.0
 51
180.0
  0
ARC
  5
30D
330
227
100
AcDbEntity
  8
2
  6
Continuous
 62
     7
370
     9
100
AcDbCircle
 10
-840.75
 20
-84.47156576620696
 30
0.0
 40
0.2499999999999725
100
AcDbArc
 50
0.0
 51
180.0
  0
LINE
  5
30E
330
227
100
AcDbEntity
  8
2
  6
Continuous
 62
     7
370
     9
100
AcDbLine
 10
-750.6999999999994
 20
309.2265218152662
 30
0.0
 11
-860.3000000000001
 21
309.2265218152662
 31
0.0
  0
ARC
  5
30F
330
227
100
AcDbEntity
  8
2
  6
Continuous
 62
     7
370
     9
100
AcDbCircle
 10
860.3004488628959
 20
303.2241267918357
 30
0.0
 40
6.002395040213592
210
0.0
220
0.0
230
-1.0
100
AcDbArc
 50
358.2361977605676
 51
90.00428461461865
  0
LINE
  5
310
330
227
100
AcDbEntity
  8
2
  6
Continuous
 62
     7
370
     9
100
AcDbLine
 10
-866.3000000000002
 20
303.0393773072582
 30
0.0
 11
-866.2890441204141
 21
103.4393804439535
 31
0.0
  0
ARC
  5
311
330
227
100
AcDbEntity
  8
2
  6
Continuous
 62
     7
370
     9
100
AcDbCircle
 10
-860.3064949652885
 20
103.6568433164672
 30
0.0
 40
5.986500187456477
100
AcDbArc
 50
182.0817583269686
 51
270.0621622250843
  0
LINE
  5
312
330
227
100
AcDbEntity
  8
2
  6
Continuous
 62
     7
370
     9
100
AcDbLine
 10
-750.6999999999994
 20
97.67034665232032
 30
0.0
 11
-860.3000000000001
 21
97.67034665232032
 31
0.0
  0
ARC
  5
313
330
227
100
AcDbEntity
  8
2
  6
Continuous
 62
     7
370
     9
100
AcDbCircle
 10
-750.6935050347105
 20
103.6568433164669
 30
0.0
 40
5.986500187456111
100
AcDbArc
 50
269.9378377749125
 51
357.9182416730346
  0
LINE
  5
314
330
227
100
AcDbEntity
  8
2
  6
Continuous
 62
     7
370
     9
100
AcDbLine
 10
-744.6999999999992
 20
303.0393773072582
 30
0.0
 11
-744.7109558795852
 21
103.4393804439535
 31
0.0
  0
ARC
  5
315
330
227
100
AcDbEntity
  8
2
  6
Continuous
 62
     7
370
     9
100
AcDbCircle
 10
750.699551137104
 20
303.2241267918353
 30
0.0
 40
6.002395040214043
210
0.0
220
0.0
230
-1.0
100
AcDbArc
 50
89.99571538538558
 51
181.763802239428
  0
LINE
  5
316
330
227
100
AcDbEntity
  8
2
  6
Continuous
 62
     7
370
     9
100
AcDbLine
 10
-621.2999999999984
 20
97.67034665232032
 30
0.0
 11
-511.6999999999976
 21
97.67034665232032
 31
0.0
  0
ARC
  5
317
330
227
100
AcDbEntity
  8
2
  6
Continuous
 62
     7
370
     9
100
AcDbCircle
 10
511.6935050347084
 20
103.6568433164665
 30
0.0
 40
5.986500187455674
210
0.0
220
0.0
230
-1.0
100
AcDbArc
 50
182.0817583269616
 51
270.0621622250907
  0
LINE
  5
318
330
227
100
AcDbEntity
  8
2
  6
Continuous
 62
     7
370
     9
100
AcDbLine
 10
-505.6999999999976
 20
303.0393773072582
 30
0.0
 11
-505.7109558795836
 21
103.4393804439535
 31
0.0
  0
ARC
  5
319
330
227
100
AcDbEntity
  8
2
  6
Continuous
 62
     7
370
     9
100
AcDbCircle
 10
-511.6995511371012
 20
303.2241267918363
 30
0.0
 40
6.002395040212946
100
AcDbArc
 50
358.2361977605617
 51
90.00428461462394
  0
LINE
  5
31A
330
227
100
AcDbEntity
  8
2
  6
Continuous
 62
     7
370
     9
100
AcDbLine
 10
-621.2999999999984
 20
309.2265218152662
 30
0.0
 11
-511.6999999999976
 21
309.2265218152662
 31
0.0
  0
ARC
  5
31B
330
227
100
AcDbEntity
  8
2
  6
Continuous
 62
     7
370
     9
100
AcDbCircle
 10
-621.3004488628939
 20
303.2241267918356
 30
0.0
 40
6.002395040213765
100
AcDbArc
 50
89.99571538538451
 51
181.7638022394307
  0
LINE
  5
31C
330
227
100
AcDbEntity
  8
2
  6
Continuous
 62
     7
370
     9
100
AcDbLine
 10
-627.2999999999984
 20
303.0393773072582
 30
0.0
 11
-627.2890441204124
 21
103.4393804439535
 31
0.0
  0
ARC
  5
31D
330
227
100
AcDbEntity
  8
2
  6
Continuous
 62
     7
370
     9
100
AcDbCircle
 10
621.3064949652866
 20
103.6568433164675
 30
0.0
 40
5.986500187456707
210
0.0
220
0.0
230
-1.0
100
AcDbArc
 50
269.9378377749189
 51
357.9182416730291
  0
ARC
  5
31E
330
227
100
AcDbEntity
  8
2
  6
Continuous
 62
     7
370
     9
100
AcDbCircle
 10
-621.2999999999984
 20
303.2484342337931
 30
0.0
 40
2.000000000000057
100
AcDbArc
 50
90.0
 51
179.9999999999984
  0
ARC
  5
31F
330
227
100
AcDbEntity
  8
2
  6
Continuous
 62
     7
370
     9
100
AcDbCircle
 10
-511.6999999999975
 20
303.2484342337934
 30
0.0
 40
1.999999999999891
100
AcDbArc
 50
359.9999999999952
 51
90.00000000000318
  0
ARC
  5
320
330
227
100
AcDbEntity
  8
2
  6
Continuous
 62
     7
370
     9
100
AcDbCircle
 10
860.3000000000005
 20
303.2484342337936
 30
0.0
 40
1.999999999999669
210
0.0
220
0.0
230
-1.0
100
AcDbArc
 50
359.9999999999889
 51
90.00000000001273
  0
ARC
  5
321
330
227
100
AcDbEntity
  8
2
  6
Continuous
 62
     7
370
     9
100
AcDbCircle
 10
750.6999999999992
 20
303.2484342337934
 30
0.0
 40
1.999999999999835
210
0.0
220
0.0
230
-1.0
100
AcDbArc
 50
89.99999999999682
 51
180.0000000000048
  0
LINE
  5
322
330
227
100
AcDbEntity
  8
2
  6
Continuous
 62
     7
370
     9
100
AcDbLine
 10
-621.2999999999984
 20
305.2484342337932
 30
0.0
 11
-511.6999999999976
 21
305.2484342337932
 31
0.0
  0
LINE
  5
323
330
227
100
AcDbEntity
  8
2
  6
Continuous
 62
     7
370
     9
100
AcDbLine
 10
-750.6999999999994
 20
305.2484342337932
 30
0.0
 11
-860.3000000000001
 21
305.2484342337932
 31
0.0
  0
LINE
  5
324
330
227
100
AcDbEntity
  8
2
  6
Continuous
 62
     7
370
     9
100
AcDbLine
 10
-748.6999999999994
 20
303.2484342337932
 30
0.0
 11
-748.6999999999994
 21
103.6484342337934
 31
0.0
  0
LINE
  5
325
330
227
100
AcDbEntity
  8
2
  6
Continuous
 62
     7
370
     9
100
AcDbLine
 10
-744.7109558795852
 20
103.4393804439534
 30
0.0
 11
-748.6999999999994
 21
103.6484342337934
 31
0.0
  0
LINE
  5
326
330
227
100
AcDbEntity
  8
2
  6
Continuous
 62
     7
370
     9
100
AcDbLine
 10
-627.2890441204124
 20
103.4393804439534
 30
0.0
 11
-623.2999999999984
 21
103.6484342337934
 31
0.0
  0
LINE
  5
327
330
227
100
AcDbEntity
  8
2
  6
Continuous
 62
     7
370
     9
100
AcDbLine
 10
-623.2999999999984
 20
303.2484342337932
 30
0.0
 11
-623.2999999999984
 21
103.6484342337934
 31
0.0
  0
LINE
  5
328
330
227
100
AcDbEntity
  8
2
  6
Continuous
 62
     7
370
     9
100
AcDbLine
 10
-866.2890441204141
 20
103.4393804439534
 30
0.0
 11
-862.3000000000002
 21
103.6484342337934
 31
0.0
  0
LINE
  5
329
330
227
100
AcDbEntity
  8
2
  6
Continuous
 62
     7
370
     9
100
AcDbLine
 10
-862.3000000000002
 20
303.2484342337932
 30
0.0
 11
-862.3000000000002
 21
103.6484342337934
 31
0.0
  0
LINE
  5
32A
330
227
100
AcDbEntity
  8
2
  6
Continuous
 62
     7
370
     9
100
AcDbLine
 10
-509.6999999999976
 20
303.2484342337932
 30
0.0
 11
-509.6999999999976
 21
103.6484342337934
 31
0.0
  0
LINE
  5
32B
330
227
100
AcDbEntity
  8
2
  6
Continuous
 62
     7
370
     9
100
AcDbLine
 10
-505.7109558795836
 20
103.4393804439534
 30
0.0
 11
-509.6999999999976
 21
103.6484342337934
 31
0.0
  0
LINE
  5
32C
330
227
100
AcDbEntity
  8
2
  6
Continuous
 62
     7
370
     9
100
AcDbLine
 10
-918.5436906634282
 20
329.4284342337932
 30
0.0
 11
-453.4563093365696
 21
329.4284342337932
 31
0.0
  0
ARC
  5
32D
330
227
100
AcDbEntity
  8
2
  6
Continuous
 62
     7
370
     9
100
AcDbCircle
 10
-750.6999999999992
 20
103.6484342337933
 30
0.0
 40
1.999999999999905
100
AcDbArc
 50
269.9999999999968
 51
0.0000000000023874
  0
ARC
  5
32E
330
227
100
AcDbEntity
  8
2
  6
Continuous
 62
     7
370
     9
100
AcDbCircle
 10
621.2999999999984
 20
103.6484342337934
 30
0.0
 40
2.000000000000029
210
0.0
220
0.0
230
-1.0
100
AcDbArc
 50
270.0
 51
359.9999999999987
  0
ARC
  5
32F
330
227
100
AcDbEntity
  8
2
  6
Continuous
 62
     7
370
     9
100
AcDbCircle
 10
-860.3000000000001
 20
103.6484342337935
 30
0.0
 40
2.000000000000113
100
AcDbArc
 50
180.000000000004
 51
270.0
  0
ARC
  5
330
330
227
100
AcDbEntity
  8
2
  6
Continuous
 62
     7
370
     9
100
AcDbCircle
 10
511.6999999999976
 20
103.6484342337934
 30
0.0
 40
2.000000000000002
210
0.0
220
0.0
230
-1.0
100
AcDbArc
 50
180.0000000000012
 51
270.0
  0
LINE
  5
331
330
227
100
AcDbEntity
  8
2
  6
Continuous
 62
     7
370
     9
100
AcDbLine
 10
-750.6999999999994
 20
101.6484342337934
 30
0.0
 11
-860.3000000000001
 21
101.6484342337934
 31
0.0
  0
LINE
  5
332
330
227
100
AcDbEntity
  8
2
  6
Continuous
 62
     7
370
     9
100
AcDbLine
 10
-621.2999999999984
 20
101.6484342337934
 30
0.0
 11
-511.6999999999976
 21
101.6484342337934
 31
0.0
  0
ELLIPSE
  5
333
330
227
100
AcDbEntity
  8
2
  6
Continuous
 62
     7
370
     9
100
AcDbEllipse
 10
-918.4595259331205
 20
317.8845061020447
 30
0.0
 11
8.02162718957757
 21
-8.357530474412595
 31
0.0
210
0.0
220
0.0
230
1.0
 40
0.9927273039698814
 41
2.380345575514433
 42
3.943848833070688
  0
ELLIPSE
  5
334
330
227
100
AcDbEntity
  8
2
  6
Continuous
 62
     7
370
     9
100
AcDbEllipse
 10
-453.5404740668772
 20
317.8845061020447
 30
0.0
 11
-8.02162718957757
 21
-8.357530474412595
 31
0.0
210
0.0
220
0.0
230
-1.0
 40
0.9927273039698814
 41
2.380345575514431
 42
3.943848833070688
  0
LINE
  5
335
330
227
100
AcDbEntity
  8
2
  6
Continuous
 62
     7
370
     9
100
AcDbLine
 10
-930.0000000000006
 20
-73.08661091886852
 30
0.0
 11
-930.0000000000006
 21
317.9686960228632
 31
0.0
  0
LINE
  5
336
330
227
100
AcDbEntity
  8
2
  6
Continuous
 62
     7
370
     9
100
AcDbLine
 10
-441.999999999997
 20
-73.08661091886852
 30
0.0
 11
-441.999999999997
 21
317.9686960228632
 31
0.0
  0
ELLIPSE
  5
337
330
227
100
AcDbEntity
  8
2
  6
Continuous
 62
     7
370
     9
100
AcDbEllipse
 10
-453.5404740668772
 20
-73.069813993702
 30
0.0
 11
11.30065857114284
 21
-2.349032009809633
 31
0.0
210
0.0
220
0.0
230
1.0
 40
0.9963421510149001
 41
4.918068641670351
 42
6.487404588214564
  0
ELLIPSE
  5
338
330
227
100
AcDbEntity
  8
2
  6
Continuous
 62
     7
370
     9
100
AcDbEllipse
 10
-918.4595259331205
 20
-73.069813993702
 30
0.0
 11
-11.3006585711429
 21
-2.349032009809645
 31
0.0
210
0.0
220
0.0
230
-1.0
 40
0.9963421510148953
 41
4.918068641670351
 42
6.487404588214564
  0
LINE
  5
339
330
227
100
AcDbEntity
  8
2
  6
Continuous
 62
     7
370
     9
100
AcDbLine
 10
-464.4999999999972
 20
-84.5715657662066
 30
0.0
 11
-453.5236205924567
 21
-84.57156576620646
 31
0.0
  0
LINE
  5
33A
330
227
100
AcDbEntity
  8
2
  6
Continuous
 62
     7
370
     9
100
AcDbLine
 10
-464.4999999999972
 20
-84.5715657662066
 30
0.0
 11
-464.4999999999972
 21
-84.54189215582862
 31
0.0
  0
LINE
  5
33B
330
227
100
AcDbEntity
  8
2
  6
Continuous
 62
     7
370
     9
100
AcDbLine
 10
-464.4999999999973
 20
-84.54189215582862
 30
0.0
 11
-467.4999999999972
 21
-84.54189215582862
 31
0.0
  0
LINE
  5
33C
330
227
100
AcDbEntity
  8
2
  6
Continuous
 62
     7
370
     9
100
AcDbLine
 10
-467.4999999999972
 20
-84.54189215582862
 30
0.0
 11
-467.4999999999972
 21
-84.5715657662066
 31
0.0
  0
LINE
  5
33D
330
227
100
AcDbEntity
  8
2
  6
Continuous
 62
     7
370
     9
100
AcDbLine
 10
-479.4999999999974
 20
-84.5715657662066
 30
0.0
 11
-467.4999999999972
 21
-84.5715657662066
 31
0.0
  0
LINE
  5
33E
330
227
100
AcDbEntity
  8
2
  6
Continuous
 62
     7
370
     9
100
AcDbLine
 10
-479.4999999999974
 20
-84.5715657662066
 30
0.0
 11
-479.4999999999974
 21
-84.54189215582862
 31
0.0
  0
LINE
  5
33F
330
227
100
AcDbEntity
  8
2
  6
Continuous
 62
     7
370
     9
100
AcDbLine
 10
-479.4999999999974
 20
-84.54189215582862
 30
0.0
 11
-482.4999999999973
 21
-84.54189215582862
 31
0.0
  0
LINE
  5
340
330
227
100
AcDbEntity
  8
2
  6
Continuous
 62
     7
370
     9
100
AcDbLine
 10
-482.4999999999974
 20
-84.54189215582862
 30
0.0
 11
-482.4999999999974
 21
-84.5715657662066
 31
0.0
  0
LINE
  5
341
330
227
100
AcDbEntity
  8
2
  6
Continuous
 62
     7
370
     9
100
AcDbLine
 10
-497.4499999999974
 20
-84.57156576620696
 30
0.0
 11
-482.4999999999974
 21
-84.5715657662066
 31
0.0
  0
LINE
  5
342
330
227
100
AcDbEntity
  8
2
  6
Continuous
 62
     7
370
     9
100
AcDbLine
 10
-497.5000666645008
 20
-84.24603465802228
 30
0.0
 11
-497.4499999999974
 21
-84.57156576620696
 31
0.0
  0
ELLIPSE
  5
343
330
227
100
AcDbEntity
  8
2
  6
Continuous
 62
     7
370
     9
100
AcDbEllipse
 10
-515.9999999999976
 20
-84.24690155854177
 30
0.0
 11
-18.49999999999963
 21
0.0
 31
0.0
210
0.0
220
0.0
230
-1.0
 40
0.0174550649282174
 41
0.0026845814677565
 42
3.138908072122027
  0
LINE
  5
344
330
227
100
AcDbEntity
  8
2
  6
Continuous
 62
     7
370
     9
100
AcDbLine
 10
-534.5499999999978
 20
-84.57156576620646
 30
0.0
 11
-534.4999333354945
 21
-84.24603465802228
 31
0.0
  0
LINE
  5
345
330
227
100
AcDbEntity
  8
2
  6
Continuous
 62
     7
370
     9
100
AcDbLine
 10
-597.4499999999981
 20
-84.57156576620696
 30
0.0
 11
-534.5499999999978
 21
-84.57156576620646
 31
0.0
  0
LINE
  5
346
330
227
100
AcDbEntity
  8
2
  6
Continuous
 62
     7
370
     9
100
AcDbLine
 10
-597.5000666645014
 20
-84.24603465802228
 30
0.0
 11
-597.4499999999981
 21
-84.57156576620696
 31
0.0
  0
ELLIPSE
  5
347
330
227
100
AcDbEntity
  8
2
  6
Continuous
 62
     7
370
     9
100
AcDbEllipse
 10
-615.9999999999983
 20
-84.24690155854177
 30
0.0
 11
-18.49999999999963
 21
0.0
 31
0.0
210
0.0
220
0.0
230
-1.0
 40
0.0174550649282174
 41
0.0026845814677565
 42
3.138908072122027
  0
LINE
  5
348
330
227
100
AcDbEntity
  8
2
  6
Continuous
 62
     7
370
     9
100
AcDbLine
 10
-634.5499999999985
 20
-84.57156576620646
 30
0.0
 11
-634.4999333354953
 21
-84.24603465802228
 31
0.0
  0
LINE
  5
349
330
227
100
AcDbEntity
  8
2
  6
Continuous
 62
     7
370
     9
100
AcDbLine
 10
-677.9999999999989
 20
-84.5715657662066
 30
0.0
 11
-634.5499999999985
 21
-84.57156576620646
 31
0.0
  0
LINE
  5
34A
330
227
100
AcDbEntity
  8
2
  6
Continuous
 62
     7
370
     9
100
AcDbLine
 10
-677.9999999999989
 20
-84.5715657662066
 30
0.0
 11
-677.9999999999989
 21
-84.5157095584363
 31
0.0
  0
LINE
  5
34B
330
227
100
AcDbEntity
  8
2
  6
Continuous
 62
     7
370
     9
100
AcDbLine
 10
-678.0558562077691
 20
-84.5157095584363
 30
0.0
 11
-677.9999999999989
 21
-84.5157095584363
 31
0.0
  0
LINE
  5
34C
330
227
100
AcDbEntity
  8
2
  6
Continuous
 62
     7
370
     9
100
AcDbLine
 10
-678.0558562077691
 20
-84.5157095584363
 30
0.0
 11
-678.1451816717905
 21
-84.42638409441487
 31
0.0
  0
LINE
  5
34D
330
227
100
AcDbEntity
  8
2
  6
Continuous
 62
     7
370
     9
100
AcDbLine
 10
-679.1450293669469
 20
-84.40923366237419
 30
0.0
 11
-678.1451816717905
 21
-84.4263840944149
 31
0.0
  0
LINE
  5
34E
330
227
100
AcDbEntity
  8
2
  6
Continuous
 62
     7
370
     9
100
AcDbLine
 10
-679.1450293669469
 20
-84.40923366237419
 30
0.0
 11
-692.8549706330508
 21
-84.40923366237419
 31
0.0
  0
LINE
  5
34F
330
227
100
AcDbEntity
  8
2
  6
Continuous
 62
     7
370
     9
100
AcDbLine
 10
-693.8548183282071
 20
-84.42638409441487
 30
0.0
 11
-692.8549706330508
 21
-84.40923366237416
 31
0.0
  0
LINE
  5
350
330
227
100
AcDbEntity
  8
2
  6
Continuous
 62
     7
370
     9
100
AcDbLine
 10
-693.8548183282071
 20
-84.42638409441487
 30
0.0
 11
-693.9441437922287
 21
-84.5157095584363
 31
0.0
  0
LINE
  5
351
330
227
100
AcDbEntity
  8
2
  6
Continuous
 62
     7
370
     9
100
AcDbLine
 10
-693.9441437922287
 20
-84.5157095584363
 30
0.0
 11
-693.999999999999
 21
-84.5157095584363
 31
0.0
  0
LINE
  5
352
330
227
100
AcDbEntity
  8
2
  6
Continuous
 62
     7
370
     9
100
AcDbLine
 10
-693.999999999999
 20
-84.5157095584363
 30
0.0
 11
-693.999999999999
 21
-84.5715657662066
 31
0.0
  0
LINE
  5
353
330
227
100
AcDbEntity
  8
2
  6
Continuous
 62
     7
370
     9
100
AcDbLine
 10
-737.4499999999992
 20
-84.57156576620696
 30
0.0
 11
-693.999999999999
 21
-84.5715657662066
 31
0.0
  0
LINE
  5
354
330
227
100
AcDbEntity
  8
2
  6
Continuous
 62
     7
370
     9
100
AcDbLine
 10
-737.5000666645025
 20
-84.24603465802228
 30
0.0
 11
-737.4499999999992
 21
-84.57156576620696
 31
0.0
  0
ELLIPSE
  5
355
330
227
100
AcDbEntity
  8
2
  6
Continuous
 62
     7
370
     9
100
AcDbEllipse
 10
-755.9999999999993
 20
-84.24690155854177
 30
0.0
 11
18.49999999999963
 21
0.0
 31
0.0
210
0.0
220
0.0
230
-1.0
 40
0.0174550649282174
 41
3.144277235057546
 42
6.280500725711838
  0
LINE
  5
356
330
227
100
AcDbEntity
  8
2
  6
Continuous
 62
     7
370
     9
100
AcDbLine
 10
-774.5499999999995
 20
-84.57156576620696
 30
0.0
 11
-774.4999333354963
 21
-84.24603465802228
 31
0.0
  0
LINE
  5
357
330
227
100
AcDbEntity
  8
2
  6
Continuous
 62
     7
370
     9
100
AcDbLine
 10
-837.45
 20
-84.57156576620696
 30
0.0
 11
-774.5499999999995
 21
-84.57156576620696
 31
0.0
  0
LINE
  5
358
330
227
100
AcDbEntity
  8
2
  6
Continuous
 62
     7
370
     9
100
AcDbLine
 10
-837.5000666645033
 20
-84.24603465802231
 30
0.0
 11
-837.45
 21
-84.57156576620696
 31
0.0
  0
ELLIPSE
  5
359
330
227
100
AcDbEntity
  8
2
  6
Continuous
 62
     7
370
     9
100
AcDbEllipse
 10
-856.0000000000001
 20
-84.24690155854177
 30
0.0
 11
18.49999999999963
 21
0.0
 31
0.0
210
0.0
220
0.0
230
-1.0
 40
0.0174550649282174
 41
3.144277235057546
 42
6.280500725711838
  0
LINE
  5
35A
330
227
100
AcDbEntity
  8
2
  6
Continuous
 62
     7
370
     9
100
AcDbLine
 10
-874.5500000000003
 20
-84.57156576620696
 30
0.0
 11
-874.499933335497
 21
-84.24603465802228
 31
0.0
  0
LINE
  5
35B
330
227
100
AcDbEntity
  8
2
  6
Continuous
 62
     7
370
     9
100
AcDbLine
 10
-889.5000000000003
 20
-84.5715657662066
 30
0.0
 11
-874.5500000000003
 21
-84.57156576620696
 31
0.0
  0
LINE
  5
35C
330
227
100
AcDbEntity
  8
2
  6
Continuous
 62
     7
370
     9
100
AcDbLine
 10
-889.5000000000003
 20
-84.5715657662066
 30
0.0
 11
-889.5000000000003
 21
-84.54189215582862
 31
0.0
  0
LINE
  5
35D
330
227
100
AcDbEntity
  8
2
  6
Continuous
 62
     7
370
     9
100
AcDbLine
 10
-889.5000000000003
 20
-84.54189215582862
 30
0.0
 11
-892.5000000000002
 21
-84.54189215582862
 31
0.0
  0
LINE
  5
35E
330
227
100
AcDbEntity
  8
2
  6
Continuous
 62
     7
370
     9
100
AcDbLine
 10
-892.5000000000003
 20
-84.54189215582862
 30
0.0
 11
-892.5000000000003
 21
-84.5715657662066
 31
0.0
  0
LINE
  5
35F
330
227
100
AcDbEntity
  8
2
  6
Continuous
 62
     7
370
     9
100
AcDbLine
 10
-904.5000000000005
 20
-84.5715657662066
 30
0.0
 11
-892.5000000000003
 21
-84.5715657662066
 31
0.0
  0
LINE
  5
360
330
227
100
AcDbEntity
  8
2
  6
Continuous
 62
     7
370
     9
100
AcDbLine
 10
-904.5000000000005
 20
-84.5715657662066
 30
0.0
 11
-904.5000000000005
 21
-84.54189215582862
 31
0.0
  0
LINE
  5
361
330
227
100
AcDbEntity
  8
2
  6
Continuous
 62
     7
370
     9
100
AcDbLine
 10
-904.5000000000005
 20
-84.54189215582862
 30
0.0
 11
-907.5000000000005
 21
-84.54189215582862
 31
0.0
  0
LINE
  5
362
330
227
100
AcDbEntity
  8
2
  6
Continuous
 62
     7
370
     9
100
AcDbLine
 10
-907.5000000000005
 20
-84.54189215582862
 30
0.0
 11
-907.5000000000005
 21
-84.5715657662066
 31
0.0
  0
LINE
  5
363
330
227
100
AcDbEntity
  8
2
  6
Continuous
 62
     7
370
     9
100
AcDbLine
 10
-918.476379407541
 20
-84.57156576620646
 30
0.0
 11
-907.5000000000005
 21
-84.5715657662066
 31
0.0
  0
CIRCLE
  5
364
330
227
100
AcDbEntity
  8
2
  6
Continuous
 62
     7
370
     9
100
AcDbCircle
 10
-680.7999999999988
 20
-96.77156576620648
 30
0.0
 40
1.000000000000001
  0
ELLIPSE
  5
365
330
227
100
AcDbEntity
  8
2
  6
Continuous
 62
     7
370
     9
100
AcDbEllipse
 10
-692.9439914641847
 20
-98.5155572303923
 30
0.0
 11
0.7073221891695844
 21
0.7073221891695787
 31
0.0
210
0.0
220
0.0
230
-1.0
 40
0.9996954598819061
 41
2.356346783439921
 42
3.926838523739642
  0
ELLIPSE
  5
366
330
227
100
AcDbEntity
  8
2
  6
Continuous
 62
     7
370
     9
100
AcDbEllipse
 10
-679.056008535813
 20
-98.5155572303923
 30
0.0
 11
0.7073221891695844
 21
-0.7073221891695787
 31
0.0
210
0.0
220
0.0
230
-1.0
 40
0.9996954598819061
 41
5.497939437029737
 42
7.068431177329458
  0
LINE
  5
367
330
227
100
AcDbEntity
  8
2
  6
Continuous
 62
     7
370
     9
100
AcDbLine
 10
-693.9441437922287
 20
-84.5157095584363
 30
0.0
 11
-693.9441437922287
 21
-98.51586186327982
 31
0.0
  0
LINE
  5
368
330
227
100
AcDbEntity
  8
2
  6
Continuous
 62
     7
370
     9
100
AcDbLine
 10
-678.0558562077691
 20
-84.5157095584363
 30
0.0
 11
-678.0558562077691
 21
-98.51586186327982
 31
0.0
  0
LINE
  5
369
330
227
100
AcDbEntity
  8
2
  6
Continuous
 62
     7
370
     9
100
AcDbLine
 10
-679.0557039029254
 20
-99.51570955843617
 30
0.0
 11
-692.9442960970722
 21
-99.51570955843617
 31
0.0
  0
CIRCLE
  5
36A
330
227
100
AcDbEntity
  8
2
  6
Continuous
 62
     7
370
     9
100
AcDbCircle
 10
-566.0
 20
294.9284342337951
 30
0.0
 40
2.650000000000041
  0
CIRCLE
  5
36B
330
227
100
AcDbEntity
  8
2
  6
Continuous
 62
     7
370
     9
100
AcDbCircle
 10
-566.0
 20
280.9284342337951
 30
0.0
 40
2.650000000000041
  0
CIRCLE
  5
36C
330
227
100
AcDbEntity
  8
2
  6
Continuous
 62
     7
370
     9
100
AcDbCircle
 10
-566.0
 20
266.9284342337951
 30
0.0
 40
2.650000000000041
  0
CIRCLE
  5
36D
330
227
100
AcDbEntity
  8
2
  6
Continuous
 62
     7
370
     9
100
AcDbCircle
 10
-566.0
 20
252.9284342337951
 30
0.0
 40
2.650000000000041
  0
CIRCLE
  5
36E
330
227
100
AcDbEntity
  8
2
  6
Continuous
 62
     7
370
     9
100
AcDbCircle
 10
-566.0
 20
287.9284342337951
 30
0.0
 40
2.149999999999985
  0
CIRCLE
  5
36F
330
227
100
AcDbEntity
  8
2
  6
Continuous
 62
     7
370
     9
100
AcDbCircle
 10
806.0000000000001
 20
294.9284342337951
 30
0.0
 40
2.650000000000041
210
0.0
220
0.0
230
-1.0
  0
CIRCLE
  5
370
330
227
100
AcDbEntity
  8
2
  6
Continuous
 62
     7
370
     9
100
AcDbCircle
 10
806.0000000000001
 20
252.9284342337951
 30
0.0
 40
2.650000000000041
210
0.0
220
0.0
230
-1.0
  0
CIRCLE
  5
371
330
227
100
AcDbEntity
  8
2
  6
Continuous
 62
     7
370
     9
100
AcDbCircle
 10
806.0000000000001
 20
266.9284342337951
 30
0.0
 40
2.650000000000041
210
0.0
220
0.0
230
-1.0
  0
CIRCLE
  5
372
330
227
100
AcDbEntity
  8
2
  6
Continuous
 62
     7
370
     9
100
AcDbCircle
 10
806.0000000000001
 20
280.9284342337951
 30
0.0
 40
2.650000000000041
210
0.0
220
0.0
230
-1.0
  0
CIRCLE
  5
373
330
227
100
AcDbEntity
  8
2
  6
Continuous
 62
     7
370
     9
100
AcDbCircle
 10
806.0000000000001
 20
287.9284342337951
 30
0.0
 40
2.149999999999985
210
0.0
220
0.0
230
-1.0
  0
CIRCLE
  5
374
330
227
100
AcDbEntity
  8
2
  6
Continuous
 62
     7
370
     9
100
AcDbCircle
 10
-806.0000000000001
 20
280.9284342337951
 30
0.0
 40
1.632547593562683
  0
CIRCLE
  5
375
330
227
100
AcDbEntity
  8
2
  6
Continuous
 62
     7
370
     9
100
AcDbCircle
 10
-806.0000000000001
 20
266.9284342337951
 30
0.0
 40
1.632547593562683
  0
ARC
  5
376
330
227
100
AcDbEntity
  8
2
  6
Continuous
 62
     7
370
     9
100
AcDbCircle
 10
-806.0000000000001
 20
197.9284342337951
 30
0.0
 40
6.24142478397971
100
AcDbArc
 50
0.0000000000002548
 51
179.9999999999997
  0
ARC
  5
377
330
227
100
AcDbEntity
  8
2
  6
Continuous
 62
     7
370
     9
100
AcDbCircle
 10
566.0
 20
197.9284342337951
 30
0.0
 40
6.24142478397971
210
0.0
220
0.0
230
-1.0
100
AcDbArc
 50
0.0000000000002548
 51
179.9999999999997
  0
CIRCLE
  5
378
330
227
100
AcDbEntity
  8
2
  6
Continuous
 62
     7
370
     9
100
AcDbCircle
 10
-806.0000000000001
 20
294.9284342337951
 30
0.0
 40
1.632547593562683
  0
LINE
  5
379
330
227
100
AcDbEntity
  8
2
  6
Continuous
 62
     7
370
     9
100
AcDbLine
 10
-812.2414247839797
 20
197.9284342337951
 30
0.0
 11
-812.2414247839797
 21
194.9191743336129
 31
0.0
  0
LINE
  5
37A
330
227
100
AcDbEntity
  8
2
  6
Continuous
 62
     7
370
     9
100
AcDbLine
 10
-812.741348631558
 20
195.0914972985322
 30
0.0
 11
-812.2414247839797
 21
194.9191743336129
 31
0.0
  0
LINE
  5
37B
330
227
100
AcDbEntity
  8
2
  6
Continuous
 62
     7
370
     9
100
AcDbLine
 10
-572.7413486315579
 20
195.0914972985322
 30
0.0
 11
-572.2414247839797
 21
194.9191743336129
 31
0.0
  0
LINE
  5
37C
330
227
100
AcDbEntity
  8
2
  6
Continuous
 62
     7
370
     9
100
AcDbLine
 10
-559.2586513684422
 20
195.0914972985322
 30
0.0
 11
-559.7585752160204
 21
194.9191743336129
 31
0.0
  0
CIRCLE
  5
37D
330
227
100
AcDbEntity
  8
2
  6
Continuous
 62
     7
370
     9
100
AcDbCircle
 10
-806.0000000000001
 20
287.9284342337951
 30
0.0
 40
1.641273796781362
  0
LINE
  5
37E
330
227
100
AcDbEntity
  8
2
  6
Continuous
 62
     7
370
     9
100
AcDbLine
 10
-572.2414247839797
 20
197.9284342337951
 30
0.0
 11
-572.2414247839797
 21
194.9191743336129
 31
0.0
  0
LINE
  5
37F
330
227
100
AcDbEntity
  8
2
  6
Continuous
 62
     7
370
     9
100
AcDbLine
 10
-559.7585752160204
 20
197.9284342337951
 30
0.0
 11
-559.7585752160204
 21
194.9191743336129
 31
0.0
  0
LINE
  5
380
330
227
100
AcDbEntity
  8
2
  6
Continuous
 62
     7
370
     9
100
AcDbLine
 10
-799.2586513684423
 20
195.0914972985322
 30
0.0
 11
-799.7585752160204
 21
194.9191743336129
 31
0.0
  0
CIRCLE
  5
381
330
227
100
AcDbEntity
  8
2
  6
Continuous
 62
     7
370
     9
100
AcDbCircle
 10
566.0
 20
294.9284342337951
 30
0.0
 40
1.632547593562683
210
0.0
220
0.0
230
-1.0
  0
CIRCLE
  5
382
330
227
100
AcDbEntity
  8
2
  6
Continuous
 62
     7
370
     9
100
AcDbCircle
 10
-806.0000000000001
 20
252.9284342337951
 30
0.0
 40
1.632547593562683
  0
CIRCLE
  5
383
330
227
100
AcDbEntity
  8
2
  6
Continuous
 62
     7
370
     9
100
AcDbCircle
 10
566.0
 20
280.9284342337951
 30
0.0
 40
1.632547593562683
210
0.0
220
0.0
230
-1.0
  0
CIRCLE
  5
384
330
227
100
AcDbEntity
  8
2
  6
Continuous
 62
     7
370
     9
100
AcDbCircle
 10
566.0
 20
287.9284342337951
 30
0.0
 40
1.641273796781362
210
0.0
220
0.0
230
-1.0
  0
CIRCLE
  5
385
330
227
100
AcDbEntity
  8
2
  6
Continuous
 62
     7
370
     9
100
AcDbCircle
 10
566.0
 20
252.9284342337951
 30
0.0
 40
1.632547593562683
210
0.0
220
0.0
230
-1.0
  0
CIRCLE
  5
386
330
227
100
AcDbEntity
  8
2
  6
Continuous
 62
     7
370
     9
100
AcDbCircle
 10
566.0
 20
266.9284342337951
 30
0.0
 40
1.632547593562683
210
0.0
220
0.0
230
-1.0
  0
LINE
  5
387
330
227
100
AcDbEntity
  8
2
  6
Continuous
 62
     7
370
     9
100
AcDbLine
 10
-799.7585752160204
 20
197.9284342337951
 30
0.0
 11
-799.7585752160204
 21
194.9191743336129
 31
0.0
  0
ARC
  5
388
330
227
100
AcDbEntity
  8
2
  6
Continuous
 62
     7
370
     9
100
AcDbCircle
 10
-566.0
 20
121.2784342337952
 30
0.0
 40
1.304389182723131
100
AcDbArc
 50
0.0
 51
179.9999999999997
  0
LINE
  5
389
330
227
100
AcDbEntity
  8
2
  6
Continuous
 62
     7
370
     9
100
AcDbLine
 10
-567.3043891827232
 20
113.7529883572346
 30
0.0
 11
-567.3043891827232
 21
114.9004324009699
 31
0.0
  0
LINE
  5
38A
330
227
100
AcDbEntity
  8
2
  6
Continuous
 62
     7
370
     9
100
AcDbLine
 10
-567.3043891827232
 20
118.5889403079749
 30
0.0
 11
-567.3043891827232
 21
121.2784342337952
 31
0.0
  0
LINE
  5
38B
330
227
100
AcDbEntity
  8
2
  6
Continuous
 62
     7
370
     9
100
AcDbLine
 10
-572.2414247839797
 20
194.9191743336129
 30
0.0
 11
-572.0492662216275
 21
194.8513329505773
 31
0.0
  0
ARC
  5
38C
330
227
100
AcDbEntity
  8
2
  6
Continuous
 62
     7
370
     9
100
AcDbCircle
 10
-566.0
 20
189.9284342337951
 30
0.0
 40
7.799266221627361
100
AcDbArc
 50
140.8612702624106
 51
39.13872973758941
  0
LINE
  5
38D
330
227
100
AcDbEntity
  8
2
  6
Continuous
 62
     7
370
     9
100
AcDbLine
 10
-559.7585752160204
 20
194.9191743336129
 30
0.0
 11
-559.9507337783728
 21
194.8513329505773
 31
0.0
  0
LINE
  5
38E
330
227
100
AcDbEntity
  8
2
  6
Continuous
 62
     7
370
     9
100
AcDbLine
 10
-572.0492662216275
 20
194.8513329505773
 30
0.0
 11
-572.0492662216275
 21
197.9284342337951
 31
0.0
  0
LINE
  5
38F
330
227
100
AcDbEntity
  8
2
  6
Continuous
 62
     7
370
     9
100
AcDbLine
 10
-799.7585752160204
 20
194.9191743336129
 30
0.0
 11
-799.9507337783728
 21
194.8513329505773
 31
0.0
  0
LINE
  5
390
330
227
100
AcDbEntity
  8
2
  6
Continuous
 62
     7
370
     9
100
AcDbLine
 10
-799.9507337783728
 20
194.8513329505773
 30
0.0
 11
-799.9507337783728
 21
197.9284342337951
 31
0.0
  0
ARC
  5
391
330
227
100
AcDbEntity
  8
2
  6
Continuous
 62
     7
370
     9
100
AcDbCircle
 10
-566.0
 20
197.9284342337951
 30
0.0
 40
6.04926622162727
100
AcDbArc
 50
0.0000000000002629
 51
179.9999999999996
  0
LINE
  5
392
330
227
100
AcDbEntity
  8
2
  6
Continuous
 62
     7
370
     9
100
AcDbLine
 10
-807.3043891827233
 20
113.7542268105061
 30
0.0
 11
-807.3043891827233
 21
114.9016708542414
 31
0.0
  0
LINE
  5
393
330
227
100
AcDbEntity
  8
2
  6
Continuous
 62
     7
370
     9
100
AcDbLine
 10
-807.3043891827233
 20
118.5901787612464
 30
0.0
 11
-807.3043891827233
 21
121.2784342337952
 31
0.0
  0
LINE
  5
394
330
227
100
AcDbEntity
  8
2
  6
Continuous
 62
     7
370
     9
100
AcDbLine
 10
-804.695610817277
 20
113.7529883572346
 30
0.0
 11
-804.695610817277
 21
114.9004324009699
 31
0.0
  0
LINE
  5
395
330
227
100
AcDbEntity
  8
2
  6
Continuous
 62
     7
370
     9
100
AcDbLine
 10
-804.695610817277
 20
118.5889403079749
 30
0.0
 11
-804.695610817277
 21
121.2784342337952
 31
0.0
  0
LINE
  5
396
330
227
100
AcDbEntity
  8
2
  6
Continuous
 62
     7
370
     9
100
AcDbLine
 10
-812.0492662216274
 20
194.8513329505773
 30
0.0
 11
-812.0492662216274
 21
197.9284342337951
 31
0.0
  0
LINE
  5
397
330
227
100
AcDbEntity
  8
2
  6
Continuous
 62
     7
370
     9
100
AcDbLine
 10
-812.2414247839797
 20
194.9191743336129
 30
0.0
 11
-812.0492662216274
 21
194.8513329505773
 31
0.0
  0
ARC
  5
398
330
227
100
AcDbEntity
  8
2
  6
Continuous
 62
     7
370
     9
100
AcDbCircle
 10
806.0000000000001
 20
189.9284342337951
 30
0.0
 40
7.799266221627361
210
0.0
220
0.0
230
-1.0
100
AcDbArc
 50
140.8612702624105
 51
39.13872973758941
  0
ARC
  5
399
330
227
100
AcDbEntity
  8
2
  6
Continuous
 62
     7
370
     9
100
AcDbCircle
 10
806.0000000000001
 20
121.2784342337952
 30
0.0
 40
1.304389182723131
210
0.0
220
0.0
230
-1.0
100
AcDbArc
 50
0.0
 51
179.9999999999997
  0
LINE
  5
39A
330
227
100
AcDbEntity
  8
2
  6
Continuous
 62
     7
370
     9
100
AcDbLine
 10
-564.6956108172769
 20
113.7542268105061
 30
0.0
 11
-564.6956108172769
 21
114.9016708542414
 31
0.0
  0
LINE
  5
39B
330
227
100
AcDbEntity
  8
2
  6
Continuous
 62
     7
370
     9
100
AcDbLine
 10
-564.6956108172769
 20
118.5901787612464
 30
0.0
 11
-564.6956108172769
 21
121.2784342337952
 31
0.0
  0
LINE
  5
39C
330
227
100
AcDbEntity
  8
2
  6
Continuous
 62
     7
370
     9
100
AcDbLine
 10
-559.9507337783728
 20
194.8513329505773
 30
0.0
 11
-559.9507337783728
 21
197.9284342337951
 31
0.0
  0
ARC
  5
39D
330
227
100
AcDbEntity
  8
2
  6
Continuous
 62
     7
370
     9
100
AcDbCircle
 10
806.0000000000001
 20
197.9284342337951
 30
0.0
 40
6.04926622162727
210
0.0
220
0.0
230
-1.0
100
AcDbArc
 50
0.0000000000002629
 51
179.9999999999996
  0
CIRCLE
  5
39E
330
227
100
AcDbEntity
  8
2
  6
Continuous
 62
     7
370
     9
100
AcDbCircle
 10
806.0000000000001
 20
287.9284342337951
 30
0.0
 40
1.304389182723131
210
0.0
220
0.0
230
-1.0
  0
CIRCLE
  5
39F
330
227
100
AcDbEntity
  8
2
  6
Continuous
 62
     7
370
     9
100
AcDbCircle
 10
-566.0
 20
287.9284342337951
 30
0.0
 40
1.304389182723131
  0
CIRCLE
  5
3A0
330
227
100
AcDbEntity
  8
2
  6
Continuous
 62
     7
370
     9
100
AcDbCircle
 10
806.0000000000001
 20
252.9284342337951
 30
0.0
 40
1.304389182723131
210
0.0
220
0.0
230
-1.0
  0
CIRCLE
  5
3A1
330
227
100
AcDbEntity
  8
2
  6
Continuous
 62
     7
370
     9
100
AcDbCircle
 10
806.0000000000001
 20
266.9284342337951
 30
0.0
 40
1.304389182723131
210
0.0
220
0.0
230
-1.0
  0
CIRCLE
  5
3A2
330
227
100
AcDbEntity
  8
2
  6
Continuous
 62
     7
370
     9
100
AcDbCircle
 10
-566.0
 20
266.9284342337951
 30
0.0
 40
1.304389182723131
  0
CIRCLE
  5
3A3
330
227
100
AcDbEntity
  8
2
  6
Continuous
 62
     7
370
     9
100
AcDbCircle
 10
806.0000000000001
 20
294.9284342337951
 30
0.0
 40
1.304389182723131
210
0.0
220
0.0
230
-1.0
  0
CIRCLE
  5
3A4
330
227
100
AcDbEntity
  8
2
  6
Continuous
 62
     7
370
     9
100
AcDbCircle
 10
-566.0
 20
294.9284342337951
 30
0.0
 40
1.304389182723131
  0
CIRCLE
  5
3A5
330
227
100
AcDbEntity
  8
2
  6
Continuous
 62
     7
370
     9
100
AcDbCircle
 10
806.0000000000001
 20
280.9284342337951
 30
0.0
 40
1.304389182723131
210
0.0
220
0.0
230
-1.0
  0
CIRCLE
  5
3A6
330
227
100
AcDbEntity
  8
2
  6
Continuous
 62
     7
370
     9
100
AcDbCircle
 10
-566.0
 20
252.9284342337951
 30
0.0
 40
1.304389182723131
  0
CIRCLE
  5
3A7
330
227
100
AcDbEntity
  8
2
  6
Continuous
 62
     7
370
     9
100
AcDbCircle
 10
-566.0
 20
280.9284342337951
 30
0.0
 40
1.304389182723131
  0
LINE
  5
3A8
330
227
100
AcDbEntity
  8
2
  6
Continuous
 62
     7
370
     9
100
AcDbLine
 10
-571.84577574034
 20
194.7784564080939
 30
0.0
 11
-572.0492662216275
 21
194.8513329505773
 31
0.0
  0
ARC
  5
3A9
330
227
100
AcDbEntity
  8
2
  6
Continuous
 62
     7
370
     9
100
AcDbCircle
 10
566.0
 20
189.9284342337951
 30
0.0
 40
7.595775740339851
210
0.0
220
0.0
230
-1.0
100
AcDbArc
 50
140.3187710959365
 51
39.68122890406352
  0
LINE
  5
3AA
330
227
100
AcDbEntity
  8
2
  6
Continuous
 62
     7
370
     9
100
AcDbLine
 10
-560.1542242596602
 20
194.7784564080939
 30
0.0
 11
-559.9507337783728
 21
194.8513329505773
 31
0.0
  0
LINE
  5
3AB
330
227
100
AcDbEntity
  8
2
  6
Continuous
 62
     7
370
     9
100
AcDbLine
 10
-560.1542242596602
 20
197.9284342337951
 30
0.0
 11
-560.1542242596602
 21
194.7784564080939
 31
0.0
  0
ARC
  5
3AC
330
227
100
AcDbEntity
  8
2
  6
Continuous
 62
     7
370
     9
100
AcDbCircle
 10
-806.0000000000001
 20
197.9284342337951
 30
0.0
 40
5.845775740339842
100
AcDbArc
 50
0.000000000000272
 51
179.9999999999997
  0
LINE
  5
3AD
330
227
100
AcDbEntity
  8
2
  6
Continuous
 62
     7
370
     9
100
AcDbLine
 10
-811.84577574034
 20
194.7784564080939
 30
0.0
 11
-812.0492662216274
 21
194.8513329505773
 31
0.0
  0
ARC
  5
3AE
330
227
100
AcDbEntity
  8
2
  6
Continuous
 62
     7
370
     9
100
AcDbCircle
 10
-806.0000000000001
 20
189.9284342337951
 30
0.0
 40
7.595775740339851
100
AcDbArc
 50
140.3187710959365
 51
39.68122890406357
  0
LINE
  5
3AF
330
227
100
AcDbEntity
  8
2
  6
Continuous
 62
     7
370
     9
100
AcDbLine
 10
-800.1542242596603
 20
194.7784564080939
 30
0.0
 11
-799.9507337783728
 21
194.8513329505773
 31
0.0
  0
LINE
  5
3B0
330
227
100
AcDbEntity
  8
2
  6
Continuous
 62
     7
370
     9
100
AcDbLine
 10
-571.84577574034
 20
197.9284342337951
 30
0.0
 11
-571.84577574034
 21
194.7784564080939
 31
0.0
  0
LINE
  5
3B1
330
227
100
AcDbEntity
  8
2
  6
Continuous
 62
     7
370
     9
100
AcDbLine
 10
-811.84577574034
 20
197.9284342337951
 30
0.0
 11
-811.84577574034
 21
194.7784564080939
 31
0.0
  0
LINE
  5
3B2
330
227
100
AcDbEntity
  8
2
  6
Continuous
 62
     7
370
     9
100
AcDbLine
 10
-800.1542242596603
 20
197.9284342337951
 30
0.0
 11
-800.1542242596603
 21
194.7784564080939
 31
0.0
  0
ARC
  5
3B3
330
227
100
AcDbEntity
  8
2
  6
Continuous
 62
     7
370
     9
100
AcDbCircle
 10
566.0
 20
197.9284342337951
 30
0.0
 40
5.845775740339842
210
0.0
220
0.0
230
-1.0
100
AcDbArc
 50
0.000000000000272
 51
179.9999999999997
  0
LINE
  5
3B4
330
227
100
AcDbEntity
  8
2
  6
Continuous
 62
     7
370
     9
100
AcDbLine
 10
-809.2465095187126
 20
193.7264973343101
 30
0.0
 11
-809.45
 21
193.8191282592872
 31
0.0
  0
ARC
  5
3B5
330
227
100
AcDbEntity
  8
2
  6
Continuous
 62
     7
370
     9
100
AcDbCircle
 10
-806.0000000000001
 20
189.9284342337951
 30
0.0
 40
4.996509518712505
100
AcDbArc
 50
130.5231698278094
 51
49.47683017219061
  0
LINE
  5
3B6
330
227
100
AcDbEntity
  8
2
  6
Continuous
 62
     7
370
     9
100
AcDbLine
 10
-802.7534904812876
 20
193.7264973343101
 30
0.0
 11
-802.5500000000001
 21
193.8191282592872
 31
0.0
  0
ARC
  5
3B7
330
227
100
AcDbEntity
  8
2
  6
Continuous
 62
     7
370
     9
100
AcDbCircle
 10
806.0000000000001
 20
189.9284342337951
 30
0.0
 40
5.200000000000021
210
0.0
220
0.0
230
-1.0
100
AcDbArc
 50
131.5644067938447
 51
48.43559320615543
  0
ARC
  5
3B8
330
227
100
AcDbEntity
  8
2
  6
Continuous
 62
     7
370
     9
100
AcDbCircle
 10
-566.0
 20
197.9284342337951
 30
0.0
 40
3.449999999999953
100
AcDbArc
 50
0.0
 51
180.0
  0
ARC
  5
3B9
330
227
100
AcDbEntity
  8
2
  6
Continuous
 62
     7
370
     9
100
AcDbCircle
 10
566.0
 20
197.9284342337951
 30
0.0
 40
3.246509518712637
210
0.0
220
0.0
230
-1.0
100
AcDbArc
 50
0.0
 51
179.9999999999999
  0
LINE
  5
3BA
330
227
100
AcDbEntity
  8
2
  6
Continuous
 62
     7
370
     9
100
AcDbLine
 10
-569.2465095187126
 20
197.9284342337951
 30
0.0
 11
-569.2465095187126
 21
193.7264973343101
 31
0.0
  0
LINE
  5
3BB
330
227
100
AcDbEntity
  8
2
  6
Continuous
 62
     7
370
     9
100
AcDbLine
 10
-569.2465095187126
 20
193.7264973343101
 30
0.0
 11
-569.4500000000002
 21
193.8191282592872
 31
0.0
  0
LINE
  5
3BC
330
227
100
AcDbEntity
  8
2
  6
Continuous
 62
     7
370
     9
100
AcDbLine
 10
-569.4500000000002
 20
193.8191282592872
 30
0.0
 11
-569.4500000000002
 21
197.9284342337951
 31
0.0
  0
LINE
  5
3BD
330
227
100
AcDbEntity
  8
2
  6
Continuous
 62
     7
370
     9
100
AcDbLine
 10
-809.2465095187126
 20
197.9284342337951
 30
0.0
 11
-809.2465095187126
 21
193.7264973343101
 31
0.0
  0
LINE
  5
3BE
330
227
100
AcDbEntity
  8
2
  6
Continuous
 62
     7
370
     9
100
AcDbLine
 10
-809.45
 20
193.8191282592872
 30
0.0
 11
-809.45
 21
197.9284342337951
 31
0.0
  0
ARC
  5
3BF
330
227
100
AcDbEntity
  8
2
  6
Continuous
 62
     7
370
     9
100
AcDbCircle
 10
806.0000000000001
 20
197.9284342337951
 30
0.0
 40
3.449999999999953
210
0.0
220
0.0
230
-1.0
100
AcDbArc
 50
0.0
 51
180.0
  0
ARC
  5
3C0
330
227
100
AcDbEntity
  8
2
  6
Continuous
 62
     7
370
     9
100
AcDbCircle
 10
-806.0000000000001
 20
197.9284342337951
 30
0.0
 40
3.246509518712526
100
AcDbArc
 50
0.0
 51
179.9999999999999
  0
LINE
  5
3C1
330
227
100
AcDbEntity
  8
2
  6
Continuous
 62
     7
370
     9
100
AcDbLine
 10
-802.5500000000001
 20
193.8191282592872
 30
0.0
 11
-802.5500000000001
 21
197.9284342337951
 31
0.0
  0
LINE
  5
3C2
330
227
100
AcDbEntity
  8
2
  6
Continuous
 62
     7
370
     9
100
AcDbLine
 10
-802.7534904812876
 20
197.9284342337951
 30
0.0
 11
-802.7534904812876
 21
193.7264973343101
 31
0.0
  0
LINE
  5
3C3
330
227
100
AcDbEntity
  8
2
  6
Continuous
 62
     7
370
     9
100
AcDbLine
 10
-562.5500000000001
 20
193.8191282592872
 30
0.0
 11
-562.5500000000001
 21
197.9284342337951
 31
0.0
  0
LINE
  5
3C4
330
227
100
AcDbEntity
  8
2
  6
Continuous
 62
     7
370
     9
100
AcDbLine
 10
-562.7534904812875
 20
193.7264973343101
 30
0.0
 11
-562.5500000000001
 21
193.8191282592872
 31
0.0
  0
LINE
  5
3C5
330
227
100
AcDbEntity
  8
2
  6
Continuous
 62
     7
370
     9
100
AcDbLine
 10
-562.7534904812875
 20
197.9284342337951
 30
0.0
 11
-562.7534904812875
 21
193.7264973343101
 31
0.0
  0
ARC
  5
3C6
330
227
100
AcDbEntity
  8
2
  6
Continuous
 62
     7
370
     9
100
AcDbCircle
 10
-566.0
 20
189.9284342337951
 30
0.0
 40
5.200000000000021
100
AcDbArc
 50
131.5644067938447
 51
48.43559320615538
  0
ARC
  5
3C7
330
227
100
AcDbEntity
  8
2
  6
Continuous
 62
     7
370
     9
100
AcDbCircle
 10
566.0
 20
189.9284342337951
 30
0.0
 40
4.996509518712505
210
0.0
220
0.0
230
-1.0
100
AcDbArc
 50
130.5231698278095
 51
49.47683017219061
  0
LINE
  5
3C8
330
227
100
AcDbEntity
  8
2
  6
Continuous
 62
     7
370
     9
100
AcDbLine
 10
-809.0230841559332
 20
197.9284342337951
 30
0.0
 11
-809.0230841559332
 21
193.6221172935291
 31
0.0
  0
LINE
  5
3C9
330
227
100
AcDbEntity
  8
2
  6
Continuous
 62
     7
370
     9
100
AcDbLine
 10
-809.2465095187126
 20
193.7264973343101
 30
0.0
 11
-809.0230841559332
 21
193.6221172935291
 31
0.0
  0
LINE
  5
3CA
330
227
100
AcDbEntity
  8
2
  6
Continuous
 62
     7
370
     9
100
AcDbLine
 10
-802.7534904812876
 20
193.7264973343101
 30
0.0
 11
-802.976915844067
 21
193.6221172935291
 31
0.0
  0
LINE
  5
3CB
330
227
100
AcDbEntity
  8
2
  6
Continuous
 62
     7
370
     9
100
AcDbLine
 10
-802.976915844067
 20
197.9284342337951
 30
0.0
 11
-802.976915844067
 21
193.6221172935291
 31
0.0
  0
ARC
  5
3CC
330
227
100
AcDbEntity
  8
2
  6
Continuous
 62
     7
370
     9
100
AcDbCircle
 10
-806.0000000000001
 20
197.9284342337951
 30
0.0
 40
3.02308415593322
100
AcDbArc
 50
0.0
 51
179.9999999999994
  0
LINE
  5
3CD
330
227
100
AcDbEntity
  8
2
  6
Continuous
 62
     7
370
     9
100
AcDbLine
 10
-569.0230841559332
 20
197.9284342337951
 30
0.0
 11
-569.0230841559332
 21
193.6221172935291
 31
0.0
  0
LINE
  5
3CE
330
227
100
AcDbEntity
  8
2
  6
Continuous
 62
     7
370
     9
100
AcDbLine
 10
-569.2465095187126
 20
193.7264973343101
 30
0.0
 11
-569.0230841559332
 21
193.6221172935291
 31
0.0
  0
LINE
  5
3CF
330
227
100
AcDbEntity
  8
2
  6
Continuous
 62
     7
370
     9
100
AcDbLine
 10
-562.7534904812875
 20
193.7264973343101
 30
0.0
 11
-562.976915844067
 21
193.6221172935291
 31
0.0
  0
LINE
  5
3D0
330
227
100
AcDbEntity
  8
2
  6
Continuous
 62
     7
370
     9
100
AcDbLine
 10
-562.976915844067
 20
197.9284342337951
 30
0.0
 11
-562.976915844067
 21
193.6221172935291
 31
0.0
  0
ARC
  5
3D1
330
227
100
AcDbEntity
  8
2
  6
Continuous
 62
     7
370
     9
100
AcDbCircle
 10
566.0
 20
197.9284342337951
 30
0.0
 40
3.02308415593322
210
0.0
220
0.0
230
-1.0
100
AcDbArc
 50
0.0
 51
179.9999999999994
  0
ARC
  5
3D2
330
227
100
AcDbEntity
  8
2
  6
Continuous
 62
     7
370
     9
100
AcDbCircle
 10
-806.0000000000001
 20
189.9284342337951
 30
0.0
 40
4.773084155933113
100
AcDbArc
 50
129.2985100438733
 51
50.70148995612675
  0
ARC
  5
3D3
330
227
100
AcDbEntity
  8
2
  6
Continuous
 62
     7
370
     9
100
AcDbCircle
 10
566.0
 20
189.9284342337951
 30
0.0
 40
4.773084155933113
210
0.0
220
0.0
230
-1.0
100
AcDbArc
 50
129.2985100438732
 51
50.7014899561268
  0
CIRCLE
  5
3D4
330
227
100
AcDbEntity
  8
2
  6
Continuous
 62
     7
370
     9
100
AcDbCircle
 10
-806.0000000000001
 20
294.9284342337951
 30
0.0
 40
1.100898701435704
  0
CIRCLE
  5
3D5
330
227
100
AcDbEntity
  8
2
  6
Continuous
 62
     7
370
     9
100
AcDbCircle
 10
-806.0000000000001
 20
287.9284342337951
 30
0.0
 40
1.100898701435704
  0
CIRCLE
  5
3D6
330
227
100
AcDbEntity
  8
2
  6
Continuous
 62
     7
370
     9
100
AcDbCircle
 10
566.0
 20
252.9284342337951
 30
0.0
 40
1.100898701435593
210
0.0
220
0.0
230
-1.0
  0
CIRCLE
  5
3D7
330
227
100
AcDbEntity
  8
2
  6
Continuous
 62
     7
370
     9
100
AcDbCircle
 10
566.0
 20
266.9284342337951
 30
0.0
 40
1.100898701435593
210
0.0
220
0.0
230
-1.0
  0
CIRCLE
  5
3D8
330
227
100
AcDbEntity
  8
2
  6
Continuous
 62
     7
370
     9
100
AcDbCircle
 10
566.0
 20
287.9284342337951
 30
0.0
 40
1.100898701435593
210
0.0
220
0.0
230
-1.0
  0
CIRCLE
  5
3D9
330
227
100
AcDbEntity
  8
2
  6
Continuous
 62
     7
370
     9
100
AcDbCircle
 10
566.0
 20
280.9284342337951
 30
0.0
 40
1.100898701435593
210
0.0
220
0.0
230
-1.0
  0
CIRCLE
  5
3DA
330
227
100
AcDbEntity
  8
2
  6
Continuous
 62
     7
370
     9
100
AcDbCircle
 10
-806.0000000000001
 20
280.9284342337951
 30
0.0
 40
1.100898701435704
  0
CIRCLE
  5
3DB
330
227
100
AcDbEntity
  8
2
  6
Continuous
 62
     7
370
     9
100
AcDbCircle
 10
566.0
 20
294.9284342337951
 30
0.0
 40
1.100898701435593
210
0.0
220
0.0
230
-1.0
  0
CIRCLE
  5
3DC
330
227
100
AcDbEntity
  8
2
  6
Continuous
 62
     7
370
     9
100
AcDbCircle
 10
-806.0000000000001
 20
266.9284342337951
 30
0.0
 40
1.100898701435704
  0
CIRCLE
  5
3DD
330
227
100
AcDbEntity
  8
2
  6
Continuous
 62
     7
370
     9
100
AcDbCircle
 10
-806.0000000000001
 20
252.9284342337951
 30
0.0
 40
1.100898701435704
  0
LINE
  5
3DE
330
227
100
AcDbEntity
  8
2
  6
Continuous
 62
     7
370
     9
100
AcDbLine
 10
-807.1008987014358
 20
121.2784342337952
 30
0.0
 11
-807.1008987014358
 21
118.5900821591527
 31
0.0
  0
LINE
  5
3DF
330
227
100
AcDbEntity
  8
2
  6
Continuous
 62
     7
370
     9
100
AcDbLine
 10
-807.1008987014358
 20
114.9015742521476
 30
0.0
 11
-807.1008987014358
 21
113.7541302084123
 31
0.0
  0
LINE
  5
3E0
330
227
100
AcDbEntity
  8
2
  6
Continuous
 62
     7
370
     9
100
AcDbLine
 10
-804.8991012985645
 20
121.2784342337952
 30
0.0
 11
-804.8991012985645
 21
118.5890369100687
 31
0.0
  0
LINE
  5
3E1
330
227
100
AcDbEntity
  8
2
  6
Continuous
 62
     7
370
     9
100
AcDbLine
 10
-804.8991012985645
 20
114.9005290030636
 30
0.0
 11
-804.8991012985645
 21
113.7530849593283
 31
0.0
  0
LINE
  5
3E2
330
227
100
AcDbEntity
  8
2
  6
Continuous
 62
     7
370
     9
100
AcDbLine
 10
-567.1008987014358
 20
121.2784342337952
 30
0.0
 11
-567.1008987014358
 21
118.5890369100687
 31
0.0
  0
LINE
  5
3E3
330
227
100
AcDbEntity
  8
2
  6
Continuous
 62
     7
370
     9
100
AcDbLine
 10
-567.1008987014357
 20
114.9005290030636
 30
0.0
 11
-567.1008987014357
 21
113.7530849593283
 31
0.0
  0
ARC
  5
3E4
330
227
100
AcDbEntity
  8
2
  6
Continuous
 62
     7
370
     9
100
AcDbCircle
 10
-806.0000000000001
 20
121.2784342337952
 30
0.0
 40
1.100898701435704
100
AcDbArc
 50
0.0
 51
180.0
  0
LINE
  5
3E5
330
227
100
AcDbEntity
  8
2
  6
Continuous
 62
     7
370
     9
100
AcDbLine
 10
-564.8991012985645
 20
121.2784342337952
 30
0.0
 11
-564.8991012985645
 21
118.5900821591527
 31
0.0
  0
LINE
  5
3E6
330
227
100
AcDbEntity
  8
2
  6
Continuous
 62
     7
370
     9
100
AcDbLine
 10
-564.8991012985645
 20
114.9015742521476
 30
0.0
 11
-564.8991012985645
 21
113.7541302084123
 31
0.0
  0
ARC
  5
3E7
330
227
100
AcDbEntity
  8
2
  6
Continuous
 62
     7
370
     9
100
AcDbCircle
 10
566.0
 20
121.2784342337952
 30
0.0
 40
1.100898701435704
210
0.0
220
0.0
230
-1.0
100
AcDbArc
 50
0.0
 51
180.0
  0
ELLIPSE
  5
3E8
330
227
100
AcDbEntity
  8
2
  6
Continuous
 62
     7
370
     9
100
AcDbEllipse
 10
-919.0854473881144
 20
-73.15701315431906
 30
0.0
 11
8.487866270035019
 21
8.487866270035019
 31
0.0
210
0.0
220
0.0
230
-1.0
 40
0.9996954598818799
 41
2.356346783439927
 42
3.926838523739659
  0
ELLIPSE
  5
3E9
330
227
100
AcDbEntity
  8
2
  6
Continuous
 62
     7
370
     9
100
AcDbEllipse
 10
-452.9145526118858
 20
-73.15701315431906
 30
0.0
 11
-8.487866270034964
 21
8.487866270034964
 31
0.0
210
0.0
220
0.0
230
1.0
 40
0.9996954598818898
 41
2.356346783439927
 42
3.926838523739659
  0
ELLIPSE
  5
3EA
330
227
100
AcDbEntity
  8
2
  6
Continuous
 62
     7
370
     9
100
AcDbEllipse
 10
-452.9145526118858
 20
318.5138816219093
 30
0.0
 11
8.487866270034978
 21
8.487866270034978
 31
0.0
210
0.0
220
0.0
230
-1.0
 40
0.9996954598818898
 41
5.497939437029714
 42
7.068431177329454
  0
ELLIPSE
  5
3EB
330
227
100
AcDbEntity
  8
2
  6
Continuous
 62
     7
370
     9
100
AcDbEllipse
 10
-919.0854473881143
 20
318.5138816219093
 30
0.0
 11
-8.487866270035033
 21
8.487866270035033
 31
0.0
210
0.0
220
0.0
230
-1.0
 40
0.9996954598818866
 41
5.49793943702972
 42
7.068431177329454
  0
LINE
  5
3EC
330
227
100
AcDbEntity
  8
2
  6
Continuous
 62
     7
370
     9
100
AcDbLine
 10
-919.0891029827645
 20
330.5157095584362
 30
0.0
 11
-452.9108970172358
 21
330.5157095584362
 31
0.0
  0
LINE
  5
3ED
330
227
100
AcDbEntity
  8
2
  6
Continuous
 62
     7
370
     9
100
AcDbLine
 10
-669.5000000000001
 20
-85.158841090846
 30
0.0
 11
-669.4685808831293
 21
-85.1274219739752
 31
0.0
  0
LINE
  5
3EE
330
227
100
AcDbEntity
  8
2
  6
Continuous
 62
     7
370
     9
100
AcDbLine
 10
-678.0558562077691
 20
-85.158841090846
 30
0.0
 11
-669.5000000000001
 21
-85.158841090846
 31
0.0
  0
LINE
  5
3EF
330
227
100
AcDbEntity
  8
2
  6
Continuous
 62
     7
370
     9
100
AcDbLine
 10
-644.5000000000001
 20
-85.158841090846
 30
0.0
 11
-452.9108970172356
 21
-85.158841090846
 31
0.0
  0
LINE
  5
3F0
330
227
100
AcDbEntity
  8
2
  6
Continuous
 62
     7
370
     9
100
AcDbLine
 10
-644.5000000000001
 20
-85.158841090846
 30
0.0
 11
-644.5314191168709
 21
-85.1274219739752
 31
0.0
  0
LINE
  5
3F1
330
227
100
AcDbEntity
  8
2
  6
Continuous
 62
     7
370
     9
100
AcDbLine
 10
-644.5314191168709
 20
-85.1274219739752
 30
0.0
 11
-669.4685808831293
 21
-85.1274219739752
 31
0.0
  0
LINE
  5
3F2
330
227
100
AcDbEntity
  8
2
  6
Continuous
 62
     7
370
     9
100
AcDbLine
 10
-727.5000000000001
 20
-85.158841090846
 30
0.0
 11
-727.4685808831292
 21
-85.1274219739752
 31
0.0
  0
LINE
  5
3F3
330
227
100
AcDbEntity
  8
2
  6
Continuous
 62
     7
370
     9
100
AcDbLine
 10
-919.0891029827645
 20
-85.158841090846
 30
0.0
 11
-727.5000000000001
 21
-85.158841090846
 31
0.0
  0
LINE
  5
3F4
330
227
100
AcDbEntity
  8
2
  6
Continuous
 62
     7
370
     9
100
AcDbLine
 10
-702.5000000000001
 20
-85.158841090846
 30
0.0
 11
-693.9441437922287
 21
-85.158841090846
 31
0.0
  0
LINE
  5
3F5
330
227
100
AcDbEntity
  8
2
  6
Continuous
 62
     7
370
     9
100
AcDbLine
 10
-702.5000000000001
 20
-85.158841090846
 30
0.0
 11
-702.5314191168709
 21
-85.1274219739752
 31
0.0
  0
LINE
  5
3F6
330
227
100
AcDbEntity
  8
2
  6
Continuous
 62
     7
370
     9
100
AcDbLine
 10
-727.4685808831292
 20
-85.1274219739752
 30
0.0
 11
-702.5314191168709
 21
-85.1274219739752
 31
0.0
  0
LINE
  5
3F7
330
227
100
AcDbEntity
  8
2
  6
Continuous
 62
     7
370
     9
100
AcDbLine
 10
-931.0872753246412
 20
318.5175372165595
 30
0.0
 11
-931.0872753246413
 21
-73.16066874896931
 31
0.0
  0
LINE
  5
3F8
330
227
100
AcDbEntity
  8
2
  6
Continuous
 62
     7
370
     9
100
AcDbLine
 10
-440.912724675359
 20
318.5175372165595
 30
0.0
 11
-440.9127246753589
 21
-73.16066874896931
 31
0.0
  0
LINE
  5
3F9
330
227
100
AcDbEntity
  8
2
  6
Continuous
 62
     7
370
     9
100
AcDbLine
 10
-557.5029491944254
 20
108.2552027981985
 30
0.0
 11
-557.5065909947017
 21
108.4107300870552
 31
0.0
  0
LINE
  5
3FA
330
227
100
AcDbEntity
  8
2
  6
Continuous
 62
     7
370
     9
100
AcDbLine
 10
-563.0064421389617
 20
113.7550287017298
 30
0.0
 11
-570.0064213321232
 21
113.7517056340261
 31
0.0
  0
LINE
  5
3FB
330
227
100
AcDbEntity
  8
2
  6
Continuous
 62
     7
370
     9
100
AcDbLine
 10
-546.7113440888411
 20
111.5896166859397
 30
0.0
 11
-546.7161998225428
 21
111.7969864044152
 31
0.0
  0
LINE
  5
3FC
330
227
100
AcDbEntity
  8
2
  6
Continuous
 62
     7
370
     9
100
AcDbLine
 10
-814.4934090052986
 20
108.4107300870552
 30
0.0
 11
-814.497050805575
 21
108.2552027981985
 31
0.0
  0
LINE
  5
3FD
330
227
100
AcDbEntity
  8
2
  6
Continuous
 62
     7
370
     9
100
AcDbLine
 10
-801.9935786678772
 20
113.7517056340261
 30
0.0
 11
-808.9935578610387
 21
113.7550287017298
 31
0.0
  0
LINE
  5
3FE
330
227
100
AcDbEntity
  8
2
  6
Continuous
 62
     7
370
     9
100
AcDbLine
 10
-825.2838001774574
 20
111.7969864044152
 30
0.0
 11
-825.2886559111591
 21
111.5896166859397
 31
0.0
  0
LINE
  5
3FF
330
227
100
AcDbEntity
  8
2
  6
Continuous
 62
     7
370
     9
100
AcDbLine
 10
-601.0044688132505
 20
-84.19449626114738
 30
0.0
 11
-600.9785156222439
 21
-84.10921537922567
 31
0.0
  0
LINE
  5
400
330
227
100
AcDbEntity
  8
2
  6
Continuous
 62
     7
370
     9
100
AcDbLine
 10
-631.0214843777508
 20
-84.10921537922567
 30
0.0
 11
-630.9955311867441
 21
-84.19449626114738
 31
0.0
  0
LINE
  5
401
330
227
100
AcDbEntity
  8
2
  6
Continuous
 62
     7
370
     9
100
AcDbLine
 10
-501.0044688132514
 20
-84.19449626114738
 30
0.0
 11
-500.9785156222449
 21
-84.10921537922556
 31
0.0
  0
LINE
  5
402
330
227
100
AcDbEntity
  8
2
  6
Continuous
 62
     7
370
     9
100
AcDbLine
 10
-531.0214843777517
 20
-84.10921537922576
 30
0.0
 11
-530.9955311867451
 21
-84.19449626114735
 31
0.0
  0
LINE
  5
403
330
227
100
AcDbEntity
  8
2
  6
Continuous
 62
     7
370
     9
100
AcDbLine
 10
-771.0214843777537
 20
-84.10921537922765
 30
0.0
 11
-770.9955311867471
 21
-84.1944962611494
 31
0.0
  0
LINE
  5
404
330
227
100
AcDbEntity
  8
2
  6
Continuous
 62
     7
370
     9
100
AcDbLine
 10
-741.0044688132531
 20
-84.1944962611494
 30
0.0
 11
-740.9785156222466
 21
-84.10921537922765
 31
0.0
  0
LINE
  5
405
330
227
100
AcDbEntity
  8
2
  6
Continuous
 62
     7
370
     9
100
AcDbLine
 10
-871.0214843777537
 20
-84.10921537922765
 30
0.0
 11
-870.9955311867471
 21
-84.1944962611494
 31
0.0
  0
LINE
  5
406
330
227
100
AcDbEntity
  8
2
  6
Continuous
 62
     7
370
     9
100
AcDbLine
 10
-841.0044688132531
 20
-84.1944962611494
 30
0.0
 11
-840.9785156222465
 21
-84.10921537922765
 31
0.0
  0
ENDBLK
  5
409
330
227
100
AcDbEntity
  8
0
100
AcDbBlockEnd
  0
ENDSEC
  0
SECTION
  2
ENTITIES
  0
LINE
  5
70
330
1F
100
AcDbEntity
  8
2
  6
CENTER
 62
     1
370
     9
100
AcDbLine
 10
-805.4999999999997
 20
345.0410459382438
 30
0.0
 11
-805.4999999999997
 21
61.44104877412973
 31
0.0
  0
LINE
  5
72
330
1F
100
AcDbEntity
  8
2
  6
CENTER
 62
     1
370
     9
100
AcDbLine
 10
-685.9999999999989
 20
-262.8474010772471
 30
0.0
 11
-685.9999999999989
 21
-541.1834295915456
 31
0.0
  0
LINE
  5
73
330
1F
100
AcDbEntity
  8
2
  6
CENTER
 62
     1
370
     9
100
AcDbLine
 10
-566.499999999998
 20
345.0410459382438
 30
0.0
 11
-566.499999999998
 21
61.4410487743571
 31
0.0
  0
LINE
  5
74
330
1F
100
AcDbEntity
  8
2
  6
CENTER
 62
     1
370
     9
100
AcDbLine
 10
-686.0000000000001
 20
360.5175372165596
 30
0.0
 11
-686.0000000000001
 21
-115.1606687489694
 31
0.0
  0
INSERT
  5
D0
330
1F
100
AcDbEntity
  8
2
  6
Continuous
 62
     7
370
     9
100
AcDbBlockReference
  2
D_FRAME_VIEW@4272
 10
0.0
 20
0.0
 30
0.0
  0
MTEXT
  5
D1
330
1F
100
AcDbEntity
  8
2
 62
     7
100
AcDbMText
 10
-296.5681818181819
 20
-451.7272727272726
 30
0.0
 40
25.00000000000001
 41
0.0
 46
0.0
 71
     1
 72
     1
  1
{\fＭＳ ゴシック;ＷＰＳ－３Ｗ}
 73
     1
 44
1.0
  0
INSERT
  5
226
330
1F
100
AcDbEntity
  8
2
  6
Continuous
 62
     7
370
     9
100
AcDbBlockReference
  2
D_FRAME_VIEW@3969
 10
0.0
 20
0.0
 30
0.0
  0
INSERT
  5
407
330
1F
100
AcDbEntity
  8
2
  6
Continuous
 62
     7
370
     9
100
AcDbBlockReference
  2
D_FRAME_VIEW@2448
 10
0.0
 20
0.0
 30
0.0
  0
ENDSEC
  0
SECTION
  2
OBJECTS
  0
DICTIONARY
  5
C
330
0
100
AcDbDictionary
281
     1
  3
ACAD_DETAILVIEWSTYLE
350
411
  3
ACAD_GROUP
350
D
  3
ACAD_LAYOUT
350
1A
  3
ACAD_MATERIAL
350
43
  3
ACAD_MLEADERSTYLE
350
6B
  3
ACAD_MLINESTYLE
350
17
  3
ACAD_PLOTSETTINGS
350
19
  3
ACAD_PLOTSTYLENAME
350
E
  3
ACAD_SCALELIST
350
47
  3
ACAD_SECTIONVIEWSTYLE
350
412
  3
ACAD_TABLESTYLE
350
69
  3
ACAD_VISUALSTYLE
350
2A
  3
ACDB_RECOMPOSE_DATA
350
40E
  3
AcDbVariableDictionary
350
40A
  0
SUN
  5
6D
330
29
100
AcDbSun
 90
        1
290
     0
 63
     7
421
 16777215
 40
1.0
291
     1
 91
  2455826
 92
 54000000
292
     0
 70
     2
 71
   256
280
     1
  0
DICTIONARY
  5
411
102
{ACAD_REACTORS
330
C
102
}
330
C
100
AcDbDictionary
281
     1
  0
DICTIONARY
  5
D
102
{ACAD_REACTORS
330
C
102
}
330
C
100
AcDbDictionary
281
     1
  0
DICTIONARY
  5
1A
102
{ACAD_REACTORS
330
C
102
}
330
C
100
AcDbDictionary
281
     1
  3
Layout1
350
1E
  3
Layout2
350
26
  3
Model
350
22
  0
DICTIONARY
  5
43
102
{ACAD_REACTORS
330
C
102
}
330
C
100
AcDbDictionary
281
     1
  3
ByBlock
350
45
  3
ByLayer
350
44
  3
Global
350
46
  0
DICTIONARY
  5
6B
102
{ACAD_REACTORS
330
C
102
}
330
C
100
AcDbDictionary
281
     1
  3
Standard
350
6C
  0
DICTIONARY
  5
17
102
{ACAD_REACTORS
330
C
102
}
330
C
100
AcDbDictionary
281
     1
  3
Standard
350
18
  0
DICTIONARY
  5
19
102
{ACAD_REACTORS
330
C
102
}
330
C
100
AcDbDictionary
281
     1
  0
ACDBDICTIONARYWDFLT
  5
E
102
{ACAD_REACTORS
330
C
102
}
330
C
100
AcDbDictionary
281
     1
  3
Normal
350
F
100
AcDbDictionaryWithDefault
340
F
  0
DICTIONARY
  5
47
102
{ACAD_REACTORS
330
C
102
}
330
C
100
AcDbDictionary
281
     1
  3
A0
350
48
  3
A1
350
49
  3
A2
350
4A
  3
A3
350
4B
  3
A4
350
4C
  3
A5
350
4D
  3
A6
350
4E
  3
A7
350
4F
  3
A8
350
50
  3
A9
350
51
  3
B0
350
52
  3
B1
350
53
  3
B2
350
54
  3
B3
350
55
  3
B4
350
56
  3
B5
350
57
  3
B6
350
58
  3
B7
350
59
  3
B8
350
5A
  3
B9
350
5B
  3
C0
350
5C
  3
C1
350
5D
  3
C2
350
5E
  3
C3
350
5F
  3
C4
350
60
  3
C5
350
61
  3
C6
350
62
  3
C7
350
63
  3
C8
350
64
  3
C9
350
65
  3
D0
350
66
  3
D1
350
67
  3
D2
350
68
  0
DICTIONARY
  5
412
102
{ACAD_REACTORS
330
C
102
}
330
C
100
AcDbDictionary
281
     1
  0
DICTIONARY
  5
69
102
{ACAD_REACTORS
330
C
102
}
330
C
100
AcDbDictionary
281
     1
  3
Standard
350
6A
  0
DICTIONARY
  5
2A
102
{ACAD_REACTORS
330
C
102
}
330
C
100
AcDbDictionary
281
     1
  3
2dWireframe
350
2F
  3
Basic
350
32
  3
Brighten
350
36
  3
ColorChange
350
3A
  3
Conceptual
350
34
  3
Dim
350
35
  3
EdgeColorOff
350
3D
  3
Facepattern
350
39
  3
Flat
350
2B
  3
FlatWithEdges
350
2C
  3
Gouraud
350
2D
  3
GouraudWithEdges
350
2E
  3
Hidden
350
31
  3
JitterOff
350
3B
  3
Linepattern
350
38
  3
OverhangOff
350
3C
  3
Realistic
350
33
  3
Shaded
350
42
  3
Shaded with edges
350
41
  3
Shades of Gray
350
3E
  3
Sketchy
350
3F
  3
Thicken
350
37
  3
Wireframe
350
30
  3
X-Ray
350
40
  0
XRECORD
  5
40E
102
{ACAD_REACTORS
330
C
102
}
330
C
100
AcDbXrecord
280
     1
 90
        1
330
6A
  0
DICTIONARY
  5
40A
102
{ACAD_REACTORS
330
C
102
}
330
C
100
AcDbDictionary
281
     1
  3
CANNOSCALE
350
40B
  3
CMLEADERSTYLE
350
410
  3
CTABLESTYLE
350
40F
  0
LAYOUT
  5
1E
102
{ACAD_REACTORS
330
1A
102
}
330
1A
100
AcDbPlotSettings
  1

  2
none_device
  4

  6

 40
0.0
 41
0.0
 42
0.0
 43
0.0
 44
0.0
 45
0.0
 46
0.0
 47
0.0
 48
0.0
 49
0.0
140
0.0
141
0.0
142
1.0
143
1.0
 70
   688
 72
     0
 73
     0
 74
     5
  7

 75
    16
 76
     0
 77
     2
 78
   300
147
1.0
148
0.0
149
0.0
100
AcDbLayout
  1
Layout1
 70
     1
 71
     1
 10
0.0
 20
0.0
 11
12.0
 21
9.0
 12
0.0
 22
0.0
 32
0.0
 14
1.000000000000000E+20
 24
1.000000000000000E+20
 34
1.000000000000000E+20
 15
-1.000000000000000E+20
 25
-1.000000000000000E+20
 35
-1.000000000000000E+20
146
0.0
 13
0.0
 23
0.0
 33
0.0
 16
1.0
 26
0.0
 36
0.0
 17
0.0
 27
1.0
 37
0.0
 76
     0
330
1B
  0
LAYOUT
  5
26
102
{ACAD_REACTORS
330
1A
102
}
330
1A
100
AcDbPlotSettings
  1

  2
none_device
  4

  6

 40
0.0
 41
0.0
 42
0.0
 43
0.0
 44
0.0
 45
0.0
 46
0.0
 47
0.0
 48
0.0
 49
0.0
140
0.0
141
0.0
142
1.0
143
1.0
 70
   688
 72
     0
 73
     0
 74
     5
  7

 75
    16
 76
     0
 77
     2
 78
   300
147
1.0
148
0.0
149
0.0
100
AcDbLayout
  1
Layout2
 70
     1
 71
     2
 10
0.0
 20
0.0
 11
0.0
 21
0.0
 12
0.0
 22
0.0
 32
0.0
 14
0.0
 24
0.0
 34
0.0
 15
0.0
 25
0.0
 35
0.0
146
0.0
 13
0.0
 23
0.0
 33
0.0
 16
1.0
 26
0.0
 36
0.0
 17
0.0
 27
1.0
 37
0.0
 76
     0
330
23
  0
LAYOUT
  5
22
102
{ACAD_REACTORS
330
1A
102
}
330
1A
100
AcDbPlotSettings
  1

  2
none_device
  4
Letter_(8.50_x_11.00_Inches)
  6

 40
6.35
 41
6.35
 42
6.35000508
 43
6.35000508
 44
215.9
 45
279.4
 46
0.0
 47
0.0
 48
0.0
 49
0.0
140
0.0
141
0.0
142
1.0
143
1.0
 70
  1712
 72
     0
 73
     0
 74
     0
  7

 75
     0
 76
     0
 77
     2
 78
   300
147
1.0
148
0.0
149
0.0
100
AcDbLayout
  1
Model
 70
     1
 71
     0
 10
0.0
 20
0.0
 11
12.0
 21
9.0
 12
0.0
 22
0.0
 32
0.0
 14
-931.0872753246413
 24
-541.1834295915456
 34
0.0
 15
-101.0432004104065
 25
360.5175372165596
 35
0.0
146
0.0
 13
0.0
 23
0.0
 33
0.0
 16
1.0
 26
0.0
 36
0.0
 17
0.0
 27
1.0
 37
0.0
 76
     0
330
1F
331
29
  0
MATERIAL
  5
45
102
{ACAD_REACTORS
330
43
102
}
330
43
100
AcDbMaterial
  1
ByBlock
 72
     1
 94
      127
  0
MATERIAL
  5
44
102
{ACAD_REACTORS
330
43
102
}
330
43
100
AcDbMaterial
  1
ByLayer
 72
     1
 94
      127
  0
MATERIAL
  5
46
102
{ACAD_REACTORS
330
43
102
}
330
43
100
AcDbMaterial
  1
Global
 72
     1
 94
      127
  0
MLEADERSTYLE
  5
6C
102
{ACAD_REACTORS
330
6B
102
}
330
6B
100
AcDbMLeaderStyle
179
     2
170
     2
171
     1
172
     0
 90
        2
 40
0.0
 41
0.0
173
     1
 91
-1056964608
340
14
 92
       -2
290
     1
 42
0.09
291
     1
 43
0.36
  3
Standard
341
0
 44
0.18
300

342
11
174
     1
178
     6
175
     1
176
     0
 93
-1056964608
 45
0.18
292
     0
297
     0
 46
0.18
343
0
 94
-1056964608
 47
1.0
 49
1.0
140
1.0
293
     1
141
0.0
294
     1
177
     0
142
1.0
295
     0
296
     0
143
0.125
271
     0
272
     9
273
     9
298
     0
  0
MLINESTYLE
  5
18
102
{ACAD_REACTORS
330
17
102
}
330
17
100
AcDbMlineStyle
  2
Standard
 70
     0
  3

 62
   256
 51
90.0
 52
90.0
 71
     2
 49
0.5
 62
   256
  6
BYLAYER
 49
-0.5
 62
   256
  6
BYLAYER
  0
ACDBPLACEHOLDER
  5
F
102
{ACAD_REACTORS
330
E
102
}
330
E
  0
SCALE
  5
48
102
{ACAD_REACTORS
330
47
102
}
330
47
100
AcDbScale
 70
     0
300
1:1
140
1.0
141
1.0
290
     1
  0
SCALE
  5
49
102
{ACAD_REACTORS
330
47
102
}
330
47
100
AcDbScale
 70
     0
300
1:2
140
1.0
141
2.0
290
     0
  0
SCALE
  5
4A
102
{ACAD_REACTORS
330
47
102
}
330
47
100
AcDbScale
 70
     0
300
1:4
140
1.0
141
4.0
290
     0
  0
SCALE
  5
4B
102
{ACAD_REACTORS
330
47
102
}
330
47
100
AcDbScale
 70
     0
300
1:5
140
1.0
141
5.0
290
     0
  0
SCALE
  5
4C
102
{ACAD_REACTORS
330
47
102
}
330
47
100
AcDbScale
 70
     0
300
1:8
140
1.0
141
8.0
290
     0
  0
SCALE
  5
4D
102
{ACAD_REACTORS
330
47
102
}
330
47
100
AcDbScale
 70
     0
300
1:10
140
1.0
141
10.0
290
     0
  0
SCALE
  5
4E
102
{ACAD_REACTORS
330
47
102
}
330
47
100
AcDbScale
 70
     0
300
1:16
140
1.0
141
16.0
290
     0
  0
SCALE
  5
4F
102
{ACAD_REACTORS
330
47
102
}
330
47
100
AcDbScale
 70
     0
300
1:20
140
1.0
141
20.0
290
     0
  0
SCALE
  5
50
102
{ACAD_REACTORS
330
47
102
}
330
47
100
AcDbScale
 70
     0
300
1:30
140
1.0
141
30.0
290
     0
  0
SCALE
  5
51
102
{ACAD_REACTORS
330
47
102
}
330
47
100
AcDbScale
 70
     0
300
1:40
140
1.0
141
40.0
290
     0
  0
SCALE
  5
52
102
{ACAD_REACTORS
330
47
102
}
330
47
100
AcDbScale
 70
     0
300
1:50
140
1.0
141
50.0
290
     0
  0
SCALE
  5
53
102
{ACAD_REACTORS
330
47
102
}
330
47
100
AcDbScale
 70
     0
300
1:100
140
1.0
141
100.0
290
     0
  0
SCALE
  5
54
102
{ACAD_REACTORS
330
47
102
}
330
47
100
AcDbScale
 70
     0
300
2:1
140
2.0
141
1.0
290
     0
  0
SCALE
  5
55
102
{ACAD_REACTORS
330
47
102
}
330
47
100
AcDbScale
 70
     0
300
4:1
140
4.0
141
1.0
290
     0
  0
SCALE
  5
56
102
{ACAD_REACTORS
330
47
102
}
330
47
100
AcDbScale
 70
     0
300
8:1
140
8.0
141
1.0
290
     0
  0
SCALE
  5
57
102
{ACAD_REACTORS
330
47
102
}
330
47
100
AcDbScale
 70
     0
300
10:1
140
10.0
141
1.0
290
     0
  0
SCALE
  5
58
102
{ACAD_REACTORS
330
47
102
}
330
47
100
AcDbScale
 70
     0
300
100:1
140
100.0
141
1.0
290
     0
  0
SCALE
  5
59
102
{ACAD_REACTORS
330
47
102
}
330
47
100
AcDbScale
 70
     0
300
1/128" = 1'-0"
140
0.0078125
141
12.0
290
     0
  0
SCALE
  5
5A
102
{ACAD_REACTORS
330
47
102
}
330
47
100
AcDbScale
 70
     0
300
1/64" = 1'-0"
140
0.015625
141
12.0
290
     0
  0
SCALE
  5
5B
102
{ACAD_REACTORS
330
47
102
}
330
47
100
AcDbScale
 70
     0
300
1/32" = 1'-0"
140
0.03125
141
12.0
290
     0
  0
SCALE
  5
5C
102
{ACAD_REACTORS
330
47
102
}
330
47
100
AcDbScale
 70
     0
300
1/16" = 1'-0"
140
0.0625
141
12.0
290
     0
  0
SCALE
  5
5D
102
{ACAD_REACTORS
330
47
102
}
330
47
100
AcDbScale
 70
     0
300
3/32" = 1'-0"
140
0.09375
141
12.0
290
     0
  0
SCALE
  5
5E
102
{ACAD_REACTORS
330
47
102
}
330
47
100
AcDbScale
 70
     0
300
1/8" = 1'-0"
140
0.125
141
12.0
290
     0
  0
SCALE
  5
5F
102
{ACAD_REACTORS
330
47
102
}
330
47
100
AcDbScale
 70
     0
300
3/16" = 1'-0"
140
0.1875
141
12.0
290
     0
  0
SCALE
  5
60
102
{ACAD_REACTORS
330
47
102
}
330
47
100
AcDbScale
 70
     0
300
1/4" = 1'-0"
140
0.25
141
12.0
290
     0
  0
SCALE
  5
61
102
{ACAD_REACTORS
330
47
102
}
330
47
100
AcDbScale
 70
     0
300
3/8" = 1'-0"
140
0.375
141
12.0
290
     0
  0
SCALE
  5
62
102
{ACAD_REACTORS
330
47
102
}
330
47
100
AcDbScale
 70
     0
300
1/2" = 1'-0"
140
0.5
141
12.0
290
     0
  0
SCALE
  5
63
102
{ACAD_REACTORS
330
47
102
}
330
47
100
AcDbScale
 70
     0
300
3/4" = 1'-0"
140
0.75
141
12.0
290
     0
  0
SCALE
  5
64
102
{ACAD_REACTORS
330
47
102
}
330
47
100
AcDbScale
 70
     0
300
1" = 1'-0"
140
1.0
141
12.0
290
     0
  0
SCALE
  5
65
102
{ACAD_REACTORS
330
47
102
}
330
47
100
AcDbScale
 70
     0
300
1-1/2" = 1'-0"
140
1.5
141
12.0
290
     0
  0
SCALE
  5
66
102
{ACAD_REACTORS
330
47
102
}
330
47
100
AcDbScale
 70
     0
300
3" = 1'-0"
140
3.0
141
12.0
290
     0
  0
SCALE
  5
67
102
{ACAD_REACTORS
330
47
102
}
330
47
100
AcDbScale
 70
     0
300
6" = 1'-0"
140
6.0
141
12.0
290
     0
  0
SCALE
  5
68
102
{ACAD_REACTORS
330
47
102
}
330
47
100
AcDbScale
 70
     0
300
1'-0" = 1'-0"
140
12.0
141
12.0
290
     0
  0
TABLESTYLE
  5
6A
102
{ACAD_REACTORS
330
69
102
}
102
{ACAD_XDICTIONARY
360
40C
102
}
330
69
100
AcDbTableStyle
  3
Standard
 70
     0
 71
     0
 40
0.06
 41
0.06
280
     0
281
     0
  7
Standard
140
0.18
170
     2
 62
     0
 63
   257
283
     0
 90
        4
 91
        0
  1

274
    -2
284
     1
 64
     0
275
    -2
285
     1
 65
     0
276
    -2
286
     1
 66
     0
277
    -2
287
     1
 67
     0
278
    -2
288
     1
 68
     0
279
    -2
289
     1
 69
     0
  7
Standard
140
0.25
170
     5
 62
     0
 63
   257
283
     0
 90
        4
 91
        0
  1

274
    -2
284
     1
 64
     0
275
    -2
285
     1
 65
     0
276
    -2
286
     1
 66
     0
277
    -2
287
     1
 67
     0
278
    -2
288
     1
 68
     0
279
    -2
289
     1
 69
     0
  7
Standard
140
0.18
170
     5
 62
     0
 63
   257
283
     0
 90
        4
 91
        0
  1

274
    -2
284
     1
 64
     0
275
    -2
285
     1
 65
     0
276
    -2
286
     1
 66
     0
277
    -2
287
     1
 67
     0
278
    -2
288
     1
 68
     0
279
    -2
289
     1
 69
     0
  0
VISUALSTYLE
  5
2F
102
{ACAD_REACTORS
330
2A
102
}
330
2A
100
AcDbVisualStyle
  2
2dWireframe
 70
     4
177
     3
291
     0
 70
    58
 90
        0
176
     1
 90
        2
176
     1
 90
        0
176
     1
 90
        0
176
     1
 40
0.6
176
     1
 40
30.0
176
     1
 62
     7
420
 16777215
176
     1
 90
        1
176
     1
 90
        4
176
     1
 62
     7
176
     1
 62
   257
176
     1
 90
        1
176
     1
 90
        1
176
     1
 40
1.0
176
     1
 90
        0
176
     1
 62
   257
176
     1
 40
1.0
176
     1
 90
        1
176
     1
 90
        6
176
     1
 90
        2
176
     1
 62
     7
176
     1
 90
        5
176
     1
 90
        0
176
     1
 90
        0
176
     1
290
     0
176
     1
 90
        1
176
     1
 40
0.0
176
     1
 90
        0
176
     1
290
     1
176
     1
290
     1
176
     1
290
     0
176
     1
290
     0
176
     1
290
     0
176
     1
290
     0
176
     1
290
     0
176
     1
290
     0
176
     1
290
     0
176
     1
 90
       50
176
     1
 40
0.0
176
     1
 40
1.0
176
     1
 90
        0
176
     1
 62
    18
420
        0
176
     1
 90
       50
176
     1
 90
        3
176
     1
 62
     5
420
      255
176
     1
290
     0
176
     1
 90
       50
176
     1
 90
       50
176
     1
 90
       50
176
     1
290
     0
176
     1
 90
       50
176
     1
 62
   256
176
     0
 40
1.0
176
     0
 90
        2
176
     1
  1
strokes_ogs.tif
176
     1
290
     0
176
     1
 40
1.0
176
     1
 40
1.0
176
     1
  0
VISUALSTYLE
  5
32
102
{ACAD_REACTORS
330
2A
102
}
330
2A
100
AcDbVisualStyle
  2
Basic
 70
     7
177
     3
291
     1
 70
    58
 90
        1
176
     1
 90
        0
176
     1
 90
        1
176
     1
 90
        0
176
     1
 40
0.6
176
     1
 40
30.0
176
     1
 62
     7
420
 16777215
176
     1
 90
        0
176
     1
 90
        4
176
     1
 62
     7
176
     1
 62
   257
176
     1
 90
        1
176
     1
 90
        1
176
     1
 40
1.0
176
     1
 90
        8
176
     1
 62
     7
176
     1
 40
1.0
176
     1
 90
        1
176
     1
 90
        6
176
     1
 90
        2
176
     1
 62
     7
176
     1
 90
        5
176
     1
 90
        0
176
     1
 90
        0
176
     1
290
     0
176
     1
 90
        1
176
     1
 40
0.0
176
     1
 90
        0
176
     1
290
     0
176
     1
290
     1
176
     1
290
     1
176
     1
290
     0
176
     1
290
     0
176
     1
290
     0
176
     1
290
     0
176
     1
290
     0
176
     1
290
     0
176
     1
 90
       50
176
     1
 40
0.0
176
     1
 40
1.0
176
     1
 90
        0
176
     1
 62
    18
420
        0
176
     1
 90
       50
176
     1
 90
        3
176
     1
 62
     5
420
      255
176
     1
290
     0
176
     1
 90
       50
176
     1
 90
       50
176
     1
 90
       50
176
     1
290
     0
176
     1
 90
       50
176
     1
 62
   256
176
     0
 40
1.0
176
     0
 90
        2
176
     1
  1
strokes_ogs.tif
176
     1
290
     0
176
     1
 40
1.0
176
     1
 40
1.0
176
     1
  0
VISUALSTYLE
  5
36
102
{ACAD_REACTORS
330
2A
102
}
330
2A
100
AcDbVisualStyle
  2
Brighten
 70
    12
177
     3
291
     1
 70
    58
 90
        2
176
     1
 90
        2
176
     1
 90
        0
176
     1
 90
        0
176
     1
 40
0.6
176
     1
 40
30.0
176
     1
 62
     7
420
 16777215
176
     1
 90
        1
176
     1
 90
        4
176
     1
 62
     7
176
     1
 62
   257
176
     1
 90
        1
176
     1
 90
        1
176
     1
 40
1.0
176
     1
 90
        8
176
     1
 62
     7
176
     1
 40
1.0
176
     1
 90
        1
176
     1
 90
        6
176
     1
 90
        2
176
     1
 62
     7
176
     1
 90
        5
176
     1
 90
        0
176
     1
 90
        0
176
     1
290
     0
176
     1
 90
        1
176
     1
 40
50.0
176
     1
 90
        0
176
     1
290
     0
176
     1
290
     1
176
     1
290
     1
176
     1
290
     0
176
     1
290
     0
176
     1
290
     0
176
     1
290
     0
176
     1
290
     0
176
     1
290
     0
176
     1
 90
       50
176
     1
 40
0.0
176
     1
 40
1.0
176
     1
 90
        0
176
     1
 62
    18
420
        0
176
     1
 90
       50
176
     1
 90
        3
176
     1
 62
     5
420
      255
176
     1
290
     0
176
     1
 90
       50
176
     1
 90
       50
176
     1
 90
       50
176
     1
290
     0
176
     1
 90
       50
176
     1
 62
   256
176
     0
 40
1.0
176
     0
 90
        2
176
     1
  1
strokes_ogs.tif
176
     1
290
     0
176
     1
 40
1.0
176
     1
 40
1.0
176
     1
  0
VISUALSTYLE
  5
3A
102
{ACAD_REACTORS
330
2A
102
}
330
2A
100
AcDbVisualStyle
  2
ColorChange
 70
    16
177
     3
291
     1
 70
    58
 90
        2
176
     1
 90
        2
176
     1
 90
        3
176
     1
 90
        0
176
     1
 40
0.6
176
     1
 40
30.0
176
     1
 62
     8
420
  8421504
176
     1
 90
        1
176
     1
 90
        4
176
     1
 62
     7
176
     1
 62
   257
176
     1
 90
        1
176
     1
 90
        1
176
     1
 40
1.0
176
     1
 90
        8
176
     1
 62
     8
420
  8421504
176
     1
 40
1.0
176
     1
 90
        1
176
     1
 90
        6
176
     1
 90
        2
176
     1
 62
     7
176
     1
 90
        5
176
     1
 90
        0
176
     1
 90
        0
176
     1
290
     0
176
     1
 90
        1
176
     1
 40
0.0
176
     1
 90
        0
176
     1
290
     0
176
     1
290
     1
176
     1
290
     1
176
     1
290
     0
176
     1
290
     0
176
     1
290
     0
176
     1
290
     0
176
     1
290
     0
176
     1
290
     0
176
     1
 90
       50
176
     1
 40
0.0
176
     1
 40
1.0
176
     1
 90
        0
176
     1
 62
    18
420
        0
176
     1
 90
       50
176
     1
 90
        3
176
     1
 62
     5
420
      255
176
     1
290
     0
176
     1
 90
       50
176
     1
 90
       50
176
     1
 90
       50
176
     1
290
     0
176
     1
 90
       50
176
     1
 62
   256
176
     0
 40
1.0
176
     0
 90
        2
176
     1
  1
strokes_ogs.tif
176
     1
290
     0
176
     1
 40
1.0
176
     1
 40
1.0
176
     1
  0
VISUALSTYLE
  5
34
102
{ACAD_REACTORS
330
2A
102
}
330
2A
100
AcDbVisualStyle
  2
Conceptual
 70
     9
177
     3
291
     0
 70
    58
 90
        3
176
     1
 90
        2
176
     1
 90
        0
176
     1
 90
        0
176
     1
 40
0.6
176
     1
 40
30.0
176
     1
 62
     7
420
 16777215
176
     1
 90
        2
176
     1
 90
        2
176
     1
 62
     7
176
     1
 62
   257
176
     1
 90
        1
176
     1
 90
        1
176
     1
 40
179.0
176
     1
 90
        8
176
     1
 62
     7
176
     1
 40
1.0
176
     1
 90
        1
176
     1
 90
        6
176
     1
 90
        2
176
     1
 62
     7
176
     1
 90
        3
176
     1
 90
        0
176
     1
 90
        0
176
     1
290
     0
176
     1
 90
        1
176
     1
 40
0.0
176
     1
 90
        0
176
     1
290
     0
176
     1
290
     1
176
     1
290
     1
176
     1
290
     0
176
     1
290
     0
176
     1
290
     0
176
     1
290
     0
176
     1
290
     0
176
     1
290
     0
176
     1
 90
       50
176
     1
 40
0.0
176
     1
 40
1.0
176
     1
 90
        0
176
     1
 62
    18
420
        0
176
     1
 90
       50
176
     1
 90
        3
176
     1
 62
     5
420
      255
176
     1
290
     0
176
     1
 90
       50
176
     1
 90
       50
176
     1
 90
       50
176
     1
290
     0
176
     1
 90
       50
176
     1
 62
   256
176
     0
 40
1.0
176
     0
 90
        2
176
     1
  1
strokes_ogs.tif
176
     1
290
     0
176
     1
 40
1.0
176
     1
 40
1.0
176
     1
  0
VISUALSTYLE
  5
35
102
{ACAD_REACTORS
330
2A
102
}
330
2A
100
AcDbVisualStyle
  2
Dim
 70
    11
177
     3
291
     1
 70
    58
 90
        2
176
     1
 90
        2
176
     1
 90
        0
176
     1
 90
        0
176
     1
 40
0.6
176
     1
 40
30.0
176
     1
 62
     7
420
 16777215
176
     1
 90
        1
176
     1
 90
        4
176
     1
 62
     7
176
     1
 62
   257
176
     1
 90
        1
176
     1
 90
        1
176
     1
 40
1.0
176
     1
 90
        8
176
     1
 62
     7
176
     1
 40
1.0
176
     1
 90
        1
176
     1
 90
        6
176
     1
 90
        2
176
     1
 62
     7
176
     1
 90
        5
176
     1
 90
        0
176
     1
 90
        0
176
     1
290
     0
176
     1
 90
        1
176
     1
 40
-50.0
176
     1
 90
        0
176
     1
290
     0
176
     1
290
     1
176
     1
290
     1
176
     1
290
     0
176
     1
290
     0
176
     1
290
     0
176
     1
290
     0
176
     1
290
     0
176
     1
290
     0
176
     1
 90
       50
176
     1
 40
0.0
176
     1
 40
1.0
176
     1
 90
        0
176
     1
 62
    18
420
        0
176
     1
 90
       50
176
     1
 90
        3
176
     1
 62
     5
420
      255
176
     1
290
     0
176
     1
 90
       50
176
     1
 90
       50
176
     1
 90
       50
176
     1
290
     0
176
     1
 90
       50
176
     1
 62
   256
176
     0
 40
1.0
176
     0
 90
        2
176
     1
  1
strokes_ogs.tif
176
     1
290
     0
176
     1
 40
1.0
176
     1
 40
1.0
176
     1
  0
VISUALSTYLE
  5
3D
102
{ACAD_REACTORS
330
2A
102
}
330
2A
100
AcDbVisualStyle
  2
EdgeColorOff
 70
    22
177
     3
291
     1
 70
    58
 90
        2
176
     0
 90
        2
176
     0
 90
        0
176
     0
 90
        0
176
     0
 40
0.6
176
     0
 40
30.0
176
     0
 62
     7
420
 16777215
176
     0
 90
        1
176
     0
 90
        4
176
     0
 62
     7
176
     0
 62
   257
176
     0
 90
        1
176
     0
 90
        1
176
     0
 40
1.0
176
     0
 90
        8
176
     2
 62
     7
176
     0
 40
1.0
176
     0
 90
        1
176
     0
 90
        6
176
     0
 90
        2
176
     0
 62
     7
176
     0
 90
        5
176
     0
 90
        0
176
     0
 90
        0
176
     0
290
     0
176
     0
 90
        1
176
     0
 40
0.0
176
     0
 90
        0
176
     0
290
     0
176
     0
290
     1
176
     0
290
     1
176
     0
290
     0
176
     0
290
     0
176
     0
290
     0
176
     0
290
     0
176
     0
290
     0
176
     0
290
     0
176
     0
 90
       50
176
     0
 40
0.0
176
     0
 40
1.0
176
     0
 90
        0
176
     0
 62
    18
420
        0
176
     0
 90
       50
176
     0
 90
        3
176
     0
 62
     5
420
      255
176
     0
290
     0
176
     0
 90
       50
176
     0
 90
       50
176
     0
 90
       50
176
     0
290
     0
176
     0
 90
       50
176
     0
 62
   256
176
     0
 40
1.0
176
     0
 90
        2
176
     0
  1
strokes_ogs.tif
176
     0
290
     0
176
     0
 40
1.0
176
     0
 40
1.0
176
     0
  0
VISUALSTYLE
  5
39
102
{ACAD_REACTORS
330
2A
102
}
330
2A
100
AcDbVisualStyle
  2
Facepattern
 70
    15
177
     3
291
     1
 70
    58
 90
        2
176
     1
 90
        2
176
     1
 90
        0
176
     1
 90
        0
176
     1
 40
0.6
176
     1
 40
30.0
176
     1
 62
     7
420
 16777215
176
     1
 90
        1
176
     1
 90
        4
176
     1
 62
     7
176
     1
 62
   257
176
     1
 90
        1
176
     1
 90
        1
176
     1
 40
1.0
176
     1
 90
        8
176
     1
 62
     7
176
     1
 40
1.0
176
     1
 90
        1
176
     1
 90
        6
176
     1
 90
        2
176
     1
 62
     7
176
     1
 90
        5
176
     1
 90
        0
176
     1
 90
        0
176
     1
290
     0
176
     1
 90
        1
176
     1
 40
0.0
176
     1
 90
        0
176
     1
290
     0
176
     1
290
     1
176
     1
290
     1
176
     1
290
     0
176
     1
290
     0
176
     1
290
     0
176
     1
290
     0
176
     1
290
     0
176
     1
290
     0
176
     1
 90
       50
176
     1
 40
0.0
176
     1
 40
1.0
176
     1
 90
        0
176
     1
 62
    18
420
        0
176
     1
 90
       50
176
     1
 90
        3
176
     1
 62
     5
420
      255
176
     1
290
     0
176
     1
 90
       50
176
     1
 90
       50
176
     1
 90
       50
176
     1
290
     0
176
     1
 90
       50
176
     1
 62
   256
176
     0
 40
1.0
176
     0
 90
        2
176
     1
  1
strokes_ogs.tif
176
     1
290
     0
176
     1
 40
1.0
176
     1
 40
1.0
176
     1
  0
VISUALSTYLE
  5
2B
102
{ACAD_REACTORS
330
2A
102
}
330
2A
100
AcDbVisualStyle
  2
Flat
 70
     0
177
     3
291
     1
 70
    58
 90
        2
176
     1
 90
        1
176
     1
 90
        1
176
     1
 90
        2
176
     1
 40
0.6
176
     1
 40
30.0
176
     1
 62
     7
420
 16777215
176
     1
 90
        0
176
     1
 90
        0
176
     1
 62
     7
176
     1
 62
   257
176
     1
 90
        1
176
     1
 90
        1
176
     1
 40
1.0
176
     1
 90
        8
176
     1
 62
     7
176
     1
 40
1.0
176
     1
 90
        1
176
     1
 90
        6
176
     1
 90
        2
176
     1
 62
     7
176
     1
 90
        5
176
     1
 90
        0
176
     1
 90
        0
176
     1
290
     0
176
     1
 90
       13
176
     1
 40
0.0
176
     1
 90
        0
176
     1
290
     0
176
     1
290
     1
176
     1
290
     1
176
     1
290
     0
176
     1
290
     0
176
     1
290
     0
176
     1
290
     0
176
     1
290
     0
176
     1
290
     0
176
     1
 90
       50
176
     1
 40
0.0
176
     1
 40
1.0
176
     1
 90
        0
176
     1
 62
    18
420
        0
176
     1
 90
       50
176
     1
 90
        3
176
     1
 62
     5
420
      255
176
     1
290
     0
176
     1
 90
       50
176
     1
 90
       50
176
     1
 90
       50
176
     1
290
     0
176
     1
 90
       50
176
     1
 62
   256
176
     0
 40
1.0
176
     0
 90
        2
176
     1
  1
strokes_ogs.tif
176
     1
290
     0
176
     1
 40
1.0
176
     1
 40
1.0
176
     1
  0
VISUALSTYLE
  5
2C
102
{ACAD_REACTORS
330
2A
102
}
330
2A
100
AcDbVisualStyle
  2
FlatWithEdges
 70
     1
177
     3
291
     1
 70
    58
 90
        2
176
     1
 90
        1
176
     1
 90
        1
176
     1
 90
        2
176
     1
 40
0.6
176
     1
 40
30.0
176
     1
 62
     7
420
 16777215
176
     1
 90
        1
176
     1
 90
        0
176
     1
 62
     7
176
     1
 62
   257
176
     1
 90
        1
176
     1
 90
        1
176
     1
 40
1.0
176
     1
 90
        0
176
     1
 62
   257
176
     1
 40
1.0
176
     1
 90
        1
176
     1
 90
        6
176
     1
 90
        2
176
     1
 62
     7
176
     1
 90
        5
176
     1
 90
        0
176
     1
 90
        0
176
     1
290
     0
176
     1
 90
       13
176
     1
 40
0.0
176
     1
 90
        0
176
     1
290
     0
176
     1
290
     1
176
     1
290
     1
176
     1
290
     0
176
     1
290
     0
176
     1
290
     0
176
     1
290
     0
176
     1
290
     0
176
     1
290
     0
176
     1
 90
       50
176
     1
 40
0.0
176
     1
 40
1.0
176
     1
 90
        0
176
     1
 62
    18
420
        0
176
     1
 90
       50
176
     1
 90
        3
176
     1
 62
     5
420
      255
176
     1
290
     0
176
     1
 90
       50
176
     1
 90
       50
176
     1
 90
       50
176
     1
290
     0
176
     1
 90
       50
176
     1
 62
   256
176
     0
 40
1.0
176
     0
 90
        2
176
     1
  1
strokes_ogs.tif
176
     1
290
     0
176
     1
 40
1.0
176
     1
 40
1.0
176
     1
  0
VISUALSTYLE
  5
2D
102
{ACAD_REACTORS
330
2A
102
}
330
2A
100
AcDbVisualStyle
  2
Gouraud
 70
     2
177
     3
291
     1
 70
    58
 90
        2
176
     1
 90
        2
176
     1
 90
        1
176
     1
 90
        2
176
     1
 40
0.6
176
     1
 40
30.0
176
     1
 62
     7
420
 16777215
176
     1
 90
        0
176
     1
 90
        0
176
     1
 62
     7
176
     1
 62
   257
176
     1
 90
        1
176
     1
 90
        1
176
     1
 40
1.0
176
     1
 90
        0
176
     1
 62
     7
176
     1
 40
1.0
176
     1
 90
        1
176
     1
 90
        6
176
     1
 90
        2
176
     1
 62
     7
176
     1
 90
        5
176
     1
 90
        0
176
     1
 90
        0
176
     1
290
     0
176
     1
 90
       13
176
     1
 40
0.0
176
     1
 90
        0
176
     1
290
     0
176
     1
290
     1
176
     1
290
     1
176
     1
290
     0
176
     1
290
     0
176
     1
290
     0
176
     1
290
     0
176
     1
290
     0
176
     1
290
     0
176
     1
 90
       50
176
     1
 40
0.0
176
     1
 40
1.0
176
     1
 90
        0
176
     1
 62
    18
420
        0
176
     1
 90
       50
176
     1
 90
        3
176
     1
 62
     5
420
      255
176
     1
290
     0
176
     1
 90
       50
176
     1
 90
       50
176
     1
 90
       50
176
     1
290
     0
176
     1
 90
       50
176
     1
 62
   256
176
     0
 40
1.0
176
     0
 90
        2
176
     1
  1
strokes_ogs.tif
176
     1
290
     0
176
     1
 40
1.0
176
     1
 40
1.0
176
     1
  0
VISUALSTYLE
  5
2E
102
{ACAD_REACTORS
330
2A
102
}
330
2A
100
AcDbVisualStyle
  2
GouraudWithEdges
 70
     3
177
     3
291
     1
 70
    58
 90
        2
176
     1
 90
        2
176
     1
 90
        1
176
     1
 90
        2
176
     1
 40
0.6
176
     1
 40
30.0
176
     1
 62
     7
420
 16777215
176
     1
 90
        1
176
     1
 90
        0
176
     1
 62
     7
176
     1
 62
   257
176
     1
 90
        1
176
     1
 90
        1
176
     1
 40
1.0
176
     1
 90
        0
176
     1
 62
   257
176
     1
 40
1.0
176
     1
 90
        1
176
     1
 90
        6
176
     1
 90
        2
176
     1
 62
     7
176
     1
 90
        5
176
     1
 90
        0
176
     1
 90
        0
176
     1
290
     0
176
     1
 90
       13
176
     1
 40
0.0
176
     1
 90
        0
176
     1
290
     0
176
     1
290
     1
176
     1
290
     1
176
     1
290
     0
176
     1
290
     0
176
     1
290
     0
176
     1
290
     0
176
     1
290
     0
176
     1
290
     0
176
     1
 90
       50
176
     1
 40
0.0
176
     1
 40
1.0
176
     1
 90
        0
176
     1
 62
    18
420
        0
176
     1
 90
       50
176
     1
 90
        3
176
     1
 62
     5
420
      255
176
     1
290
     0
176
     1
 90
       50
176
     1
 90
       50
176
     1
 90
       50
176
     1
290
     0
176
     1
 90
       50
176
     1
 62
   256
176
     0
 40
1.0
176
     0
 90
        2
176
     1
  1
strokes_ogs.tif
176
     1
290
     0
176
     1
 40
1.0
176
     1
 40
1.0
176
     1
  0
VISUALSTYLE
  5
31
102
{ACAD_REACTORS
330
2A
102
}
330
2A
100
AcDbVisualStyle
  2
Hidden
 70
     6
177
     3
291
     0
 70
    58
 90
        1
176
     1
 90
        2
176
     1
 90
        2
176
     1
 90
        0
176
     1
 40
0.6
176
     1
 40
30.0
176
     1
 62
     7
420
 16777215
176
     1
 90
        2
176
     1
 90
        2
176
     1
 62
     7
176
     1
 62
   257
176
     1
 90
        2
176
     1
 90
        1
176
     1
 40
40.0
176
     1
 90
        0
176
     1
 62
   257
176
     1
 40
1.0
176
     1
 90
        1
176
     1
 90
        6
176
     1
 90
        2
176
     1
 62
     7
176
     1
 90
        3
176
     1
 90
        0
176
     1
 90
        0
176
     1
290
     0
176
     1
 90
        1
176
     1
 40
0.0
176
     1
 90
        0
176
     1
290
     0
176
     1
290
     1
176
     1
290
     1
176
     1
290
     0
176
     1
290
     0
176
     1
290
     0
176
     1
290
     0
176
     1
290
     0
176
     1
290
     0
176
     1
 90
       50
176
     1
 40
0.0
176
     1
 40
1.0
176
     1
 90
        0
176
     1
 62
    18
420
        0
176
     1
 90
       50
176
     1
 90
        3
176
     1
 62
     5
420
      255
176
     1
290
     0
176
     1
 90
       50
176
     1
 90
       50
176
     1
 90
       50
176
     1
290
     0
176
     1
 90
       50
176
     1
 62
   256
176
     0
 40
1.0
176
     0
 90
        2
176
     1
  1
strokes_ogs.tif
176
     1
290
     0
176
     1
 40
1.0
176
     1
 40
1.0
176
     1
  0
VISUALSTYLE
  5
3B
102
{ACAD_REACTORS
330
2A
102
}
330
2A
100
AcDbVisualStyle
  2
JitterOff
 70
    20
177
     3
291
     1
 70
    58
 90
        2
176
     0
 90
        2
176
     0
 90
        0
176
     0
 90
        0
176
     0
 40
0.6
176
     0
 40
30.0
176
     0
 62
     7
420
 16777215
176
     0
 90
        1
176
     0
 90
        4
176
     0
 62
     7
176
     0
 62
   257
176
     0
 90
        1
176
     0
 90
        1
176
     0
 40
1.0
176
     0
 90
       10
176
     2
 62
     7
176
     0
 40
1.0
176
     0
 90
        1
176
     0
 90
        6
176
     0
 90
        2
176
     0
 62
     7
176
     0
 90
        5
176
     0
 90
        0
176
     0
 90
        0
176
     0
290
     0
176
     0
 90
        1
176
     0
 40
0.0
176
     0
 90
        0
176
     0
290
     0
176
     0
290
     1
176
     0
290
     1
176
     0
290
     0
176
     0
290
     0
176
     0
290
     0
176
     0
290
     0
176
     0
290
     0
176
     0
290
     0
176
     0
 90
       50
176
     0
 40
0.0
176
     0
 40
1.0
176
     0
 90
        0
176
     0
 62
    18
420
        0
176
     0
 90
       50
176
     0
 90
        3
176
     0
 62
     5
420
      255
176
     0
290
     0
176
     0
 90
       50
176
     0
 90
       50
176
     0
 90
       50
176
     0
290
     0
176
     0
 90
       50
176
     0
 62
   256
176
     0
 40
1.0
176
     0
 90
        2
176
     0
  1
strokes_ogs.tif
176
     0
290
     0
176
     0
 40
1.0
176
     0
 40
1.0
176
     0
  0
VISUALSTYLE
  5
38
102
{ACAD_REACTORS
330
2A
102
}
330
2A
100
AcDbVisualStyle
  2
Linepattern
 70
    14
177
     3
291
     1
 70
    58
 90
        2
176
     1
 90
        2
176
     1
 90
        0
176
     1
 90
        0
176
     1
 40
0.6
176
     1
 40
30.0
176
     1
 62
     7
420
 16777215
176
     1
 90
        1
176
     1
 90
        4
176
     1
 62
     7
176
     1
 62
   257
176
     1
 90
        7
176
     1
 90
        7
176
     1
 40
1.0
176
     1
 90
        8
176
     1
 62
     7
176
     1
 40
1.0
176
     1
 90
        1
176
     1
 90
        6
176
     1
 90
        2
176
     1
 62
     7
176
     1
 90
        5
176
     1
 90
        0
176
     1
 90
        0
176
     1
290
     0
176
     1
 90
        1
176
     1
 40
0.0
176
     1
 90
        0
176
     1
290
     0
176
     1
290
     1
176
     1
290
     1
176
     1
290
     0
176
     1
290
     0
176
     1
290
     0
176
     1
290
     0
176
     1
290
     0
176
     1
290
     0
176
     1
 90
       50
176
     1
 40
0.0
176
     1
 40
1.0
176
     1
 90
        0
176
     1
 62
    18
420
        0
176
     1
 90
       50
176
     1
 90
        3
176
     1
 62
     5
420
      255
176
     1
290
     0
176
     1
 90
       50
176
     1
 90
       50
176
     1
 90
       50
176
     1
290
     0
176
     1
 90
       50
176
     1
 62
   256
176
     0
 40
1.0
176
     0
 90
        2
176
     1
  1
strokes_ogs.tif
176
     1
290
     0
176
     1
 40
1.0
176
     1
 40
1.0
176
     1
  0
VISUALSTYLE
  5
3C
102
{ACAD_REACTORS
330
2A
102
}
330
2A
100
AcDbVisualStyle
  2
OverhangOff
 70
    21
177
     3
291
     1
 70
    58
 90
        2
176
     0
 90
        2
176
     0
 90
        0
176
     0
 90
        0
176
     0
 40
0.6
176
     0
 40
30.0
176
     0
 62
     7
420
 16777215
176
     0
 90
        1
176
     0
 90
        4
176
     0
 62
     7
176
     0
 62
   257
176
     0
 90
        1
176
     0
 90
        1
176
     0
 40
1.0
176
     0
 90
        9
176
     2
 62
     7
176
     0
 40
1.0
176
     0
 90
        1
176
     0
 90
        6
176
     0
 90
        2
176
     0
 62
     7
176
     0
 90
        5
176
     0
 90
        0
176
     0
 90
        0
176
     0
290
     0
176
     0
 90
        1
176
     0
 40
0.0
176
     0
 90
        0
176
     0
290
     0
176
     0
290
     1
176
     0
290
     1
176
     0
290
     0
176
     0
290
     0
176
     0
290
     0
176
     0
290
     0
176
     0
290
     0
176
     0
290
     0
176
     0
 90
       50
176
     0
 40
0.0
176
     0
 40
1.0
176
     0
 90
        0
176
     0
 62
    18
420
        0
176
     0
 90
       50
176
     0
 90
        3
176
     0
 62
     5
420
      255
176
     0
290
     0
176
     0
 90
       50
176
     0
 90
       50
176
     0
 90
       50
176
     0
290
     0
176
     0
 90
       50
176
     0
 62
   256
176
     0
 40
1.0
176
     0
 90
        2
176
     0
  1
strokes_ogs.tif
176
     0
290
     0
176
     0
 40
1.0
176
     0
 40
1.0
176
     0
  0
VISUALSTYLE
  5
33
102
{ACAD_REACTORS
330
2A
102
}
330
2A
100
AcDbVisualStyle
  2
Realistic
 70
     8
177
     3
291
     0
 70
    58
 90
        2
176
     1
 90
        3
176
     1
 90
        0
176
     1
 90
        2
176
     1
 40
0.6
176
     1
 40
30.0
176
     1
 62
     7
420
 16777215
176
     1
 90
        0
176
     1
 90
        0
176
     1
 62
     7
176
     1
 62
   257
176
     1
 90
        1
176
     1
 90
        1
176
     1
 40
1.0
176
     1
 90
        8
176
     1
 62
   257
176
     1
 40
1.0
176
     1
 90
        1
176
     1
 90
        6
176
     1
 90
        2
176
     1
 62
     7
176
     1
 90
        3
176
     1
 90
        0
176
     1
 90
        0
176
     1
290
     0
176
     1
 90
       13
176
     1
 40
0.0
176
     1
 90
        0
176
     1
290
     0
176
     1
290
     1
176
     1
290
     1
176
     1
290
     0
176
     1
290
     0
176
     1
290
     0
176
     1
290
     0
176
     1
290
     0
176
     1
290
     0
176
     1
 90
       50
176
     1
 40
0.0
176
     1
 40
1.0
176
     1
 90
        0
176
     1
 62
    18
420
        0
176
     1
 90
       50
176
     1
 90
        3
176
     1
 62
     5
420
      255
176
     1
290
     0
176
     1
 90
       50
176
     1
 90
       50
176
     1
 90
       50
176
     1
290
     0
176
     1
 90
       50
176
     1
 62
   256
176
     0
 40
1.0
176
     0
 90
        2
176
     1
  1
strokes_ogs.tif
176
     1
290
     0
176
     1
 40
1.0
176
     1
 40
1.0
176
     1
  0
VISUALSTYLE
  5
42
102
{ACAD_REACTORS
330
2A
102
}
330
2A
100
AcDbVisualStyle
  2
Shaded
 70
    27
177
     3
291
     0
 70
    58
 90
        2
176
     1
 90
        2
176
     1
 90
        1
176
     1
 90
        2
176
     1
 40
0.6
176
     1
 40
30.0
176
     1
 62
     7
420
 16777215
176
     1
 90
        0
176
     1
 90
        4
176
     1
 62
     7
176
     1
 62
   257
176
     1
 90
        1
176
     1
 90
        1
176
     1
 40
1.0
176
     1
 90
        8
176
     1
 62
   257
176
     1
 40
1.0
176
     1
 90
        1
176
     1
 90
        6
176
     1
 90
        2
176
     1
 62
     8
420
  7895160
176
     1
 90
        3
176
     1
 90
        0
176
     1
 90
        0
176
     1
290
     0
176
     1
 90
        5
176
     1
 40
0.0
176
     1
 90
        0
176
     1
290
     0
176
     1
290
     1
176
     1
290
     1
176
     1
290
     0
176
     1
290
     0
176
     1
290
     0
176
     1
290
     0
176
     1
290
     0
176
     1
290
     0
176
     1
 90
       50
176
     1
 40
0.0
176
     1
 40
1.0
176
     1
 90
        0
176
     1
 62
    18
420
        0
176
     1
 90
       50
176
     1
 90
        3
176
     1
 62
     5
420
      255
176
     1
290
     0
176
     1
 90
       50
176
     1
 90
       50
176
     1
 90
       50
176
     1
290
     0
176
     1
 90
       50
176
     1
 62
   256
176
     0
 40
1.0
176
     0
 90
        2
176
     1
  1
strokes_ogs.tif
176
     1
290
     0
176
     1
 40
1.0
176
     1
 40
1.0
176
     1
  0
VISUALSTYLE
  5
41
102
{ACAD_REACTORS
330
2A
102
}
330
2A
100
AcDbVisualStyle
  2
Shaded with edges
 70
    26
177
     3
291
     0
 70
    58
 90
        2
176
     1
 90
        2
176
     1
 90
        1
176
     1
 90
        2
176
     1
 40
0.6
176
     1
 40
30.0
176
     1
 62
     7
420
 16777215
176
     1
 90
        1
176
     1
 90
       10
176
     1
 62
     7
176
     1
 62
   257
176
     1
 90
        2
176
     1
 90
        1
176
     1
 40
1.0
176
     1
 90
        8
176
     1
 62
   257
176
     1
 40
1.0
176
     1
 90
        1
176
     1
 90
        6
176
     1
 90
        2
176
     1
 62
     7
176
     1
 90
        3
176
     1
 90
        0
176
     1
 90
        0
176
     1
290
     0
176
     1
 90
        5
176
     1
 40
0.0
176
     1
 90
        0
176
     1
290
     0
176
     1
290
     1
176
     1
290
     1
176
     1
290
     0
176
     1
290
     0
176
     1
290
     0
176
     1
290
     0
176
     1
290
     0
176
     1
290
     0
176
     1
 90
       50
176
     1
 40
0.0
176
     1
 40
1.0
176
     1
 90
        0
176
     1
 62
    18
420
        0
176
     1
 90
       50
176
     1
 90
        3
176
     1
 62
     5
420
      255
176
     1
290
     0
176
     1
 90
       50
176
     1
 90
       50
176
     1
 90
       50
176
     1
290
     0
176
     1
 90
       50
176
     1
 62
   256
176
     0
 40
1.0
176
     0
 90
        2
176
     1
  1
strokes_ogs.tif
176
     1
290
     0
176
     1
 40
1.0
176
     1
 40
1.0
176
     1
  0
VISUALSTYLE
  5
3E
102
{ACAD_REACTORS
330
2A
102
}
330
2A
100
AcDbVisualStyle
  2
Shades of Gray
 70
    23
177
     3
291
     0
 70
    58
 90
        2
176
     1
 90
        2
176
     1
 90
        3
176
     1
 90
        0
176
     1
 40
0.6
176
     1
 40
30.0
176
     1
 62
     7
420
 16777215
176
     1
 90
        2
176
     1
 90
        2
176
     1
 62
     7
176
     1
 62
     7
176
     1
 90
        1
176
     1
 90
        1
176
     1
 40
40.0
176
     1
 90
        8
176
     1
 62
     7
176
     1
 40
1.0
176
     1
 90
        1
176
     1
 90
        6
176
     1
 90
        2
176
     1
 62
     7
176
     1
 90
        3
176
     1
 90
        0
176
     1
 90
        0
176
     1
290
     0
176
     1
 90
        1
176
     1
 40
0.0
176
     1
 90
        0
176
     1
290
     0
176
     1
290
     1
176
     1
290
     1
176
     1
290
     0
176
     1
290
     0
176
     1
290
     0
176
     1
290
     0
176
     1
290
     0
176
     1
290
     0
176
     1
 90
       50
176
     1
 40
0.0
176
     1
 40
1.0
176
     1
 90
        0
176
     1
 62
    18
420
        0
176
     1
 90
       50
176
     1
 90
        3
176
     1
 62
     5
420
      255
176
     1
290
     0
176
     1
 90
       50
176
     1
 90
       50
176
     1
 90
       50
176
     1
290
     0
176
     1
 90
       50
176
     1
 62
   256
176
     0
 40
1.0
176
     0
 90
        2
176
     1
  1
strokes_ogs.tif
176
     1
290
     0
176
     1
 40
1.0
176
     1
 40
1.0
176
     1
  0
VISUALSTYLE
  5
3F
102
{ACAD_REACTORS
330
2A
102
}
330
2A
100
AcDbVisualStyle
  2
Sketchy
 70
    24
177
     3
291
     0
 70
    58
 90
        1
176
     1
 90
        2
176
     1
 90
        2
176
     1
 90
        0
176
     1
 40
0.6
176
     1
 40
30.0
176
     1
 62
     7
420
 16777215
176
     1
 90
        2
176
     1
 90
        2
176
     1
 62
     7
176
     1
 62
     7
176
     1
 90
        1
176
     1
 90
        1
176
     1
 40
40.0
176
     1
 90
       11
176
     1
 62
     7
176
     1
 40
1.0
176
     1
 90
        1
176
     1
 90
        6
176
     1
 90
        2
176
     1
 62
     7
176
     1
 90
        6
176
     1
 90
        0
176
     1
 90
        0
176
     1
290
     0
176
     1
 90
        1
176
     1
 40
0.0
176
     1
 90
        0
176
     1
290
     0
176
     1
290
     1
176
     1
290
     1
176
     1
290
     0
176
     1
290
     0
176
     1
290
     0
176
     1
290
     0
176
     1
290
     0
176
     1
290
     0
176
     1
 90
       50
176
     1
 40
0.0
176
     1
 40
1.0
176
     1
 90
        0
176
     1
 62
    18
420
        0
176
     1
 90
       50
176
     1
 90
        3
176
     1
 62
     5
420
      255
176
     1
290
     0
176
     1
 90
       50
176
     1
 90
       50
176
     1
 90
       50
176
     1
290
     0
176
     1
 90
       50
176
     1
 62
   256
176
     0
 40
1.0
176
     0
 90
        2
176
     1
  1
strokes_ogs.tif
176
     1
290
     0
176
     1
 40
1.0
176
     1
 40
1.0
176
     1
  0
VISUALSTYLE
  5
37
102
{ACAD_REACTORS
330
2A
102
}
330
2A
100
AcDbVisualStyle
  2
Thicken
 70
    13
177
     3
291
     1
 70
    58
 90
        2
176
     1
 90
        2
176
     1
 90
        0
176
     1
 90
        0
176
     1
 40
0.6
176
     1
 40
30.0
176
     1
 62
     7
420
 16777215
176
     1
 90
        1
176
     1
 90
        4
176
     1
 62
     7
176
     1
 62
   257
176
     1
 90
        1
176
     1
 90
        1
176
     1
 40
1.0
176
     1
 90
       12
176
     1
 62
     7
176
     1
 40
1.0
176
     1
 90
        1
176
     1
 90
        6
176
     1
 90
        2
176
     1
 62
     7
176
     1
 90
        5
176
     1
 90
        0
176
     1
 90
        0
176
     1
290
     0
176
     1
 90
        1
176
     1
 40
0.0
176
     1
 90
        0
176
     1
290
     0
176
     1
290
     1
176
     1
290
     1
176
     1
290
     0
176
     1
290
     0
176
     1
290
     0
176
     1
290
     0
176
     1
290
     0
176
     1
290
     0
176
     1
 90
       50
176
     1
 40
0.0
176
     1
 40
1.0
176
     1
 90
        0
176
     1
 62
    18
420
        0
176
     1
 90
       50
176
     1
 90
        3
176
     1
 62
     5
420
      255
176
     1
290
     0
176
     1
 90
       50
176
     1
 90
       50
176
     1
 90
       50
176
     1
290
     0
176
     1
 90
       50
176
     1
 62
   256
176
     0
 40
1.0
176
     0
 90
        2
176
     1
  1
strokes_ogs.tif
176
     1
290
     0
176
     1
 40
1.0
176
     1
 40
1.0
176
     1
  0
VISUALSTYLE
  5
30
102
{ACAD_REACTORS
330
2A
102
}
330
2A
100
AcDbVisualStyle
  2
Wireframe
 70
     5
177
     3
291
     0
 70
    58
 90
        0
176
     1
 90
        2
176
     1
 90
        0
176
     1
 90
        0
176
     1
 40
0.6
176
     1
 40
30.0
176
     1
 62
     7
420
 16777215
176
     1
 90
        1
176
     1
 90
        4
176
     1
 62
     7
176
     1
 62
   257
176
     1
 90
        1
176
     1
 90
        1
176
     1
 40
1.0
176
     1
 90
        0
176
     1
 62
   257
176
     1
 40
1.0
176
     1
 90
        1
176
     1
 90
        6
176
     1
 90
        2
176
     1
 62
     7
176
     1
 90
        3
176
     1
 90
        0
176
     1
 90
        0
176
     1
290
     0
176
     1
 90
        1
176
     1
 40
0.0
176
     1
 90
        0
176
     1
290
     0
176
     1
290
     1
176
     1
290
     1
176
     1
290
     0
176
     1
290
     0
176
     1
290
     0
176
     1
290
     0
176
     1
290
     0
176
     1
290
     0
176
     1
 90
       50
176
     1
 40
0.0
176
     1
 40
1.0
176
     1
 90
        0
176
     1
 62
    18
420
        0
176
     1
 90
       50
176
     1
 90
        3
176
     1
 62
     5
420
      255
176
     1
290
     0
176
     1
 90
       50
176
     1
 90
       50
176
     1
 90
       50
176
     1
290
     0
176
     1
 90
       50
176
     1
 62
   256
176
     0
 40
1.0
176
     0
 90
        2
176
     1
  1
strokes_ogs.tif
176
     1
290
     0
176
     1
 40
1.0
176
     1
 40
1.0
176
     1
  0
VISUALSTYLE
  5
40
102
{ACAD_REACTORS
330
2A
102
}
330
2A
100
AcDbVisualStyle
  2
X-Ray
 70
    25
177
     3
291
     0
 70
    58
 90
        2
176
     1
 90
        2
176
     1
 90
        1
176
     1
 90
        1
176
     1
 40
0.5
176
     1
 40
30.0
176
     1
 62
     7
420
 16777215
176
     1
 90
        1
176
     1
 90
        0
176
     1
 62
     7
176
     1
 62
   257
176
     1
 90
        1
176
     1
 90
        1
176
     1
 40
1.0
176
     1
 90
        8
176
     1
 62
     7
176
     1
 40
1.0
176
     1
 90
        1
176
     1
 90
        6
176
     1
 90
        2
176
     1
 62
     7
176
     1
 90
        3
176
     1
 90
        0
176
     1
 90
        0
176
     1
290
     0
176
     1
 90
       13
176
     1
 40
0.0
176
     1
 90
        0
176
     1
290
     0
176
     1
290
     1
176
     1
290
     1
176
     1
290
     0
176
     1
290
     0
176
     1
290
     0
176
     1
290
     0
176
     1
290
     0
176
     1
290
     0
176
     1
 90
       50
176
     1
 40
0.0
176
     1
 40
1.0
176
     1
 90
        0
176
     1
 62
    18
420
        0
176
     1
 90
       50
176
     1
 90
        3
176
     1
 62
     5
420
      255
176
     1
290
     0
176
     1
 90
       50
176
     1
 90
       50
176
     1
 90
       50
176
     1
290
     0
176
     1
 90
       50
176
     1
 62
   256
176
     0
 40
1.0
176
     0
 90
        2
176
     1
  1
strokes_ogs.tif
176
     1
290
     0
176
     1
 40
1.0
176
     1
 40
1.0
176
     1
  0
DICTIONARYVAR
  5
40B
102
{ACAD_REACTORS
330
40A
102
}
330
40A
100
DictionaryVariables
280
     0
  1
1:1
  0
DICTIONARYVAR
  5
410
102
{ACAD_REACTORS
330
40A
102
}
330
40A
100
DictionaryVariables
280
     0
  1
Standard
  0
DICTIONARYVAR
  5
40F
102
{ACAD_REACTORS
330
40A
102
}
330
40A
100
DictionaryVariables
280
     0
  1
Standard
  0
DICTIONARY
  5
40C
330
6A
100
AcDbDictionary
280
     1
281
     1
  3
ACAD_ROUNDTRIP_2008_TABLESTYLE_CELLSTYLEMAP
360
40D
  0
CELLSTYLEMAP
  5
40D
102
{ACAD_REACTORS
330
40C
102
}
330
40C
100
AcDbCellStyleMap
 90
        3
300
CELLSTYLE
  1
TABLEFORMAT_BEGIN
 90
        5
170
     1
 91
        0
 92
    32768
 62
   257
 93
        1
300
CONTENTFORMAT
  1
CONTENTFORMAT_BEGIN
 90
        0
 91
        0
 92
        4
 93
        0
300

 40
0.0
140
1.0
 94
        5
 62
     0
340
11
144
0.25
309
CONTENTFORMAT_END
171
     1
301
MARGIN
  1
CELLMARGIN_BEGIN
 40
0.06
 40
0.06
 40
0.06
 40
0.06
 40
0.06
 40
0.06
309
CELLMARGIN_END
 94
        6
 95
        1
302
GRIDFORMAT
  1
GRIDFORMAT_BEGIN
 90
        0
 91
        1
 62
     0
 92
       -2
340
14
 93
        0
 40
0.045
309
GRIDFORMAT_END
 95
        2
302
GRIDFORMAT
  1
GRIDFORMAT_BEGIN
 90
        0
 91
        1
 62
     0
 92
       -2
340
14
 93
        0
 40
0.045
309
GRIDFORMAT_END
 95
        4
302
GRIDFORMAT
  1
GRIDFORMAT_BEGIN
 90
        0
 91
        1
 62
     0
 92
       -2
340
14
 93
        0
 40
0.045
309
GRIDFORMAT_END
 95
        8
302
GRIDFORMAT
  1
GRIDFORMAT_BEGIN
 90
        0
 91
        1
 62
     0
 92
       -2
340
14
 93
        0
 40
0.045
309
GRIDFORMAT_END
 95
       16
302
GRIDFORMAT
  1
GRIDFORMAT_BEGIN
 90
        0
 91
        1
 62
     0
 92
       -2
340
14
 93
        0
 40
0.045
309
GRIDFORMAT_END
 95
       32
302
GRIDFORMAT
  1
GRIDFORMAT_BEGIN
 90
        0
 91
        1
 62
     0
 92
       -2
340
14
 93
        0
 40
0.045
309
GRIDFORMAT_END
309
TABLEFORMAT_END
  1
CELLSTYLE_BEGIN
 90
        1
 91
        1
300
_TITLE
309
CELLSTYLE_END
300
CELLSTYLE
  1
TABLEFORMAT_BEGIN
 90
        5
170
     1
 91
        0
 92
        0
 62
   257
 93
        1
300
CONTENTFORMAT
  1
CONTENTFORMAT_BEGIN
 90
        0
 91
        0
 92
        4
 93
        0
300

 40
0.0
140
1.0
 94
        5
 62
     0
340
11
144
0.18
309
CONTENTFORMAT_END
171
     1
301
MARGIN
  1
CELLMARGIN_BEGIN
 40
0.06
 40
0.06
 40
0.06
 40
0.06
 40
0.06
 40
0.06
309
CELLMARGIN_END
 94
        6
 95
        1
302
GRIDFORMAT
  1
GRIDFORMAT_BEGIN
 90
        0
 91
        1
 62
     0
 92
       -2
340
14
 93
        0
 40
0.045
309
GRIDFORMAT_END
 95
        2
302
GRIDFORMAT
  1
GRIDFORMAT_BEGIN
 90
        0
 91
        1
 62
     0
 92
       -2
340
14
 93
        0
 40
0.045
309
GRIDFORMAT_END
 95
        4
302
GRIDFORMAT
  1
GRIDFORMAT_BEGIN
 90
        0
 91
        1
 62
     0
 92
       -2
340
14
 93
        0
 40
0.045
309
GRIDFORMAT_END
 95
        8
302
GRIDFORMAT
  1
GRIDFORMAT_BEGIN
 90
        0
 91
        1
 62
     0
 92
       -2
340
14
 93
        0
 40
0.045
309
GRIDFORMAT_END
 95
       16
302
GRIDFORMAT
  1
GRIDFORMAT_BEGIN
 90
        0
 91
        1
 62
     0
 92
       -2
340
14
 93
        0
 40
0.045
309
GRIDFORMAT_END
 95
       32
302
GRIDFORMAT
  1
GRIDFORMAT_BEGIN
 90
        0
 91
        1
 62
     0
 92
       -2
340
14
 93
        0
 40
0.045
309
GRIDFORMAT_END
309
TABLEFORMAT_END
  1
CELLSTYLE_BEGIN
 90
        2
 91
        1
300
_HEADER
309
CELLSTYLE_END
300
CELLSTYLE
  1
TABLEFORMAT_BEGIN
 90
        5
170
     1
 91
        0
 92
        0
 62
   257
 93
        1
300
CONTENTFORMAT
  1
CONTENTFORMAT_BEGIN
 90
        0
 91
        0
 92
        4
 93
        0
300

 40
0.0
140
1.0
 94
        2
 62
     0
340
11
144
0.18
309
CONTENTFORMAT_END
171
     1
301
MARGIN
  1
CELLMARGIN_BEGIN
 40
0.06
 40
0.06
 40
0.06
 40
0.06
 40
0.06
 40
0.06
309
CELLMARGIN_END
 94
        6
 95
        1
302
GRIDFORMAT
  1
GRIDFORMAT_BEGIN
 90
        0
 91
        1
 62
     0
 92
       -2
340
14
 93
        0
 40
0.045
309
GRIDFORMAT_END
 95
        2
302
GRIDFORMAT
  1
GRIDFORMAT_BEGIN
 90
        0
 91
        1
 62
     0
 92
       -2
340
14
 93
        0
 40
0.045
309
GRIDFORMAT_END
 95
        4
302
GRIDFORMAT
  1
GRIDFORMAT_BEGIN
 90
        0
 91
        1
 62
     0
 92
       -2
340
14
 93
        0
 40
0.045
309
GRIDFORMAT_END
 95
        8
302
GRIDFORMAT
  1
GRIDFORMAT_BEGIN
 90
        0
 91
        1
 62
     0
 92
       -2
340
14
 93
        0
 40
0.045
309
GRIDFORMAT_END
 95
       16
302
GRIDFORMAT
  1
GRIDFORMAT_BEGIN
 90
        0
 91
        1
 62
     0
 92
       -2
340
14
 93
        0
 40
0.045
309
GRIDFORMAT_END
 95
       32
302
GRIDFORMAT
  1
GRIDFORMAT_BEGIN
 90
        0
 91
        1
 62
     0
 92
       -2
340
14
 93
        0
 40
0.045
309
GRIDFORMAT_END
309
TABLEFORMAT_END
  1
CELLSTYLE_BEGIN
 90
        3
 91
        2
300
_DATA
309
CELLSTYLE_END
  0
ENDSEC
  0
EOF
