  0
SECTION
  2
HEADER
  9
$ACADVER
  1
AC1006
  9
$DWGCODEPAGE
  3
ansi_932
  9
$INSBASE
 10
0.0
 20
0.0
 30
0.0
  9
$EXTMIN
 10
-1053.0
 20
165.5681818181818
  9
$EXTMAX
 10
-536.5
 20
432.9999999999999
  9
$LIMMIN
 10
0.0
 20
0.0
  9
$LIMMAX
 10
12.0
 20
9.0
  9
$ORTHOMODE
 70
     0
  9
$REGENMODE
 70
     1
  9
$FILLMODE
 70
     1
  9
$QTEXTMODE
 70
     0
  9
$MIRRTEXT
 70
     1
  9
$DRAGMODE
 70
     2
  9
$LTSCALE
 40
1.0
  9
$OSMODE
 70
    37
  9
$ATTMODE
 70
     1
  9
$TEXTSIZE
 40
0.2
  9
$TRACEWID
 40
0.05
  9
$TEXTSTYLE
  7
STANDARD
  9
$CLAYER
  8
0
  9
$CELTYPE
  6
BYLAYER
  9
$CECOLOR
 62
   256
  9
$DIMSCALE
 40
1.0
  9
$DIMASZ
 40
3.0
  9
$DIMEXO
 40
0.0625
  9
$DIMDLI
 40
0.38
  9
$DIMRND
 40
0.0
  9
$DIMDLE
 40
0.0
  9
$DIMEXE
 40
1.5
  9
$DIMTP
 40
0.0
  9
$DIMTM
 40
0.0
  9
$DIMTXT
 40
3.0
  9
$DIMCEN
 40
0.09
  9
$DIMTSZ
 40
0.0
  9
$DIMTOL
 70
     0
  9
$DIMLIM
 70
     0
  9
$DIMTIH
 70
     1
  9
$DIMTOH
 70
     1
  9
$DIMSE1
 70
     0
  9
$DIMSE2
 70
     0
  9
$DIMTAD
 70
     1
  9
$DIMZIN
 70
     0
  9
$DIMBLK
  1

  9
$DIMASO
 70
     1
  9
$DIMSHO
 70
     1
  9
$DIMPOST
  1

  9
$DIMAPOST
  1

  9
$DIMALT
 70
     0
  9
$DIMALTD
 70
     2
  9
$DIMALTF
 40
25.4
  9
$DIMLFAC
 40
1.0
  9
$DIMTOFL
 70
     0
  9
$DIMTVP
 40
0.0
  9
$DIMTIX
 70
     0
  9
$DIMSOXD
 70
     0
  9
$DIMSAH
 70
     0
  9
$DIMBLK1
  1

  9
$DIMBLK2
  1

  9
$LUNITS
 70
     2
  9
$LUPREC
 70
     4
  9
$SKETCHINC
 40
0.1
  9
$FILLETRAD
 40
0.5
  9
$AUNITS
 70
     0
  9
$AUPREC
 70
     0
  9
$MENU
  1
.
  9
$ELEVATION
 40
0.0
  9
$THICKNESS
 40
0.0
  9
$LIMCHECK
 70
     0
  9
$CHAMFERA
 40
0.0
  9
$CHAMFERB
 40
0.0
  9
$SKPOLY
 70
     0
  9
$TDCREATE
 40
2459997.614751505
  9
$TDUPDATE
 40
2459997.61475169
  9
$TDINDWG
 40
0.0000000116
  9
$TDUSRTIMER
 40
0.0000000116
  9
$USRTIMER
 70
     1
  9
$ANGBASE
 50
0.0
  9
$ANGDIR
 70
     0
  9
$PDMODE
 70
     0
  9
$PDSIZE
 40
0.0
  9
$PLINEWID
 40
0.0
  9
$COORDS
 70
     1
  9
$SPLFRAME
 70
     0
  9
$SPLINETYPE
 70
     6
  9
$SPLINESEGS
 70
     8
  9
$ATTDIA
 70
     0
  9
$ATTREQ
 70
     1
  9
$HANDLING
 70
     1
  9
$HANDSEED
  5
17E
  9
$SURFTAB1
 70
     6
  9
$SURFTAB2
 70
     6
  9
$SURFTYPE
 70
     6
  9
$SURFU
 70
     6
  9
$SURFV
 70
     6
  9
$UCSNAME
  2

  9
$UCSORG
 10
0.0
 20
0.0
 30
0.0
  9
$UCSXDIR
 10
1.0
 20
0.0
 30
0.0
  9
$UCSYDIR
 10
0.0
 20
1.0
 30
0.0
  9
$USERI1
 70
     0
  9
$USERI2
 70
     0
  9
$USERI3
 70
     0
  9
$USERI4
 70
     0
  9
$USERI5
 70
     0
  9
$USERR1
 40
0.0
  9
$USERR2
 40
0.0
  9
$USERR3
 40
0.0
  9
$USERR4
 40
0.0
  9
$USERR5
 40
0.0
  9
$WORLDVIEW
 70
     1
  0
ENDSEC
  0
SECTION
  2
TABLES
  0
TABLE
  2
VPORT
 70
     1
  0
VPORT
  2
*ACTIVE
 70
     0
 10
0.0
 20
0.0
 11
1.0
 21
1.0
 12
-794.7500000000001
 22
299.2840909090909
 13
0.0
 23
0.0
 14
0.5
 24
0.5
 15
0.5
 25
0.5
 16
0.0
 26
0.0
 36
1.0
 17
0.0
 27
0.0
 37
0.0
 40
267.4318181818181
 41
1.6
 42
50.0
 43
0.0
 44
0.0
 50
0.0
 51
0.0
 71
     0
 72
   100
 73
     1
 74
     3
 75
     0
 76
     0
 77
     0
 78
     0
  0
ENDTAB
  0
TABLE
  2
LTYPE
 70
     2
  0
LTYPE
  2
CONTINUOUS
 70
     0
  3
Solid line
 72
    65
 73
     0
 40
0.0
  0
LTYPE
  2
CENTER
 70
     0
  3

 72
    65
 73
     0
 40
0.0
  0
ENDTAB
  0
TABLE
  2
LAYER
 70
     2
  0
LAYER
  2
0
 70
     0
 62
     7
  6
CONTINUOUS
  0
LAYER
  2
1
 70
     0
 62
     7
  6
CONTINUOUS
  0
ENDTAB
  0
TABLE
  2
STYLE
 70
     2
  0
STYLE
  2
STANDARD
 70
     0
 40
0.0
 41
1.0
 50
0.0
 71
     0
 42
0.2
  3
txt
  4

  0
STYLE
  2
ＭＳ_ゴシック
 70
     0
 40
0.0
 41
1.0
 50
0.0
 71
     0
 42
0.2
  3
ＭＳ ゴシック.shx
  4

  0
ENDTAB
  0
TABLE
  2
VIEW
 70
     0
  0
ENDTAB
  0
TABLE
  2
UCS
 70
     0
  0
ENDTAB
  0
ENDSEC
  0
SECTION
  2
BLOCKS
  0
BLOCK
  8
0
  2
D_FRAME_VIEW_1531
 70
     0
 10
0.0
 20
0.0
 30
0.0
  0
LINE
  5
71
  8
1
  6
CONTINUOUS
 62
     7
 10
-781.5
 20
255.9892286822425
 30
0.0
 11
-781.5000000000001
 21
320.0
 31
0.0
  0
LINE
  5
72
  8
1
  6
CONTINUOUS
 62
     7
 10
-781.5000000000001
 20
320.0
 30
0.0
 11
-540.5
 21
320.0
 31
0.0
  0
LINE
  5
73
  8
1
  6
CONTINUOUS
 62
     7
 10
-538.5
 20
431.0
 30
0.0
 11
-540.5
 21
431.0
 31
0.0
  0
LINE
  5
74
  8
1
  6
CONTINUOUS
 62
     7
 10
-538.5
 20
431.0
 30
0.0
 11
-538.5
 21
209.0000000000001
 31
0.0
  0
LINE
  5
75
  8
1
  6
CONTINUOUS
 62
     7
 10
-538.5
 20
209.0
 30
0.0
 11
-540.5
 21
209.0
 31
0.0
  0
LINE
  5
76
  8
1
  6
CONTINUOUS
 62
     7
 10
-540.5
 20
431.0
 30
0.0
 11
-540.5
 21
209.0000000000001
 31
0.0
  0
LINE
  5
77
  8
1
  6
CONTINUOUS
 62
     7
 10
-781.5
 20
382.0
 30
0.0
 11
-781.5
 21
320.0
 31
0.0
  0
LINE
  5
78
  8
1
  6
CONTINUOUS
 62
     7
 10
-781.5
 20
255.989228681159
 30
0.0
 11
-540.5
 21
255.989228681159
 31
0.0
  0
LINE
  5
79
  8
1
  6
CONTINUOUS
 62
     7
 10
-540.4999999999998
 20
382.0
 30
0.0
 11
-781.4999999999998
 21
382.0
 31
0.0
  0
ENDBLK
  8
0
  0
BLOCK
  8
0
  2
D_FRAME_VIEW_1503
 70
     0
 10
0.0
 20
0.0
 30
0.0
  0
POLYLINE
  5
83
  8
1
  6
CONTINUOUS
 62
     7
 66
     1
 10
0.0
 20
0.0
 30
0.0
  0
VERTEX
  5
9A
  8
1
  6
CONTINUOUS
 62
     7
 10
-950.0
 20
256.5864790343395
 30
0.0
  0
VERTEX
  5
9B
  8
1
  6
CONTINUOUS
 62
     7
 10
-949.1915900260966
 20
256.4808522675999
 30
0.0
  0
VERTEX
  5
9C
  8
1
  6
CONTINUOUS
 62
     7
 10
-948.3821189647007
 20
256.3854849491829
 30
0.0
  0
VERTEX
  5
9D
  8
1
  6
CONTINUOUS
 62
     7
 10
-947.5717148152971
 20
256.3003808878556
 30
0.0
  0
VERTEX
  5
9E
  8
1
  6
CONTINUOUS
 62
     7
 10
-946.7605055773716
 20
256.225543892385
 30
0.0
  0
VERTEX
  5
9F
  8
1
  6
CONTINUOUS
 62
     7
 10
-945.9486192504097
 20
256.1609777715383
 30
0.0
  0
VERTEX
  5
A0
  8
1
  6
CONTINUOUS
 62
     7
 10
-945.1361838338966
 20
256.1066863340827
 30
0.0
  0
VERTEX
  5
A1
  8
1
  6
CONTINUOUS
 62
     7
 10
-944.3233273273177
 20
256.062673388785
 30
0.0
  0
VERTEX
  5
A2
  8
1
  6
CONTINUOUS
 62
     7
 10
-943.5101777301585
 20
256.0289427444125
 30
0.0
  0
VERTEX
  5
A3
  8
1
  6
CONTINUOUS
 62
     7
 10
-942.6968630419049
 20
256.0054982097321
 30
0.0
  0
VERTEX
  5
A4
  8
1
  6
CONTINUOUS
 62
     7
 10
-941.8835112620417
 20
255.9923435935112
 30
0.0
  0
VERTEX
  5
A5
  8
1
  6
CONTINUOUS
 62
     7
 10
-941.0702503900548
 20
255.9894827045167
 30
0.0
  0
VERTEX
  5
A6
  8
1
  6
CONTINUOUS
 62
     7
 10
-940.2572084254291
 20
255.9969193515156
 30
0.0
  0
VERTEX
  5
A7
  8
1
  6
CONTINUOUS
 62
     7
 10
-939.444511731697
 20
256.0146776112495
 30
0.0
  0
VERTEX
  5
A8
  8
1
  6
CONTINUOUS
 62
     7
 10
-938.632285578954
 20
256.0428234156345
 30
0.0
  0
VERTEX
  5
A9
  8
1
  6
CONTINUOUS
 62
     7
 10
-937.8206645270869
 20
256.0813415058442
 30
0.0
  0
VERTEX
  5
AA
  8
1
  6
CONTINUOUS
 62
     7
 10
-937.0097838446488
 20
256.1302092656119
 30
0.0
  0
VERTEX
  5
AB
  8
1
  6
CONTINUOUS
 62
     7
 10
-936.1997788001925
 20
256.189404078671
 30
0.0
  0
VERTEX
  5
AC
  8
1
  6
CONTINUOUS
 62
     7
 10
-935.3907846622703
 20
256.2589033287548
 30
0.0
  0
VERTEX
  5
AD
  8
1
  6
CONTINUOUS
 62
     7
 10
-934.5829366994355
 20
256.3386843995967
 30
0.0
  0
VERTEX
  5
AE
  8
1
  6
CONTINUOUS
 62
     7
 10
-933.776370180241
 20
256.4287246749299
 30
0.0
  0
VERTEX
  5
AF
  8
1
  6
CONTINUOUS
 62
     7
 10
-932.9712203732389
 20
256.5290015384878
 30
0.0
  0
VERTEX
  5
B0
  8
1
  6
CONTINUOUS
 62
     7
 10
-932.1676225469832
 20
256.6394923740038
 30
0.0
  0
VERTEX
  5
B1
  8
1
  6
CONTINUOUS
 62
     7
 10
-931.3657119700258
 20
256.7601745652113
 30
0.0
  0
VERTEX
  5
B2
  8
1
  6
CONTINUOUS
 62
     7
 10
-930.5656239109195
 20
256.8910254958434
 30
0.0
  0
VERTEX
  5
B3
  8
1
  6
CONTINUOUS
 62
     7
 10
-929.7674936382175
 20
257.0320225496336
 30
0.0
  0
VERTEX
  5
B4
  8
1
  6
CONTINUOUS
 62
     7
 10
-928.9714564204726
 20
257.1831431103153
 30
0.0
  0
VERTEX
  5
B5
  8
1
  6
CONTINUOUS
 62
     7
 10
-928.1776475262377
 20
257.3443645616218
 30
0.0
  0
VERTEX
  5
B6
  8
1
  6
CONTINUOUS
 62
     7
 10
-927.3862014790843
 20
257.5156629526783
 30
0.0
  0
VERTEX
  5
B7
  8
1
  6
CONTINUOUS
 62
     7
 10
-926.5972179486205
 20
257.6969537706513
 30
0.0
  0
VERTEX
  5
B8
  8
1
  6
CONTINUOUS
 62
     7
 10
-925.8108015170083
 20
257.8881666823267
 30
0.0
  0
VERTEX
  5
B9
  8
1
  6
CONTINUOUS
 62
     7
 10
-925.0270720801839
 20
258.0892597226513
 30
0.0
  0
VERTEX
  5
BA
  8
1
  6
CONTINUOUS
 62
     7
 10
-924.2461495340842
 20
258.3001909265722
 30
0.0
  0
VERTEX
  5
BB
  8
1
  6
CONTINUOUS
 62
     7
 10
-923.4681537746466
 20
258.5209183290362
 30
0.0
  0
VERTEX
  5
BC
  8
1
  6
CONTINUOUS
 62
     7
 10
-922.693204697807
 20
258.7513999649905
 30
0.0
  0
VERTEX
  5
BD
  8
1
  6
CONTINUOUS
 62
     7
 10
-921.921422199503
 20
258.9915938693819
 30
0.0
  0
VERTEX
  5
BE
  8
1
  6
CONTINUOUS
 62
     7
 10
-921.1529261756712
 20
259.2414580771575
 30
0.0
  0
VERTEX
  5
BF
  8
1
  6
CONTINUOUS
 62
     7
 10
-920.3878365222482
 20
259.5009506232642
 30
0.0
  0
VERTEX
  5
C0
  8
1
  6
CONTINUOUS
 62
     7
 10
-919.6262731351708
 20
259.770029542649
 30
0.0
  0
VERTEX
  5
C1
  8
1
  6
CONTINUOUS
 62
     7
 10
-918.8683559103761
 20
260.0486528702589
 30
0.0
  0
VERTEX
  5
C2
  8
1
  6
CONTINUOUS
 62
     7
 10
-918.1142047438009
 20
260.336778641041
 30
0.0
  0
VERTEX
  5
C3
  8
1
  6
CONTINUOUS
 62
     7
 10
-917.3639395313817
 20
260.634364889942
 30
0.0
  0
VERTEX
  5
C4
  8
1
  6
CONTINUOUS
 62
     7
 10
-916.6176801690556
 20
260.9413696519092
 30
0.0
  0
VERTEX
  5
C5
  8
1
  6
CONTINUOUS
 62
     7
 10
-915.8755465527593
 20
261.2577509618893
 30
0.0
  0
VERTEX
  5
C6
  8
1
  6
CONTINUOUS
 62
     7
 10
-915.1376721853832
 20
261.5834912512495
 30
0.0
  0
VERTEX
  5
C7
  8
1
  6
CONTINUOUS
 62
     7
 10
-914.4042109852112
 20
261.9185994551822
 30
0.0
  0
VERTEX
  5
C8
  8
1
  6
CONTINUOUS
 62
     7
 10
-913.6752773126026
 20
262.2630032909539
 30
0.0
  0
VERTEX
  5
C9
  8
1
  6
CONTINUOUS
 62
     7
 10
-912.9509831894326
 20
262.6166259969152
 30
0.0
  0
VERTEX
  5
CA
  8
1
  6
CONTINUOUS
 62
     7
 10
-912.231440637576
 20
262.9793908114169
 30
0.0
  0
VERTEX
  5
CB
  8
1
  6
CONTINUOUS
 62
     7
 10
-911.5167616789079
 20
263.3512209728098
 30
0.0
  0
VERTEX
  5
CC
  8
1
  6
CONTINUOUS
 62
     7
 10
-910.8070583353029
 20
263.7320397194448
 30
0.0
  0
VERTEX
  5
CD
  8
1
  6
CONTINUOUS
 62
     7
 10
-910.1024426286367
 20
264.1217702896727
 30
0.0
  0
VERTEX
  5
CE
  8
1
  6
CONTINUOUS
 62
     7
 10
-909.4030265807835
 20
264.5203359218441
 30
0.0
  0
VERTEX
  5
CF
  8
1
  6
CONTINUOUS
 62
     7
 10
-908.7089222136187
 20
264.9276598543099
 30
0.0
  0
VERTEX
  5
D0
  8
1
  6
CONTINUOUS
 62
     7
 10
-908.0202415490171
 20
265.3436653254209
 30
0.0
  0
VERTEX
  5
D1
  8
1
  6
CONTINUOUS
 62
     7
 10
-907.3370966088537
 20
265.7682755735281
 30
0.0
  0
VERTEX
  5
D2
  8
1
  6
CONTINUOUS
 62
     7
 10
-906.6595994150034
 20
266.2014138369819
 30
0.0
  0
VERTEX
  5
D3
  8
1
  6
CONTINUOUS
 62
     7
 10
-905.9878619893416
 20
266.6430033541333
 30
0.0
  0
VERTEX
  5
D4
  8
1
  6
CONTINUOUS
 62
     7
 10
-905.3219963537426
 20
267.0929673633331
 30
0.0
  0
VERTEX
  5
D5
  8
1
  6
CONTINUOUS
 62
     7
 10
-904.6621122944645
 20
267.5512279422276
 30
0.0
  0
VERTEX
  5
D6
  8
1
  6
CONTINUOUS
 62
     7
 10
-904.0082687722316
 20
268.0176815300467
 30
0.0
  0
VERTEX
  5
D7
  8
1
  6
CONTINUOUS
 62
     7
 10
-903.3605433053566
 20
268.4922360567527
 30
0.0
  0
VERTEX
  5
D8
  8
1
  6
CONTINUOUS
 62
     7
 10
-902.7190318406629
 20
268.9748092889855
 30
0.0
  0
VERTEX
  5
D9
  8
1
  6
CONTINUOUS
 62
     7
 10
-902.0838303249724
 20
269.4653189933845
 30
0.0
  0
VERTEX
  5
DA
  8
1
  6
CONTINUOUS
 62
     7
 10
-901.4550347051079
 20
269.9636829365896
 30
0.0
  0
VERTEX
  5
DB
  8
1
  6
CONTINUOUS
 62
     7
 10
-900.8327409278917
 20
270.4698188852405
 30
0.0
  0
VERTEX
  5
DC
  8
1
  6
CONTINUOUS
 62
     7
 10
-900.2170449401467
 20
270.9836446059769
 30
0.0
  0
VERTEX
  5
DD
  8
1
  6
CONTINUOUS
 62
     7
 10
-899.6080426886954
 20
271.5050778654387
 30
0.0
  0
VERTEX
  5
DE
  8
1
  6
CONTINUOUS
 62
     7
 10
-899.0058301203601
 20
272.0340364302654
 30
0.0
  0
VERTEX
  5
DF
  8
1
  6
CONTINUOUS
 62
     7
 10
-898.4105031819639
 20
272.5704380670968
 30
0.0
  0
VERTEX
  5
E0
  8
1
  6
CONTINUOUS
 62
     7
 10
-897.8221578203285
 20
273.1142005425726
 30
0.0
  0
VERTEX
  5
E1
  8
1
  6
CONTINUOUS
 62
     7
 10
-897.2408899822772
 20
273.6652416233326
 30
0.0
  0
VERTEX
  5
E2
  8
1
  6
CONTINUOUS
 62
     7
 10
-896.6667956146321
 20
274.2234790760165
 30
0.0
  0
VERTEX
  5
E3
  8
1
  6
CONTINUOUS
 62
     7
 10
-896.099970664216
 20
274.788830667264
 30
0.0
  0
VERTEX
  5
E4
  8
1
  6
CONTINUOUS
 62
     7
 10
-895.5405110778514
 20
275.3612141637149
 30
0.0
  0
VERTEX
  5
E5
  8
1
  6
CONTINUOUS
 62
     7
 10
-894.9885425143701
 20
275.9405581037348
 30
0.0
  0
VERTEX
  5
E6
  8
1
  6
CONTINUOUS
 62
     7
 10
-894.4442099811096
 20
276.5267873960934
 30
0.0
  0
VERTEX
  5
E7
  8
1
  6
CONTINUOUS
 62
     7
 10
-893.9075848279407
 20
277.1197911025893
 30
0.0
  0
VERTEX
  5
E8
  8
1
  6
CONTINUOUS
 62
     7
 10
-893.3787361052373
 20
277.7194573047327
 30
0.0
  0
VERTEX
  5
E9
  8
1
  6
CONTINUOUS
 62
     7
 10
-892.8577328633737
 20
278.3256740840339
 30
0.0
  0
VERTEX
  5
EA
  8
1
  6
CONTINUOUS
 62
     7
 10
-892.344644152724
 20
278.938329522003
 30
0.0
  0
VERTEX
  5
EB
  8
1
  6
CONTINUOUS
 62
     7
 10
-891.8395390236623
 20
279.5573117001502
 30
0.0
  0
VERTEX
  5
EC
  8
1
  6
CONTINUOUS
 62
     7
 10
-891.3424865265625
 20
280.1825086999856
 30
0.0
  0
VERTEX
  5
ED
  8
1
  6
CONTINUOUS
 62
     7
 10
-890.8535557117993
 20
280.8138086030197
 30
0.0
  0
VERTEX
  5
EE
  8
1
  6
CONTINUOUS
 62
     7
 10
-890.3728156297465
 20
281.4510994907623
 30
0.0
  0
VERTEX
  5
EF
  8
1
  6
CONTINUOUS
 62
     7
 10
-889.9003353307781
 20
282.0942694447239
 30
0.0
  0
VERTEX
  5
F0
  8
1
  6
CONTINUOUS
 62
     7
 10
-889.4361838652684
 20
282.7432065464145
 30
0.0
  0
VERTEX
  5
F1
  8
1
  6
CONTINUOUS
 62
     7
 10
-888.9804302835917
 20
283.3977988773444
 30
0.0
  0
VERTEX
  5
F2
  8
1
  6
CONTINUOUS
 62
     7
 10
-888.5331436361218
 20
284.0579345190238
 30
0.0
  0
VERTEX
  5
F3
  8
1
  6
CONTINUOUS
 62
     7
 10
-888.0943929732332
 20
284.7235015529628
 30
0.0
  0
VERTEX
  5
F4
  8
1
  6
CONTINUOUS
 62
     7
 10
-887.6642445582131
 20
285.3943885680468
 30
0.0
  0
VERTEX
  5
F5
  8
1
  6
CONTINUOUS
 62
     7
 10
-887.2427276163061
 20
286.0704914537498
 30
0.0
  0
VERTEX
  5
F6
  8
1
  6
CONTINUOUS
 62
     7
 10
-886.8298911255837
 20
286.7517036990638
 30
0.0
  0
VERTEX
  5
F7
  8
1
  6
CONTINUOUS
 62
     7
 10
-886.4257949753604
 20
287.4379169489204
 30
0.0
  0
VERTEX
  5
F8
  8
1
  6
CONTINUOUS
 62
     7
 10
-886.0304990549515
 20
288.1290228482509
 30
0.0
  0
VERTEX
  5
F9
  8
1
  6
CONTINUOUS
 62
     7
 10
-885.6440632536709
 20
288.8249130419865
 30
0.0
  0
VERTEX
  5
FA
  8
1
  6
CONTINUOUS
 62
     7
 10
-885.2665474608336
 20
289.5254791750584
 30
0.0
  0
VERTEX
  5
FB
  8
1
  6
CONTINUOUS
 62
     7
 10
-884.8980115657547
 20
290.230612892398
 30
0.0
  0
VERTEX
  5
FC
  8
1
  6
CONTINUOUS
 62
     7
 10
-884.5385154577482
 20
290.9402058389365
 30
0.0
  0
VERTEX
  5
FD
  8
1
  6
CONTINUOUS
 62
     7
 10
-884.1881190261291
 20
291.6541496596052
 30
0.0
  0
VERTEX
  5
FE
  8
1
  6
CONTINUOUS
 62
     7
 10
-883.8468821602122
 20
292.3723359993353
 30
0.0
  0
VERTEX
  5
FF
  8
1
  6
CONTINUOUS
 62
     7
 10
-883.514864749312
 20
293.0946565030582
 30
0.0
  0
VERTEX
  5
100
  8
1
  6
CONTINUOUS
 62
     7
 10
-883.192126682743
 20
293.821002815705
 30
0.0
  0
VERTEX
  5
101
  8
1
  6
CONTINUOUS
 62
     7
 10
-882.8787278498203
 20
294.5512665822069
 30
0.0
  0
VERTEX
  5
102
  8
1
  6
CONTINUOUS
 62
     7
 10
-882.5747281398583
 20
295.2853394474955
 30
0.0
  0
VERTEX
  5
103
  8
1
  6
CONTINUOUS
 62
     7
 10
-882.2801874421716
 20
296.0231130565019
 30
0.0
  0
VERTEX
  5
104
  8
1
  6
CONTINUOUS
 62
     7
 10
-881.9951992525878
 20
296.7644531789192
 30
0.0
  0
VERTEX
  5
105
  8
1
  6
CONTINUOUS
 62
     7
 10
-881.719852559907
 20
297.5091963338383
 30
0.0
  0
VERTEX
  5
106
  8
1
  6
CONTINUOUS
 62
     7
 10
-881.4541639143627
 20
298.2572114343644
 30
0.0
  0
VERTEX
  5
107
  8
1
  6
CONTINUOUS
 62
     7
 10
-881.1981489601649
 20
299.0083679277473
 30
0.0
  0
VERTEX
  5
108
  8
1
  6
CONTINUOUS
 62
     7
 10
-880.9518233415245
 20
299.7625352612368
 30
0.0
  0
VERTEX
  5
109
  8
1
  6
CONTINUOUS
 62
     7
 10
-880.715202702652
 20
300.5195828820829
 30
0.0
  0
VERTEX
  5
10A
  8
1
  6
CONTINUOUS
 62
     7
 10
-880.4883026877584
 20
301.2793802375353
 30
0.0
  0
VERTEX
  5
10B
  8
1
  6
CONTINUOUS
 62
     7
 10
-880.2711389410537
 20
302.0417967748441
 30
0.0
  0
VERTEX
  5
10C
  8
1
  6
CONTINUOUS
 62
     7
 10
-880.0637271067491
 20
302.8067019412592
 30
0.0
  0
VERTEX
  5
10D
  8
1
  6
CONTINUOUS
 62
     7
 10
-879.8660828290547
 20
303.5739651840302
 30
0.0
  0
VERTEX
  5
10E
  8
1
  6
CONTINUOUS
 62
     7
 10
-879.6782217521813
 20
304.343455950407
 30
0.0
  0
VERTEX
  5
10F
  8
1
  6
CONTINUOUS
 62
     7
 10
-879.5001595203396
 20
305.1150436876399
 30
0.0
  0
VERTEX
  5
110
  8
1
  6
CONTINUOUS
 62
     7
 10
-879.3319117777405
 20
305.8885978429782
 30
0.0
  0
VERTEX
  5
111
  8
1
  6
CONTINUOUS
 62
     7
 10
-879.1734941685941
 20
306.6639878636722
 30
0.0
  0
VERTEX
  5
112
  8
1
  6
CONTINUOUS
 62
     7
 10
-879.024922337111
 20
307.4410831969716
 30
0.0
  0
VERTEX
  5
113
  8
1
  6
CONTINUOUS
 62
     7
 10
-878.886211927502
 20
308.2197532901263
 30
0.0
  0
VERTEX
  5
114
  8
1
  6
CONTINUOUS
 62
     7
 10
-878.757378583978
 20
308.9998675903863
 30
0.0
  0
VERTEX
  5
115
  8
1
  6
CONTINUOUS
 62
     7
 10
-878.638437950749
 20
309.7812955450012
 30
0.0
  0
VERTEX
  5
116
  8
1
  6
CONTINUOUS
 62
     7
 10
-878.529405672026
 20
310.563906601221
 30
0.0
  0
VERTEX
  5
117
  8
1
  6
CONTINUOUS
 62
     7
 10
-878.4302973920198
 20
311.3475702062958
 30
0.0
  0
VERTEX
  5
118
  8
1
  6
CONTINUOUS
 62
     7
 10
-878.3411287549407
 20
312.1321558074752
 30
0.0
  0
VERTEX
  5
119
  8
1
  6
CONTINUOUS
 62
     7
 10
-878.2619154049992
 20
312.9175328520091
 30
0.0
  0
VERTEX
  5
11A
  8
1
  6
CONTINUOUS
 62
     7
 10
-878.192672986406
 20
313.7035707871476
 30
0.0
  0
VERTEX
  5
11B
  8
1
  6
CONTINUOUS
 62
     7
 10
-878.1334171433721
 20
314.4901390601403
 30
0.0
  0
VERTEX
  5
11C
  8
1
  6
CONTINUOUS
 62
     7
 10
-878.0841635201077
 20
315.2771071182373
 30
0.0
  0
VERTEX
  5
11D
  8
1
  6
CONTINUOUS
 62
     7
 10
-878.0449277608234
 20
316.0643444086883
 30
0.0
  0
VERTEX
  5
11E
  8
1
  6
CONTINUOUS
 62
     7
 10
-878.0157255097301
 20
316.8517203787433
 30
0.0
  0
VERTEX
  5
11F
  8
1
  6
CONTINUOUS
 62
     7
 10
-877.9965724110383
 20
317.6391044756521
 30
0.0
  0
VERTEX
  5
120
  8
1
  6
CONTINUOUS
 62
     7
 10
-877.987484108958
 20
318.4263661466645
 30
0.0
  0
VERTEX
  5
121
  8
1
  6
CONTINUOUS
 62
     7
 10
-877.9884762477009
 20
319.2133748390306
 30
0.0
  0
VERTEX
  5
122
  8
1
  6
CONTINUOUS
 62
     7
 10
-877.999564471477
 20
320.0
 30
0.0
  0
SEQEND
  5
17C
  8
1
  6
CONTINUOUS
 62
     7
  0
LINE
  5
84
  8
1
  6
CONTINUOUS
 62
     7
 10
-950.0
 20
258.8117658368865
 30
0.0
 11
-950.0
 21
256.5864790343395
 31
0.0
  0
ARC
  5
85
  8
1
  6
CONTINUOUS
 62
     7
 10
-940.0
 20
320.0
 30
0.0
 40
62.0
 50
260.7182009133226
 51
269.9999999999998
  0
POLYLINE
  5
86
  8
1
  6
CONTINUOUS
 62
     7
 66
     1
 10
0.0
 20
0.0
 30
0.0
  0
VERTEX
  5
123
  8
1
  6
CONTINUOUS
 62
     7
 10
-880.0000000000001
 20
320.0
 30
0.0
  0
VERTEX
  5
124
  8
1
  6
CONTINUOUS
 62
     7
 10
-879.9868434715345
 20
318.9281380403094
 30
0.0
  0
VERTEX
  5
125
  8
1
  6
CONTINUOUS
 62
     7
 10
-879.9928488839697
 20
317.8559963352621
 30
0.0
  0
VERTEX
  5
126
  8
1
  6
CONTINUOUS
 62
     7
 10
-880.0180074538483
 20
316.7838890551668
 30
0.0
  0
VERTEX
  5
127
  8
1
  6
CONTINUOUS
 62
     7
 10
-880.0623103977125
 20
315.7121303703317
 30
0.0
  0
VERTEX
  5
128
  8
1
  6
CONTINUOUS
 62
     7
 10
-880.125748932104
 20
314.6410344510651
 30
0.0
  0
VERTEX
  5
129
  8
1
  6
CONTINUOUS
 62
     7
 10
-880.2083142735652
 20
313.5709154676753
 30
0.0
  0
VERTEX
  5
12A
  8
1
  6
CONTINUOUS
 62
     7
 10
-880.3099976386383
 20
312.5020875904706
 30
0.0
  0
VERTEX
  5
12B
  8
1
  6
CONTINUOUS
 62
     7
 10
-880.4307902438653
 20
311.4348649897593
 30
0.0
  0
VERTEX
  5
12C
  8
1
  6
CONTINUOUS
 62
     7
 10
-880.5706833057884
 20
310.3695618358498
 30
0.0
  0
VERTEX
  5
12D
  8
1
  6
CONTINUOUS
 62
     7
 10
-880.7296679331736
 20
309.3064923558027
 30
0.0
  0
VERTEX
  5
12E
  8
1
  6
CONTINUOUS
 62
     7
 10
-880.9077177345937
 20
308.2459799918476
 30
0.0
  0
VERTEX
  5
12F
  8
1
  6
CONTINUOUS
 62
     7
 10
-881.1047696207589
 20
307.1883675104017
 30
0.0
  0
VERTEX
  5
130
  8
1
  6
CONTINUOUS
 62
     7
 10
-881.320755881466
 20
306.1340001111409
 30
0.0
  0
VERTEX
  5
131
  8
1
  6
CONTINUOUS
 62
     7
 10
-881.555608806512
 20
305.0832229937408
 30
0.0
  0
VERTEX
  5
132
  8
1
  6
CONTINUOUS
 62
     7
 10
-881.8092606856939
 20
304.0363813578775
 30
0.0
  0
VERTEX
  5
133
  8
1
  6
CONTINUOUS
 62
     7
 10
-882.0816438088079
 20
302.9938204032266
 30
0.0
  0
VERTEX
  5
134
  8
1
  6
CONTINUOUS
 62
     7
 10
-882.3726904656515
 20
301.955885329464
 30
0.0
  0
VERTEX
  5
135
  8
1
  6
CONTINUOUS
 62
     7
 10
-882.6823329460213
 20
300.9229213362655
 30
0.0
  0
VERTEX
  5
136
  8
1
  6
CONTINUOUS
 62
     7
 10
-883.0105035397144
 20
299.8952736233069
 30
0.0
  0
VERTEX
  5
137
  8
1
  6
CONTINUOUS
 62
     7
 10
-883.3571336820598
 20
298.8732870167012
 30
0.0
  0
VERTEX
  5
138
  8
1
  6
CONTINUOUS
 62
     7
 10
-883.7221288939859
 20
297.8572950131035
 30
0.0
  0
VERTEX
  5
139
  8
1
  6
CONTINUOUS
 62
     7
 10
-884.1053647366497
 20
296.8476180111243
 30
0.0
  0
VERTEX
  5
13A
  8
1
  6
CONTINUOUS
 62
     7
 10
-884.5067151023258
 20
295.8445756797598
 30
0.0
  0
VERTEX
  5
13B
  8
1
  6
CONTINUOUS
 62
     7
 10
-884.9260538832895
 20
294.8484876880056
 30
0.0
  0
VERTEX
  5
13C
  8
1
  6
CONTINUOUS
 62
     7
 10
-885.3632549718154
 20
293.8596737048577
 30
0.0
  0
VERTEX
  5
13D
  8
1
  6
CONTINUOUS
 62
     7
 10
-885.8181922601786
 20
292.878453399312
 30
0.0
  0
VERTEX
  5
13E
  8
1
  6
CONTINUOUS
 62
     7
 10
-886.2907396406544
 20
291.9051464403645
 30
0.0
  0
VERTEX
  5
13F
  8
1
  6
CONTINUOUS
 62
     7
 10
-886.7807710055168
 20
290.940072497011
 30
0.0
  0
VERTEX
  5
140
  8
1
  6
CONTINUOUS
 62
     7
 10
-887.2881602470413
 20
289.9835512382475
 30
0.0
  0
VERTEX
  5
141
  8
1
  6
CONTINUOUS
 62
     7
 10
-887.812778573552
 20
289.0359011912627
 30
0.0
  0
VERTEX
  5
142
  8
1
  6
CONTINUOUS
 62
     7
 10
-888.3544659924439
 20
288.0974276097373
 30
0.0
  0
VERTEX
  5
143
  8
1
  6
CONTINUOUS
 62
     7
 10
-888.913042381481
 20
287.1684271837983
 30
0.0
  0
VERTEX
  5
144
  8
1
  6
CONTINUOUS
 62
     7
 10
-889.4883272829331
 20
286.2491964608469
 30
0.0
  0
VERTEX
  5
145
  8
1
  6
CONTINUOUS
 62
     7
 10
-890.0801402390708
 20
285.3400319882844
 30
0.0
  0
VERTEX
  5
146
  8
1
  6
CONTINUOUS
 62
     7
 10
-890.6883007921634
 20
284.4412303135117
 30
0.0
  0
VERTEX
  5
147
  8
1
  6
CONTINUOUS
 62
     7
 10
-891.3126284844814
 20
283.5530879839303
 30
0.0
  0
VERTEX
  5
148
  8
1
  6
CONTINUOUS
 62
     7
 10
-891.9529428582945
 20
282.6759015469411
 30
0.0
  0
VERTEX
  5
149
  8
1
  6
CONTINUOUS
 62
     7
 10
-892.6090634558727
 20
281.8099675499454
 30
0.0
  0
VERTEX
  5
14A
  8
1
  6
CONTINUOUS
 62
     7
 10
-893.280809819486
 20
280.9555825403444
 30
0.0
  0
VERTEX
  5
14B
  8
1
  6
CONTINUOUS
 62
     7
 10
-893.9679955707762
 20
280.1130388916098
 30
0.0
  0
VERTEX
  5
14C
  8
1
  6
CONTINUOUS
 62
     7
 10
-894.6704012013047
 20
279.2826056211427
 30
0.0
  0
VERTEX
  5
14D
  8
1
  6
CONTINUOUS
 62
     7
 10
-895.3877956851605
 20
278.4645436267473
 30
0.0
  0
VERTEX
  5
14E
  8
1
  6
CONTINUOUS
 62
     7
 10
-896.1199479848698
 20
277.6591137980756
 30
0.0
  0
VERTEX
  5
14F
  8
1
  6
CONTINUOUS
 62
     7
 10
-896.8666270629571
 20
276.8665770247792
 30
0.0
  0
VERTEX
  5
150
  8
1
  6
CONTINUOUS
 62
     7
 10
-897.6276018819484
 20
276.0871941965101
 30
0.0
  0
VERTEX
  5
151
  8
1
  6
CONTINUOUS
 62
     7
 10
-898.402641404369
 20
275.3212262029202
 30
0.0
  0
VERTEX
  5
152
  8
1
  6
CONTINUOUS
 62
     7
 10
-899.191514592744
 20
274.5689339336612
 30
0.0
  0
VERTEX
  5
153
  8
1
  6
CONTINUOUS
 62
     7
 10
-899.9939904095992
 20
273.8305782783851
 30
0.0
  0
VERTEX
  5
154
  8
1
  6
CONTINUOUS
 62
     7
 10
-900.8098378085268
 20
273.106420116888
 30
0.0
  0
VERTEX
  5
155
  8
1
  6
CONTINUOUS
 62
     7
 10
-901.6388168457736
 20
272.3967105126963
 30
0.0
  0
VERTEX
  5
156
  8
1
  6
CONTINUOUS
 62
     7
 10
-902.4806619843199
 20
271.7016722927776
 30
0.0
  0
VERTEX
  5
157
  8
1
  6
CONTINUOUS
 62
     7
 10
-903.3351031134097
 20
271.0215232379846
 30
0.0
  0
VERTEX
  5
158
  8
1
  6
CONTINUOUS
 62
     7
 10
-904.2018701222872
 20
270.3564811291702
 30
0.0
  0
VERTEX
  5
159
  8
1
  6
CONTINUOUS
 62
     7
 10
-905.0806929001967
 20
269.7067637471873
 30
0.0
  0
VERTEX
  5
15A
  8
1
  6
CONTINUOUS
 62
     7
 10
-905.9713013363822
 20
269.0725888728886
 30
0.0
  0
VERTEX
  5
15B
  8
1
  6
CONTINUOUS
 62
     7
 10
-906.8734253200881
 20
268.4541742871272
 30
0.0
  0
VERTEX
  5
15C
  8
1
  6
CONTINUOUS
 62
     7
 10
-907.7867947405582
 20
267.8517377707557
 30
0.0
  0
VERTEX
  5
15D
  8
1
  6
CONTINUOUS
 62
     7
 10
-908.7111394870371
 20
267.2654971046272
 30
0.0
  0
VERTEX
  5
15E
  8
1
  6
CONTINUOUS
 62
     7
 10
-909.6461891465809
 20
266.6956697612042
 30
0.0
  0
VERTEX
  5
15F
  8
1
  6
CONTINUOUS
 62
     7
 10
-910.5916551749746
 20
266.1424547095384
 30
0.0
  0
VERTEX
  5
160
  8
1
  6
CONTINUOUS
 62
     7
 10
-911.547220924532
 20
265.6060222383937
 30
0.0
  0
VERTEX
  5
161
  8
1
  6
CONTINUOUS
 62
     7
 10
-912.5125673300643
 20
265.0865401694131
 30
0.0
  0
VERTEX
  5
162
  8
1
  6
CONTINUOUS
 62
     7
 10
-913.4873753263824
 20
264.5841763242393
 30
0.0
  0
VERTEX
  5
163
  8
1
  6
CONTINUOUS
 62
     7
 10
-914.4713258482982
 20
264.0990985245149
 30
0.0
  0
VERTEX
  5
164
  8
1
  6
CONTINUOUS
 62
     7
 10
-915.4640998306218
 20
263.6314745918827
 30
0.0
  0
VERTEX
  5
165
  8
1
  6
CONTINUOUS
 62
     7
 10
-916.4653782081652
 20
263.1814723479856
 30
0.0
  0
VERTEX
  5
166
  8
1
  6
CONTINUOUS
 62
     7
 10
-917.4748419157389
 20
262.749259614466
 30
0.0
  0
VERTEX
  5
167
  8
1
  6
CONTINUOUS
 62
     7
 10
-918.4921718881544
 20
262.3350042129669
 30
0.0
  0
VERTEX
  5
168
  8
1
  6
CONTINUOUS
 62
     7
 10
-919.5170498347479
 20
261.9388723433185
 30
0.0
  0
VERTEX
  5
169
  8
1
  6
CONTINUOUS
 62
     7
 10
-920.5491713691317
 20
261.5610010905762
 30
0.0
  0
VERTEX
  5
16A
  8
1
  6
CONTINUOUS
 62
     7
 10
-921.5882441317457
 20
261.2015023562932
 30
0.0
  0
VERTEX
  5
16B
  8
1
  6
CONTINUOUS
 62
     7
 10
-922.6339761595862
 20
260.8604872116548
 30
0.0
  0
VERTEX
  5
16C
  8
1
  6
CONTINUOUS
 62
     7
 10
-923.6860754896494
 20
260.5380667278463
 30
0.0
  0
VERTEX
  5
16D
  8
1
  6
CONTINUOUS
 62
     7
 10
-924.744250158932
 20
260.2343519760531
 30
0.0
  0
VERTEX
  5
16E
  8
1
  6
CONTINUOUS
 62
     7
 10
-925.8082082044302
 20
259.9494540274605
 30
0.0
  0
VERTEX
  5
16F
  8
1
  6
CONTINUOUS
 62
     7
 10
-926.8776576631412
 20
259.683483953254
 30
0.0
  0
VERTEX
  5
170
  8
1
  6
CONTINUOUS
 62
     7
 10
-927.9523065720607
 20
259.4365528246186
 30
0.0
  0
VERTEX
  5
171
  8
1
  6
CONTINUOUS
 62
     7
 10
-929.0318629681852
 20
259.2087717127398
 30
0.0
  0
VERTEX
  5
172
  8
1
  6
CONTINUOUS
 62
     7
 10
-930.1160182250908
 20
259.0002473364871
 30
0.0
  0
VERTEX
  5
173
  8
1
  6
CONTINUOUS
 62
     7
 10
-931.2043313806148
 20
258.811051849981
 30
0.0
  0
VERTEX
  5
174
  8
1
  6
CONTINUOUS
 62
     7
 10
-932.2962983653545
 20
258.6412409243729
 30
0.0
  0
VERTEX
  5
175
  8
1
  6
CONTINUOUS
 62
     7
 10
-933.3914147212548
 20
258.4908701293028
 30
0.0
  0
VERTEX
  5
176
  8
1
  6
CONTINUOUS
 62
     7
 10
-934.4891759902622
 20
258.3599950344102
 30
0.0
  0
VERTEX
  5
177
  8
1
  6
CONTINUOUS
 62
     7
 10
-935.589077714322
 20
258.2486712093348
 30
0.0
  0
VERTEX
  5
178
  8
1
  6
CONTINUOUS
 62
     7
 10
-936.6906154353802
 20
258.1569542237165
 30
0.0
  0
VERTEX
  5
179
  8
1
  6
CONTINUOUS
 62
     7
 10
-937.7932846953821
 20
258.0848996471948
 30
0.0
  0
VERTEX
  5
17A
  8
1
  6
CONTINUOUS
 62
     7
 10
-938.8965810362735
 20
258.0325630494093
 30
0.0
  0
VERTEX
  5
17B
  8
1
  6
CONTINUOUS
 62
     7
 10
-940.0000000000002
 20
258.0
 30
0.0
  0
SEQEND
  5
17D
  8
1
  6
CONTINUOUS
 62
     7
  0
ARC
  5
87
  8
1
  6
CONTINUOUS
 62
     7
 10
-940.0
 20
320.0
 30
0.0
 40
59.99999999999994
 50
0.0
 51
270.0
  0
ARC
  5
88
  8
1
  6
CONTINUOUS
 62
     7
 10
-940.0
 20
320.0
 30
0.0
 40
62.0
 50
260.7182009133224
 51
270.0
  0
ARC
  5
89
  8
1
  6
CONTINUOUS
 62
     7
 10
-940.0
 20
320.0
 30
0.0
 40
62.00000000000001
 50
0.0
 51
260.7182009133224
  0
LINE
  5
8A
  8
1
  6
CONTINUOUS
 62
     7
 10
-940.0
 20
260.0
 30
0.0
 11
-940.0
 21
258.0
 31
0.0
  0
LINE
  5
8B
  8
1
  6
CONTINUOUS
 62
     7
 10
-1051.0
 20
431.0
 30
0.0
 11
-829.0
 21
431.0
 31
0.0
  0
LINE
  5
8C
  8
1
  6
CONTINUOUS
 62
     7
 10
-829.0
 20
431.0
 30
0.0
 11
-829.0
 21
209.0000000000001
 31
0.0
  0
LINE
  5
8D
  8
1
  6
CONTINUOUS
 62
     7
 10
-829.0
 20
209.0
 30
0.0
 11
-1051.0
 21
209.0
 31
0.0
  0
LINE
  5
8E
  8
1
  6
CONTINUOUS
 62
     7
 10
-1051.0
 20
209.0
 30
0.0
 11
-1051.0
 21
430.9999999999999
 31
0.0
  0
ARC
  5
8F
  8
1
  6
CONTINUOUS
 62
     7
 10
-940.0
 20
320.0
 30
0.0
 40
60.0
 50
270.0
 51
0.0
  0
ENDBLK
  8
0
  0
ENDSEC
  0
SECTION
  2
ENTITIES
  0
INSERT
  5
7A
  8
1
  6
CONTINUOUS
 62
     7
  2
D_FRAME_VIEW_1531
 10
0.0
 20
0.0
 30
0.0
  0
LINE
  5
7B
  8
1
  6
CENTER
 62
     1
 10
-536.5
 20
320.0000000000001
 30
0.0
 11
-787.5000000000001
 21
320.0000000000001
 31
0.0
  0
TEXT
  5
7D
  8
1
  6
CONTINUOUS
 62
     1
 10
-814.8410028760785
 20
164.4280667750407
 30
0.0
 40
10.0
  1
XPK-104
  0
LINE
  5
7E
  8
1
  6
CENTER
 62
     1
 10
-1053.0
 20
320.0
 30
0.0
 11
-827.0
 21
320.0
 31
0.0
  0
LINE
  5
7F
  8
1
  6
CENTER
 62
     1
 10
-940.0000000000001
 20
207.0
 30
0.0
 11
-940.0000000000001
 21
432.9999999999999
 31
0.0
  0
INSERT
  5
90
  8
1
  6
CONTINUOUS
 62
     7
  2
D_FRAME_VIEW_1503
 10
0.0
 20
0.0
 30
0.0
  0
ENDSEC
  0
EOF
