  0
SECTION
  2
HEADER
  9
$ACADVER
  1
AC1006
  9
$DWGCODEPAGE
  3
ansi_932
  9
$INSBASE
 10
0.0
 20
0.0
 30
0.0
  9
$EXTMIN
 10
-1040.5
 20
185.5681818181818
  9
$EXTMAX
 10
-611.5
 20
420.5
  9
$LIMMIN
 10
0.0
 20
0.0
  9
$LIMMAX
 10
12.0
 20
9.0
  9
$ORTHOMODE
 70
     0
  9
$REGENMODE
 70
     1
  9
$FILLMODE
 70
     1
  9
$QTEXTMODE
 70
     0
  9
$MIRRTEXT
 70
     1
  9
$DRAGMODE
 70
     2
  9
$LTSCALE
 40
1.0
  9
$OSMODE
 70
    37
  9
$ATTMODE
 70
     1
  9
$TEXTSIZE
 40
0.2
  9
$TRACEWID
 40
0.05
  9
$TEXTSTYLE
  7
STANDARD
  9
$CLAYER
  8
0
  9
$CELTYPE
  6
BYLAYER
  9
$CECOLOR
 62
   256
  9
$DIMSCALE
 40
1.0
  9
$DIMASZ
 40
3.0
  9
$DIMEXO
 40
0.0625
  9
$DIMDLI
 40
0.38
  9
$DIMRND
 40
0.0
  9
$DIMDLE
 40
0.0
  9
$DIMEXE
 40
1.5
  9
$DIMTP
 40
0.0
  9
$DIMTM
 40
0.0
  9
$DIMTXT
 40
3.0
  9
$DIMCEN
 40
0.09
  9
$DIMTSZ
 40
0.0
  9
$DIMTOL
 70
     0
  9
$DIMLIM
 70
     0
  9
$DIMTIH
 70
     1
  9
$DIMTOH
 70
     1
  9
$DIMSE1
 70
     0
  9
$DIMSE2
 70
     0
  9
$DIMTAD
 70
     1
  9
$DIMZIN
 70
     0
  9
$DIMBLK
  1

  9
$DIMASO
 70
     1
  9
$DIMSHO
 70
     1
  9
$DIMPOST
  1

  9
$DIMAPOST
  1

  9
$DIMALT
 70
     0
  9
$DIMALTD
 70
     2
  9
$DIMALTF
 40
25.4
  9
$DIMLFAC
 40
1.0
  9
$DIMTOFL
 70
     0
  9
$DIMTVP
 40
0.0
  9
$DIMTIX
 70
     0
  9
$DIMSOXD
 70
     0
  9
$DIMSAH
 70
     0
  9
$DIMBLK1
  1

  9
$DIMBLK2
  1

  9
$LUNITS
 70
     2
  9
$LUPREC
 70
     4
  9
$SKETCHINC
 40
0.1
  9
$FILLETRAD
 40
0.5
  9
$AUNITS
 70
     0
  9
$AUPREC
 70
     0
  9
$MENU
  1
.
  9
$ELEVATION
 40
0.0
  9
$THICKNESS
 40
0.0
  9
$LIMCHECK
 70
     0
  9
$CHAMFERA
 40
0.0
  9
$CHAMFERB
 40
0.0
  9
$SKPOLY
 70
     0
  9
$TDCREATE
 40
2459997.617447824
  9
$TDUPDATE
 40
2459997.617447963
  9
$TDINDWG
 40
0.0000000116
  9
$TDUSRTIMER
 40
0.0000000116
  9
$USRTIMER
 70
     1
  9
$ANGBASE
 50
0.0
  9
$ANGDIR
 70
     0
  9
$PDMODE
 70
     0
  9
$PDSIZE
 40
0.0
  9
$PLINEWID
 40
0.0
  9
$COORDS
 70
     1
  9
$SPLFRAME
 70
     0
  9
$SPLINETYPE
 70
     6
  9
$SPLINESEGS
 70
     8
  9
$ATTDIA
 70
     0
  9
$ATTREQ
 70
     1
  9
$HANDLING
 70
     1
  9
$HANDSEED
  5
17F
  9
$SURFTAB1
 70
     6
  9
$SURFTAB2
 70
     6
  9
$SURFTYPE
 70
     6
  9
$SURFU
 70
     6
  9
$SURFV
 70
     6
  9
$UCSNAME
  2

  9
$UCSORG
 10
0.0
 20
0.0
 30
0.0
  9
$UCSXDIR
 10
1.0
 20
0.0
 30
0.0
  9
$UCSYDIR
 10
0.0
 20
1.0
 30
0.0
  9
$USERI1
 70
     0
  9
$USERI2
 70
     0
  9
$USERI3
 70
     0
  9
$USERI4
 70
     0
  9
$USERI5
 70
     0
  9
$USERR1
 40
0.0
  9
$USERR2
 40
0.0
  9
$USERR3
 40
0.0
  9
$USERR4
 40
0.0
  9
$USERR5
 40
0.0
  9
$WORLDVIEW
 70
     1
  0
ENDSEC
  0
SECTION
  2
TABLES
  0
TABLE
  2
VPORT
 70
     1
  0
VPORT
  2
*ACTIVE
 70
     0
 10
0.0
 20
0.0
 11
1.0
 21
1.0
 12
-826.0
 22
303.0340909090909
 13
0.0
 23
0.0
 14
0.5
 24
0.5
 15
0.5
 25
0.5
 16
0.0
 26
0.0
 36
1.0
 17
0.0
 27
0.0
 37
0.0
 40
234.9318181818182
 41
1.6
 42
50.0
 43
0.0
 44
0.0
 50
0.0
 51
0.0
 71
     0
 72
   100
 73
     1
 74
     3
 75
     0
 76
     0
 77
     0
 78
     0
  0
ENDTAB
  0
TABLE
  2
LTYPE
 70
     2
  0
LTYPE
  2
CONTINUOUS
 70
     0
  3
Solid line
 72
    65
 73
     0
 40
0.0
  0
LTYPE
  2
CENTER
 70
     0
  3

 72
    65
 73
     0
 40
0.0
  0
ENDTAB
  0
TABLE
  2
LAYER
 70
     2
  0
LAYER
  2
0
 70
     0
 62
     7
  6
CONTINUOUS
  0
LAYER
  2
1
 70
     0
 62
     7
  6
CONTINUOUS
  0
ENDTAB
  0
TABLE
  2
STYLE
 70
     2
  0
STYLE
  2
STANDARD
 70
     0
 40
0.0
 41
1.0
 50
0.0
 71
     0
 42
0.2
  3
txt
  4

  0
STYLE
  2
ＭＳ_ゴシック
 70
     0
 40
0.0
 41
1.0
 50
0.0
 71
     0
 42
0.2
  3
ＭＳ ゴシック.shx
  4

  0
ENDTAB
  0
TABLE
  2
VIEW
 70
     0
  0
ENDTAB
  0
TABLE
  2
UCS
 70
     0
  0
ENDTAB
  0
ENDSEC
  0
SECTION
  2
BLOCKS
  0
BLOCK
  8
0
  2
D_FRAME_VIEW_1531
 70
     0
 10
0.0
 20
0.0
 30
0.0
  0
LINE
  5
71
  8
1
  6
CONTINUOUS
 62
     7
 10
-806.5
 20
268.5000110948457
 30
0.0
 11
-615.5
 21
268.5000110948457
 31
0.0
  0
LINE
  5
72
  8
1
  6
CONTINUOUS
 62
     7
 10
-806.5
 20
320.0
 30
0.0
 11
-615.5
 21
320.0
 31
0.0
  0
LINE
  5
73
  8
1
  6
CONTINUOUS
 62
     7
 10
-806.5
 20
320.0
 30
0.0
 11
-806.5
 21
268.5000110948457
 31
0.0
  0
LINE
  5
74
  8
1
  6
CONTINUOUS
 62
     7
 10
-613.5
 20
418.5
 30
0.0
 11
-615.5
 21
418.5
 31
0.0
  0
LINE
  5
75
  8
1
  6
CONTINUOUS
 62
     7
 10
-613.5
 20
418.5
 30
0.0
 11
-613.5
 21
221.5
 31
0.0
  0
LINE
  5
76
  8
1
  6
CONTINUOUS
 62
     7
 10
-613.5
 20
221.5
 30
0.0
 11
-615.5
 21
221.5
 31
0.0
  0
LINE
  5
77
  8
1
  6
CONTINUOUS
 62
     7
 10
-615.5
 20
418.5
 30
0.0
 11
-615.5
 21
221.5
 31
0.0
  0
LINE
  5
78
  8
1
  6
CONTINUOUS
 62
     7
 10
-806.5
 20
369.4999999999999
 30
0.0
 11
-806.5
 21
320.0
 31
0.0
  0
LINE
  5
79
  8
1
  6
CONTINUOUS
 62
     7
 10
-615.5
 20
369.5
 30
0.0
 11
-806.5
 21
369.5
 31
0.0
  0
ENDBLK
  8
0
  0
BLOCK
  8
0
  2
D_FRAME_VIEW_1503
 70
     0
 10
0.0
 20
0.0
 30
0.0
  0
LINE
  5
83
  8
1
  6
CONTINUOUS
 62
     7
 10
-950.0
 20
269.480201900641
 30
0.0
 11
-950.0
 21
271.520622941296
 31
0.0
  0
ARC
  5
84
  8
1
  6
CONTINUOUS
 62
     7
 10
-940.0
 20
320.0
 30
0.0
 40
51.49999999999998
 50
258.8034807509836
 51
269.9623907513719
  0
POLYLINE
  5
85
  8
1
  6
CONTINUOUS
 62
     7
 66
     1
 10
0.0
 20
0.0
 30
0.0
  0
VERTEX
  5
9B
  8
1
  6
CONTINUOUS
 62
     7
 10
-890.4993110147062
 20
320.0
 30
0.0
  0
VERTEX
  5
9C
  8
1
  6
CONTINUOUS
 62
     7
 10
-890.487950755053
 20
319.4280092407777
 30
0.0
  0
VERTEX
  5
9D
  8
1
  6
CONTINUOUS
 62
     7
 10
-890.4832658169332
 20
318.855750675159
 30
0.0
  0
VERTEX
  5
9E
  8
1
  6
CONTINUOUS
 62
     7
 10
-890.4852479507545
 20
318.2833004319982
 30
0.0
  0
VERTEX
  5
9F
  8
1
  6
CONTINUOUS
 62
     7
 10
-890.493888906925
 20
317.7107346401496
 30
0.0
  0
VERTEX
  5
A0
  8
1
  6
CONTINUOUS
 62
     7
 10
-890.5091804358525
 20
317.1381294284673
 30
0.0
  0
VERTEX
  5
A1
  8
1
  6
CONTINUOUS
 62
     7
 10
-890.5311142879452
 20
316.5655609258057
 30
0.0
  0
VERTEX
  5
A2
  8
1
  6
CONTINUOUS
 62
     7
 10
-890.5596822136112
 20
315.993105261019
 30
0.0
  0
VERTEX
  5
A3
  8
1
  6
CONTINUOUS
 62
     7
 10
-890.5948759632581
 20
315.4208385629614
 30
0.0
  0
VERTEX
  5
A4
  8
1
  6
CONTINUOUS
 62
     7
 10
-890.6366872872942
 20
314.8488369604871
 30
0.0
  0
VERTEX
  5
A5
  8
1
  6
CONTINUOUS
 62
     7
 10
-890.6851079361273
 20
314.2771765824505
 30
0.0
  0
VERTEX
  5
A6
  8
1
  6
CONTINUOUS
 62
     7
 10
-890.7401296601653
 20
313.7059335577058
 30
0.0
  0
VERTEX
  5
A7
  8
1
  6
CONTINUOUS
 62
     7
 10
-890.8017442098168
 20
313.1351840151071
 30
0.0
  0
VERTEX
  5
A8
  8
1
  6
CONTINUOUS
 62
     7
 10
-890.869943335489
 20
312.5650040835089
 30
0.0
  0
VERTEX
  5
A9
  8
1
  6
CONTINUOUS
 62
     7
 10
-890.9447187875903
 20
311.9954698917652
 30
0.0
  0
VERTEX
  5
AA
  8
1
  6
CONTINUOUS
 62
     7
 10
-891.0260623165286
 20
311.4266575687303
 30
0.0
  0
VERTEX
  5
AB
  8
1
  6
CONTINUOUS
 62
     7
 10
-891.1139656727119
 20
310.8586432432585
 30
0.0
  0
VERTEX
  5
AC
  8
1
  6
CONTINUOUS
 62
     7
 10
-891.2084206065482
 20
310.2915030442041
 30
0.0
  0
VERTEX
  5
AD
  8
1
  6
CONTINUOUS
 62
     7
 10
-891.3094188684452
 20
309.7253131004213
 30
0.0
  0
VERTEX
  5
AE
  8
1
  6
CONTINUOUS
 62
     7
 10
-891.4169522088114
 20
309.1601495407642
 30
0.0
  0
VERTEX
  5
AF
  8
1
  6
CONTINUOUS
 62
     7
 10
-891.5310123780544
 20
308.5960884940872
 30
0.0
  0
VERTEX
  5
B0
  8
1
  6
CONTINUOUS
 62
     7
 10
-891.6515911265824
 20
308.0332060892446
 30
0.0
  0
VERTEX
  5
B1
  8
1
  6
CONTINUOUS
 62
     7
 10
-891.7786802048035
 20
307.4715784550905
 30
0.0
  0
VERTEX
  5
B2
  8
1
  6
CONTINUOUS
 62
     7
 10
-891.9122713631252
 20
306.9112817204792
 30
0.0
  0
VERTEX
  5
B3
  8
1
  6
CONTINUOUS
 62
     7
 10
-892.0523563519556
 20
306.3523920142649
 30
0.0
  0
VERTEX
  5
B4
  8
1
  6
CONTINUOUS
 62
     7
 10
-892.1989269217034
 20
305.794985465302
 30
0.0
  0
VERTEX
  5
B5
  8
1
  6
CONTINUOUS
 62
     7
 10
-892.3519748227757
 20
305.2391382024446
 30
0.0
  0
VERTEX
  5
B6
  8
1
  6
CONTINUOUS
 62
     7
 10
-892.5114918055806
 20
304.6849263545469
 30
0.0
  0
VERTEX
  5
B7
  8
1
  6
CONTINUOUS
 62
     7
 10
-892.6774696205264
 20
304.1324260504632
 30
0.0
  0
VERTEX
  5
B8
  8
1
  6
CONTINUOUS
 62
     7
 10
-892.849900018021
 20
303.5817134190479
 30
0.0
  0
VERTEX
  5
B9
  8
1
  6
CONTINUOUS
 62
     7
 10
-893.0287747484726
 20
303.0328645891551
 30
0.0
  0
VERTEX
  5
BA
  8
1
  6
CONTINUOUS
 62
     7
 10
-893.2140855622889
 20
302.485955689639
 30
0.0
  0
VERTEX
  5
BB
  8
1
  6
CONTINUOUS
 62
     7
 10
-893.4058242098778
 20
301.9410628493539
 30
0.0
  0
VERTEX
  5
BC
  8
1
  6
CONTINUOUS
 62
     7
 10
-893.6039824416478
 20
301.3982621971542
 30
0.0
  0
VERTEX
  5
BD
  8
1
  6
CONTINUOUS
 62
     7
 10
-893.8085516000687
 20
300.8576301962546
 30
0.0
  0
VERTEX
  5
BE
  8
1
  6
CONTINUOUS
 62
     7
 10
-894.0194746927134
 20
300.3192764158592
 30
0.0
  0
VERTEX
  5
BF
  8
1
  6
CONTINUOUS
 62
     7
 10
-894.2366913095477
 20
299.7832920470149
 30
0.0
  0
VERTEX
  5
C0
  8
1
  6
CONTINUOUS
 62
     7
 10
-894.4601666304362
 20
299.2497430489082
 30
0.0
  0
VERTEX
  5
C1
  8
1
  6
CONTINUOUS
 62
     7
 10
-894.6898658352435
 20
298.7186953807257
 30
0.0
  0
VERTEX
  5
C2
  8
1
  6
CONTINUOUS
 62
     7
 10
-894.9257541038342
 20
298.1902150016539
 30
0.0
  0
VERTEX
  5
C3
  8
1
  6
CONTINUOUS
 62
     7
 10
-895.1677966160729
 20
297.6643678708795
 30
0.0
  0
VERTEX
  5
C4
  8
1
  6
CONTINUOUS
 62
     7
 10
-895.4159585518239
 20
297.141219947589
 30
0.0
  0
VERTEX
  5
C5
  8
1
  6
CONTINUOUS
 62
     7
 10
-895.670205090952
 20
296.6208371909688
 30
0.0
  0
VERTEX
  5
C6
  8
1
  6
CONTINUOUS
 62
     7
 10
-895.9305014133216
 20
296.1032855602057
 30
0.0
  0
VERTEX
  5
C7
  8
1
  6
CONTINUOUS
 62
     7
 10
-896.1968126987974
 20
295.5886310144861
 30
0.0
  0
VERTEX
  5
C8
  8
1
  6
CONTINUOUS
 62
     7
 10
-896.4691041272439
 20
295.0769395129967
 30
0.0
  0
VERTEX
  5
C9
  8
1
  6
CONTINUOUS
 62
     7
 10
-896.7473408785256
 20
294.5682770149239
 30
0.0
  0
VERTEX
  5
CA
  8
1
  6
CONTINUOUS
 62
     7
 10
-897.0314881325073
 20
294.0627094794544
 30
0.0
  0
VERTEX
  5
CB
  8
1
  6
CONTINUOUS
 62
     7
 10
-897.3215110690535
 20
293.5603028657747
 30
0.0
  0
VERTEX
  5
CC
  8
1
  6
CONTINUOUS
 62
     7
 10
-897.6173748680285
 20
293.0611231330714
 30
0.0
  0
VERTEX
  5
CD
  8
1
  6
CONTINUOUS
 62
     7
 10
-897.9190447092967
 20
292.5652362405309
 30
0.0
  0
VERTEX
  5
CE
  8
1
  6
CONTINUOUS
 62
     7
 10
-898.2264860117458
 20
292.0727080818415
 30
0.0
  0
VERTEX
  5
CF
  8
1
  6
CONTINUOUS
 62
     7
 10
-898.5396855700843
 20
291.5835990396404
 30
0.0
  0
VERTEX
  5
D0
  8
1
  6
CONTINUOUS
 62
     7
 10
-898.8586182264293
 20
291.0979738860022
 30
0.0
  0
VERTEX
  5
D1
  8
1
  6
CONTINUOUS
 62
     7
 10
-899.183242937724
 20
290.6159019670433
 30
0.0
  0
VERTEX
  5
D2
  8
1
  6
CONTINUOUS
 62
     7
 10
-899.5135186609123
 20
290.1374526288804
 30
0.0
  0
VERTEX
  5
D3
  8
1
  6
CONTINUOUS
 62
     7
 10
-899.849404352938
 20
289.6626952176302
 30
0.0
  0
VERTEX
  5
D4
  8
1
  6
CONTINUOUS
 62
     7
 10
-900.1908589707443
 20
289.1916990794091
 30
0.0
  0
VERTEX
  5
D5
  8
1
  6
CONTINUOUS
 62
     7
 10
-900.5378414712753
 20
288.724533560334
 30
0.0
  0
VERTEX
  5
D6
  8
1
  6
CONTINUOUS
 62
     7
 10
-900.8903108114743
 20
288.2612680065213
 30
0.0
  0
VERTEX
  5
D7
  8
1
  6
CONTINUOUS
 62
     7
 10
-901.2482259482848
 20
287.8019717640879
 30
0.0
  0
VERTEX
  5
D8
  8
1
  6
CONTINUOUS
 62
     7
 10
-901.6115458386512
 20
287.3467141791502
 30
0.0
  0
VERTEX
  5
D9
  8
1
  6
CONTINUOUS
 62
     7
 10
-901.980229439516
 20
286.8955645978249
 30
0.0
  0
VERTEX
  5
DA
  8
1
  6
CONTINUOUS
 62
     7
 10
-902.3542357078237
 20
286.4485923662287
 30
0.0
  0
VERTEX
  5
DB
  8
1
  6
CONTINUOUS
 62
     7
 10
-902.7335236005175
 20
286.0058668304781
 30
0.0
  0
VERTEX
  5
DC
  8
1
  6
CONTINUOUS
 62
     7
 10
-903.1180520745412
 20
285.56745733669
 30
0.0
  0
VERTEX
  5
DD
  8
1
  6
CONTINUOUS
 62
     7
 10
-903.5077800868385
 20
285.1334332309808
 30
0.0
  0
VERTEX
  5
DE
  8
1
  6
CONTINUOUS
 62
     7
 10
-903.9026665943527
 20
284.703863859467
 30
0.0
  0
VERTEX
  5
DF
  8
1
  6
CONTINUOUS
 62
     7
 10
-904.3026700436168
 20
284.2788183812431
 30
0.0
  0
VERTEX
  5
E0
  8
1
  6
CONTINUOUS
 62
     7
 10
-904.707701759683
 20
283.8583458607903
 30
0.0
  0
VERTEX
  5
E1
  8
1
  6
CONTINUOUS
 62
     7
 10
-905.1176784193601
 20
283.442488333058
 30
0.0
  0
VERTEX
  5
E2
  8
1
  6
CONTINUOUS
 62
     7
 10
-905.5325432216314
 20
283.0312957900516
 30
0.0
  0
VERTEX
  5
E3
  8
1
  6
CONTINUOUS
 62
     7
 10
-905.9522393654803
 20
282.624818223777
 30
0.0
  0
VERTEX
  5
E4
  8
1
  6
CONTINUOUS
 62
     7
 10
-906.3767100498898
 20
282.2231056262398
 30
0.0
  0
VERTEX
  5
E5
  8
1
  6
CONTINUOUS
 62
     7
 10
-906.805898473843
 20
281.8262079894457
 30
0.0
  0
VERTEX
  5
E6
  8
1
  6
CONTINUOUS
 62
     7
 10
-907.2397478363232
 20
281.4341753054002
 30
0.0
  0
VERTEX
  5
E7
  8
1
  6
CONTINUOUS
 62
     7
 10
-907.6782013363139
 20
281.0470575661092
 30
0.0
  0
VERTEX
  5
E8
  8
1
  6
CONTINUOUS
 62
     7
 10
-908.1212021727976
 20
280.6649047635782
 30
0.0
  0
VERTEX
  5
E9
  8
1
  6
CONTINUOUS
 62
     7
 10
-908.5686935447579
 20
280.2877668898132
 30
0.0
  0
VERTEX
  5
EA
  8
1
  6
CONTINUOUS
 62
     7
 10
-909.0206186511778
 20
279.9156939368194
 30
0.0
  0
VERTEX
  5
EB
  8
1
  6
CONTINUOUS
 62
     7
 10
-909.4769206910408
 20
279.5487358966027
 30
0.0
  0
VERTEX
  5
EC
  8
1
  6
CONTINUOUS
 62
     7
 10
-909.9375428633293
 20
279.1869427611687
 30
0.0
  0
VERTEX
  5
ED
  8
1
  6
CONTINUOUS
 62
     7
 10
-910.4024283670276
 20
278.8303645225232
 30
0.0
  0
VERTEX
  5
EE
  8
1
  6
CONTINUOUS
 62
     7
 10
-910.871520401118
 20
278.4790511726718
 30
0.0
  0
VERTEX
  5
EF
  8
1
  6
CONTINUOUS
 62
     7
 10
-911.3447621645844
 20
278.1330527036202
 30
0.0
  0
VERTEX
  5
F0
  8
1
  6
CONTINUOUS
 62
     7
 10
-911.8220972598551
 20
277.792419267691
 30
0.0
  0
VERTEX
  5
F1
  8
1
  6
CONTINUOUS
 62
     7
 10
-912.3034985012251
 20
277.4572130937466
 30
0.0
  0
VERTEX
  5
F2
  8
1
  6
CONTINUOUS
 62
     7
 10
-912.7889195296007
 20
277.1274902642169
 30
0.0
  0
VERTEX
  5
F3
  8
1
  6
CONTINUOUS
 62
     7
 10
-913.2782924111461
 20
276.8032985730936
 30
0.0
  0
VERTEX
  5
F4
  8
1
  6
CONTINUOUS
 62
     7
 10
-913.7715492120271
 20
276.4846858143687
 30
0.0
  0
VERTEX
  5
F5
  8
1
  6
CONTINUOUS
 62
     7
 10
-914.2686219984083
 20
276.1716997820339
 30
0.0
  0
VERTEX
  5
F6
  8
1
  6
CONTINUOUS
 62
     7
 10
-914.7694428364549
 20
275.864388270081
 30
0.0
  0
VERTEX
  5
F7
  8
1
  6
CONTINUOUS
 62
     7
 10
-915.2739437923316
 20
275.5627990725017
 30
0.0
  0
VERTEX
  5
F8
  8
1
  6
CONTINUOUS
 62
     7
 10
-915.7820569322037
 20
275.2669799832879
 30
0.0
  0
VERTEX
  5
F9
  8
1
  6
CONTINUOUS
 62
     7
 10
-916.293714322236
 20
274.9769787964314
 30
0.0
  0
VERTEX
  5
FA
  8
1
  6
CONTINUOUS
 62
     7
 10
-916.8088480285942
 20
274.692843305924
 30
0.0
  0
VERTEX
  5
FB
  8
1
  6
CONTINUOUS
 62
     7
 10
-917.3273901174424
 20
274.4146213057575
 30
0.0
  0
VERTEX
  5
FC
  8
1
  6
CONTINUOUS
 62
     7
 10
-917.8492726549462
 20
274.1423605899237
 30
0.0
  0
VERTEX
  5
FD
  8
1
  6
CONTINUOUS
 62
     7
 10
-918.3744277072701
 20
273.8761089524143
 30
0.0
  0
VERTEX
  5
FE
  8
1
  6
CONTINUOUS
 62
     7
 10
-918.9027873405798
 20
273.6159141872212
 30
0.0
  0
VERTEX
  5
FF
  8
1
  6
CONTINUOUS
 62
     7
 10
-919.4342836210399
 20
273.3618240883362
 30
0.0
  0
VERTEX
  5
100
  8
1
  6
CONTINUOUS
 62
     7
 10
-919.9688486148154
 20
273.113886449751
 30
0.0
  0
VERTEX
  5
101
  8
1
  6
CONTINUOUS
 62
     7
 10
-920.5064140668301
 20
272.8721484678927
 30
0.0
  0
VERTEX
  5
102
  8
1
  6
CONTINUOUS
 62
     7
 10
-921.0468879501574
 20
272.6366100224272
 30
0.0
  0
VERTEX
  5
103
  8
1
  6
CONTINUOUS
 62
     7
 10
-921.5901847149203
 20
272.4072734219245
 30
0.0
  0
VERTEX
  5
104
  8
1
  6
CONTINUOUS
 62
     7
 10
-922.1362327312202
 20
272.1841650327844
 30
0.0
  0
VERTEX
  5
105
  8
1
  6
CONTINUOUS
 62
     7
 10
-922.6849603691587
 20
271.967311221407
 30
0.0
  0
VERTEX
  5
106
  8
1
  6
CONTINUOUS
 62
     7
 10
-923.2362959988378
 20
271.7567383541922
 30
0.0
  0
VERTEX
  5
107
  8
1
  6
CONTINUOUS
 62
     7
 10
-923.7901679903589
 20
271.5524727975401
 30
0.0
  0
VERTEX
  5
108
  8
1
  6
CONTINUOUS
 62
     7
 10
-924.3465047138241
 20
271.3545409178506
 30
0.0
  0
VERTEX
  5
109
  8
1
  6
CONTINUOUS
 62
     7
 10
-924.9052345393347
 20
271.1629690815237
 30
0.0
  0
VERTEX
  5
10A
  8
1
  6
CONTINUOUS
 62
     7
 10
-925.4662858369925
 20
270.9777836549592
 30
0.0
  0
VERTEX
  5
10B
  8
1
  6
CONTINUOUS
 62
     7
 10
-926.0295869768995
 20
270.7990110045575
 30
0.0
  0
VERTEX
  5
10C
  8
1
  6
CONTINUOUS
 62
     7
 10
-926.5950663291572
 20
270.6266774967181
 30
0.0
  0
VERTEX
  5
10D
  8
1
  6
CONTINUOUS
 62
     7
 10
-927.1626522638674
 20
270.4608094978414
 30
0.0
  0
VERTEX
  5
10E
  8
1
  6
CONTINUOUS
 62
     7
 10
-927.7322731511316
 20
270.301433374327
 30
0.0
  0
VERTEX
  5
10F
  8
1
  6
CONTINUOUS
 62
     7
 10
-928.3038573610519
 20
270.1485754925752
 30
0.0
  0
VERTEX
  5
110
  8
1
  6
CONTINUOUS
 62
     7
 10
-928.8773332637295
 20
270.0022622189857
 30
0.0
  0
VERTEX
  5
111
  8
1
  6
CONTINUOUS
 62
     7
 10
-929.4526292292664
 20
269.8625199199587
 30
0.0
  0
VERTEX
  5
112
  8
1
  6
CONTINUOUS
 62
     7
 10
-930.0296739859081
 20
269.7293755030728
 30
0.0
  0
VERTEX
  5
113
  8
1
  6
CONTINUOUS
 62
     7
 10
-930.6084173689138
 20
269.6028890076146
 30
0.0
  0
VERTEX
  5
114
  8
1
  6
CONTINUOUS
 62
     7
 10
-931.1887922911321
 20
269.4830987022015
 30
0.0
  0
VERTEX
  5
115
  8
1
  6
CONTINUOUS
 62
     7
 10
-931.7707158171751
 20
269.3700196234643
 30
0.0
  0
VERTEX
  5
116
  8
1
  6
CONTINUOUS
 62
     7
 10
-932.3541050116545
 20
269.2636668080341
 30
0.0
  0
VERTEX
  5
117
  8
1
  6
CONTINUOUS
 62
     7
 10
-932.9388769391824
 20
269.1640552925413
 30
0.0
  0
VERTEX
  5
118
  8
1
  6
CONTINUOUS
 62
     7
 10
-933.5249486643711
 20
269.071200113617
 30
0.0
  0
VERTEX
  5
119
  8
1
  6
CONTINUOUS
 62
     7
 10
-934.1122372518323
 20
268.9851163078918
 30
0.0
  0
VERTEX
  5
11A
  8
1
  6
CONTINUOUS
 62
     7
 10
-934.7006597661781
 20
268.9058189119967
 30
0.0
  0
VERTEX
  5
11B
  8
1
  6
CONTINUOUS
 62
     7
 10
-935.2901332720205
 20
268.8333229625623
 30
0.0
  0
VERTEX
  5
11C
  8
1
  6
CONTINUOUS
 62
     7
 10
-935.8805748339717
 20
268.7676434962196
 30
0.0
  0
VERTEX
  5
11D
  8
1
  6
CONTINUOUS
 62
     7
 10
-936.4719015166435
 20
268.7087955495994
 30
0.0
  0
VERTEX
  5
11E
  8
1
  6
CONTINUOUS
 62
     7
 10
-937.0640303846482
 20
268.6567941593323
 30
0.0
  0
VERTEX
  5
11F
  8
1
  6
CONTINUOUS
 62
     7
 10
-937.656878502597
 20
268.6116543620493
 30
0.0
  0
VERTEX
  5
120
  8
1
  6
CONTINUOUS
 62
     7
 10
-938.2503629351029
 20
268.5733911943811
 30
0.0
  0
VERTEX
  5
121
  8
1
  6
CONTINUOUS
 62
     7
 10
-938.8444007467775
 20
268.5420196929585
 30
0.0
  0
VERTEX
  5
122
  8
1
  6
CONTINUOUS
 62
     7
 10
-939.438909002233
 20
268.5175548944125
 30
0.0
  0
VERTEX
  5
123
  8
1
  6
CONTINUOUS
 62
     7
 10
-940.0338048662871
 20
268.5000110948457
 30
0.0
  0
SEQEND
  5
17D
  8
1
  6
CONTINUOUS
 62
     7
  0
POLYLINE
  5
86
  8
1
  6
CONTINUOUS
 62
     7
 66
     1
 10
0.0
 20
0.0
 30
0.0
  0
VERTEX
  5
124
  8
1
  6
CONTINUOUS
 62
     7
 10
-940.0000000000001
 20
270.5
 30
0.0
  0
VERTEX
  5
125
  8
1
  6
CONTINUOUS
 62
     7
 10
-939.1194582429456
 20
270.5305591122371
 30
0.0
  0
VERTEX
  5
126
  8
1
  6
CONTINUOUS
 62
     7
 10
-938.239055183916
 20
270.5769082593274
 30
0.0
  0
VERTEX
  5
127
  8
1
  6
CONTINUOUS
 62
     7
 10
-937.3592114086192
 20
270.638997604212
 30
0.0
  0
VERTEX
  5
128
  8
1
  6
CONTINUOUS
 62
     7
 10
-936.4803475027646
 20
270.7167773098324
 30
0.0
  0
VERTEX
  5
129
  8
1
  6
CONTINUOUS
 62
     7
 10
-935.6028840520597
 20
270.8101975391299
 30
0.0
  0
VERTEX
  5
12A
  8
1
  6
CONTINUOUS
 62
     7
 10
-934.7272416422136
 20
270.9192084550458
 30
0.0
  0
VERTEX
  5
12B
  8
1
  6
CONTINUOUS
 62
     7
 10
-933.8538408589343
 20
271.0437602205215
 30
0.0
  0
VERTEX
  5
12C
  8
1
  6
CONTINUOUS
 62
     7
 10
-932.9831022879305
 20
271.1838029984984
 30
0.0
  0
VERTEX
  5
12D
  8
1
  6
CONTINUOUS
 62
     7
 10
-932.1154465149107
 20
271.3392869519179
 30
0.0
  0
VERTEX
  5
12E
  8
1
  6
CONTINUOUS
 62
     7
 10
-931.2512937709297
 20
271.5101621656496
 30
0.0
  0
VERTEX
  5
12F
  8
1
  6
CONTINUOUS
 62
     7
 10
-930.3910067001839
 20
271.6963660476836
 30
0.0
  0
VERTEX
  5
130
  8
1
  6
CONTINUOUS
 62
     7
 10
-929.5348271873605
 20
271.8978094226225
 30
0.0
  0
VERTEX
  5
131
  8
1
  6
CONTINUOUS
 62
     7
 10
-928.6829819113779
 20
272.1143997677481
 30
0.0
  0
VERTEX
  5
132
  8
1
  6
CONTINUOUS
 62
     7
 10
-927.8356975511554
 20
272.3460445603424
 30
0.0
  0
VERTEX
  5
133
  8
1
  6
CONTINUOUS
 62
     7
 10
-926.9932007856114
 20
272.5926512776871
 30
0.0
  0
VERTEX
  5
134
  8
1
  6
CONTINUOUS
 62
     7
 10
-926.1557182936654
 20
272.8541273970641
 30
0.0
  0
VERTEX
  5
135
  8
1
  6
CONTINUOUS
 62
     7
 10
-925.3234767542358
 20
273.1303803957552
 30
0.0
  0
VERTEX
  5
136
  8
1
  6
CONTINUOUS
 62
     7
 10
-924.4967028462423
 20
273.4213177510422
 30
0.0
  0
VERTEX
  5
137
  8
1
  6
CONTINUOUS
 62
     7
 10
-923.675623248603
 20
273.7268469402069
 30
0.0
  0
VERTEX
  5
138
  8
1
  6
CONTINUOUS
 62
     7
 10
-922.8604650344616
 20
274.0468747785096
 30
0.0
  0
VERTEX
  5
139
  8
1
  6
CONTINUOUS
 62
     7
 10
-922.0514672330489
 20
274.381288003334
 30
0.0
  0
VERTEX
  5
13A
  8
1
  6
CONTINUOUS
 62
     7
 10
-921.24888269609
 20
274.7299501399286
 30
0.0
  0
VERTEX
  5
13B
  8
1
  6
CONTINUOUS
 62
     7
 10
-920.4529650452795
 20
275.0927234205308
 30
0.0
  0
VERTEX
  5
13C
  8
1
  6
CONTINUOUS
 62
     7
 10
-919.6639679023114
 20
275.469470077378
 30
0.0
  0
VERTEX
  5
13D
  8
1
  6
CONTINUOUS
 62
     7
 10
-918.8821448888804
 20
275.8600523427075
 30
0.0
  0
VERTEX
  5
13E
  8
1
  6
CONTINUOUS
 62
     7
 10
-918.1077496266811
 20
276.264332448757
 30
0.0
  0
VERTEX
  5
13F
  8
1
  6
CONTINUOUS
 62
     7
 10
-917.341035737408
 20
276.6821726277636
 30
0.0
  0
VERTEX
  5
140
  8
1
  6
CONTINUOUS
 62
     7
 10
-916.5822568427548
 20
277.1134351119648
 30
0.0
  0
VERTEX
  5
141
  8
1
  6
CONTINUOUS
 62
     7
 10
-915.8316665644165
 20
277.5579821335982
 30
0.0
  0
VERTEX
  5
142
  8
1
  6
CONTINUOUS
 62
     7
 10
-915.0895164711753
 20
278.0156739894281
 30
0.0
  0
VERTEX
  5
143
  8
1
  6
CONTINUOUS
 62
     7
 10
-914.3560342667035
 20
278.4863484763483
 30
0.0
  0
VERTEX
  5
144
  8
1
  6
CONTINUOUS
 62
     7
 10
-913.6314322578294
 20
278.9698288752068
 30
0.0
  0
VERTEX
  5
145
  8
1
  6
CONTINUOUS
 62
     7
 10
-912.9159224947667
 20
279.4659382249174
 30
0.0
  0
VERTEX
  5
146
  8
1
  6
CONTINUOUS
 62
     7
 10
-912.2097170277301
 20
279.9744995643939
 30
0.0
  0
VERTEX
  5
147
  8
1
  6
CONTINUOUS
 62
     7
 10
-911.5130279069331
 20
280.4953359325499
 30
0.0
  0
VERTEX
  5
148
  8
1
  6
CONTINUOUS
 62
     7
 10
-910.82606718259
 20
281.0282703682997
 30
0.0
  0
VERTEX
  5
149
  8
1
  6
CONTINUOUS
 62
     7
 10
-910.1490469049152
 20
281.5731259105567
 30
0.0
  0
VERTEX
  5
14A
  8
1
  6
CONTINUOUS
 62
     7
 10
-909.4821791241221
 20
282.1297255982348
 30
0.0
  0
VERTEX
  5
14B
  8
1
  6
CONTINUOUS
 62
     7
 10
-908.8256758904254
 20
282.6978924702479
 30
0.0
  0
VERTEX
  5
14C
  8
1
  6
CONTINUOUS
 62
     7
 10
-908.1797455772755
 20
283.27744564054
 30
0.0
  0
VERTEX
  5
14D
  8
1
  6
CONTINUOUS
 62
     7
 10
-907.5445759840478
 20
283.8681822600885
 30
0.0
  0
VERTEX
  5
14E
  8
1
  6
CONTINUOUS
 62
     7
 10
-906.9203477576641
 20
284.4698918445781
 30
0.0
  0
VERTEX
  5
14F
  8
1
  6
CONTINUOUS
 62
     7
 10
-906.3072415378649
 20
285.0823639020277
 30
0.0
  0
VERTEX
  5
150
  8
1
  6
CONTINUOUS
 62
     7
 10
-905.7054379643909
 20
285.7053879404559
 30
0.0
  0
VERTEX
  5
151
  8
1
  6
CONTINUOUS
 62
     7
 10
-905.1151176769824
 20
286.3387534678814
 30
0.0
  0
VERTEX
  5
152
  8
1
  6
CONTINUOUS
 62
     7
 10
-904.5364613153804
 20
286.9822499923229
 30
0.0
  0
VERTEX
  5
153
  8
1
  6
CONTINUOUS
 62
     7
 10
-903.9696495193249
 20
287.6356670217991
 30
0.0
  0
VERTEX
  5
154
  8
1
  6
CONTINUOUS
 62
     7
 10
-903.4148629285568
 20
288.2987940643286
 30
0.0
  0
VERTEX
  5
155
  8
1
  6
CONTINUOUS
 62
     7
 10
-902.872282173443
 20
288.9714206215302
 30
0.0
  0
VERTEX
  5
156
  8
1
  6
CONTINUOUS
 62
     7
 10
-902.3420785477297
 20
289.6533298205267
 30
0.0
  0
VERTEX
  5
157
  8
1
  6
CONTINUOUS
 62
     7
 10
-901.8243964883238
 20
290.3442864521662
 30
0.0
  0
VERTEX
  5
158
  8
1
  6
CONTINUOUS
 62
     7
 10
-901.3193756325844
 20
291.0440520304476
 30
0.0
  0
VERTEX
  5
159
  8
1
  6
CONTINUOUS
 62
     7
 10
-900.8271556178698
 20
291.7523880693697
 30
0.0
  0
VERTEX
  5
15A
  8
1
  6
CONTINUOUS
 62
     7
 10
-900.3478760815392
 20
292.4690560829313
 30
0.0
  0
VERTEX
  5
15B
  8
1
  6
CONTINUOUS
 62
     7
 10
-899.8816766609513
 20
293.1938175851314
 30
0.0
  0
VERTEX
  5
15C
  8
1
  6
CONTINUOUS
 62
     7
 10
-899.4286969934652
 20
293.9264340899688
 30
0.0
  0
VERTEX
  5
15D
  8
1
  6
CONTINUOUS
 62
     7
 10
-898.9890767164396
 20
294.6666671114422
 30
0.0
  0
VERTEX
  5
15E
  8
1
  6
CONTINUOUS
 62
     7
 10
-898.5629554672337
 20
295.4142781635507
 30
0.0
  0
VERTEX
  5
15F
  8
1
  6
CONTINUOUS
 62
     7
 10
-898.1504726141872
 20
296.1690286631148
 30
0.0
  0
VERTEX
  5
160
  8
1
  6
CONTINUOUS
 62
     7
 10
-897.7517513845174
 20
296.9306741962626
 30
0.0
  0
VERTEX
  5
161
  8
1
  6
CONTINUOUS
 62
     7
 10
-897.3668899867002
 20
297.6989613115485
 30
0.0
  0
VERTEX
  5
162
  8
1
  6
CONTINUOUS
 62
     7
 10
-896.9959844770616
 20
298.4736357801015
 30
0.0
  0
VERTEX
  5
163
  8
1
  6
CONTINUOUS
 62
     7
 10
-896.639130911928
 20
299.2544433730503
 30
0.0
  0
VERTEX
  5
164
  8
1
  6
CONTINUOUS
 62
     7
 10
-896.2964253476255
 20
300.0411298615237
 30
0.0
  0
VERTEX
  5
165
  8
1
  6
CONTINUOUS
 62
     7
 10
-895.9679638404799
 20
300.8334410166506
 30
0.0
  0
VERTEX
  5
166
  8
1
  6
CONTINUOUS
 62
     7
 10
-895.6538424468179
 20
301.6311226095598
 30
0.0
  0
VERTEX
  5
167
  8
1
  6
CONTINUOUS
 62
     7
 10
-895.3541572229655
 20
302.4339204113801
 30
0.0
  0
VERTEX
  5
168
  8
1
  6
CONTINUOUS
 62
     7
 10
-895.0690042252488
 20
303.2415801932403
 30
0.0
  0
VERTEX
  5
169
  8
1
  6
CONTINUOUS
 62
     7
 10
-894.7984781695757
 20
304.0538469925559
 30
0.0
  0
VERTEX
  5
16A
  8
1
  6
CONTINUOUS
 62
     7
 10
-894.5426497086686
 20
304.8704526751192
 30
0.0
  0
VERTEX
  5
16B
  8
1
  6
CONTINUOUS
 62
     7
 10
-894.3015686812371
 20
305.6911177136207
 30
0.0
  0
VERTEX
  5
16C
  8
1
  6
CONTINUOUS
 62
     7
 10
-894.0752842396964
 20
306.5155622050897
 30
0.0
  0
VERTEX
  5
16D
  8
1
  6
CONTINUOUS
 62
     7
 10
-893.8638455364625
 20
307.3435062465555
 30
0.0
  0
VERTEX
  5
16E
  8
1
  6
CONTINUOUS
 62
     7
 10
-893.6673017239505
 20
308.1746699350474
 30
0.0
  0
VERTEX
  5
16F
  8
1
  6
CONTINUOUS
 62
     7
 10
-893.4857019545763
 20
309.0087733675946
 30
0.0
  0
VERTEX
  5
170
  8
1
  6
CONTINUOUS
 62
     7
 10
-893.3190953807557
 20
309.8455366412265
 30
0.0
  0
VERTEX
  5
171
  8
1
  6
CONTINUOUS
 62
     7
 10
-893.1675311549036
 20
310.6846798529724
 30
0.0
  0
VERTEX
  5
172
  8
1
  6
CONTINUOUS
 62
     7
 10
-893.0310584294361
 20
311.5259230998614
 30
0.0
  0
VERTEX
  5
173
  8
1
  6
CONTINUOUS
 62
     7
 10
-892.9097227443108
 20
312.3689903651502
 30
0.0
  0
VERTEX
  5
174
  8
1
  6
CONTINUOUS
 62
     7
 10
-892.8035409504597
 20
313.2136364953121
 30
0.0
  0
VERTEX
  5
175
  8
1
  6
CONTINUOUS
 62
     7
 10
-892.7125162178163
 20
314.0596310546312
 30
0.0
  0
VERTEX
  5
176
  8
1
  6
CONTINUOUS
 62
     7
 10
-892.636651632057
 20
314.9067436980331
 30
0.0
  0
VERTEX
  5
177
  8
1
  6
CONTINUOUS
 62
     7
 10
-892.5759502788596
 20
315.754744080443
 30
0.0
  0
VERTEX
  5
178
  8
1
  6
CONTINUOUS
 62
     7
 10
-892.5304152439012
 20
316.6034018567863
 30
0.0
  0
VERTEX
  5
179
  8
1
  6
CONTINUOUS
 62
     7
 10
-892.5000496128589
 20
317.4524866819883
 30
0.0
  0
VERTEX
  5
17A
  8
1
  6
CONTINUOUS
 62
     7
 10
-892.4848564714098
 20
318.3017682109744
 30
0.0
  0
VERTEX
  5
17B
  8
1
  6
CONTINUOUS
 62
     7
 10
-892.4848389052311
 20
319.1510160986697
 30
0.0
  0
VERTEX
  5
17C
  8
1
  6
CONTINUOUS
 62
     7
 10
-892.5
 20
319.9999999999999
 30
0.0
  0
SEQEND
  5
17E
  8
1
  6
CONTINUOUS
 62
     7
  0
ARC
  5
87
  8
1
  6
CONTINUOUS
 62
     7
 10
-940.0
 20
320.0
 30
0.0
 40
49.49999999999999
 50
258.3448801337132
 51
269.9999999999999
  0
ARC
  5
88
  8
1
  6
CONTINUOUS
 62
     7
 10
-940.0
 20
320.0
 30
0.0
 40
47.49999999999999
 50
0.0
 51
270.0
  0
ARC
  5
89
  8
1
  6
CONTINUOUS
 62
     7
 10
-940.0
 20
320.0
 30
0.0
 40
49.49999999999999
 50
258.3448801337131
 51
270.0
  0
ARC
  5
8A
  8
1
  6
CONTINUOUS
 62
     7
 10
-940.0
 20
320.0
 30
0.0
 40
49.49999999999999
 50
0.0
 51
258.3448801337132
  0
LINE
  5
8B
  8
1
  6
CONTINUOUS
 62
     7
 10
-940.0
 20
272.5
 30
0.0
 11
-940.0
 21
270.5
 31
0.0
  0
LINE
  5
8C
  8
1
  6
CONTINUOUS
 62
     7
 10
-1038.5
 20
418.5
 30
0.0
 11
-841.5
 21
418.5
 31
0.0
  0
LINE
  5
8D
  8
1
  6
CONTINUOUS
 62
     7
 10
-841.5
 20
418.5
 30
0.0
 11
-841.5
 21
221.5
 31
0.0
  0
LINE
  5
8E
  8
1
  6
CONTINUOUS
 62
     7
 10
-841.5
 20
221.5
 30
0.0
 11
-1038.5
 21
221.5
 31
0.0
  0
LINE
  5
8F
  8
1
  6
CONTINUOUS
 62
     7
 10
-1038.5
 20
221.5
 30
0.0
 11
-1038.5
 21
418.5
 31
0.0
  0
ARC
  5
90
  8
1
  6
CONTINUOUS
 62
     7
 10
-940.0
 20
320.0
 30
0.0
 40
47.49999999999999
 50
270.0
 51
0.0
  0
ENDBLK
  8
0
  0
ENDSEC
  0
SECTION
  2
ENTITIES
  0
INSERT
  5
7A
  8
1
  6
CONTINUOUS
 62
     7
  2
D_FRAME_VIEW_1531
 10
0.0
 20
0.0
 30
0.0
  0
LINE
  5
7B
  8
1
  6
CENTER
 62
     1
 10
-611.5
 20
320.0
 30
0.0
 11
-822.5
 21
320.0
 31
0.0
  0
TEXT
  5
7D
  8
1
  6
CONTINUOUS
 62
     1
 10
-841.8182756033511
 20
184.4280667750407
 30
0.0
 40
10.0
  1
XPK-82
  0
LINE
  5
7E
  8
1
  6
CENTER
 62
     1
 10
-1040.5
 20
320.0
 30
0.0
 11
-839.5
 21
320.0
 31
0.0
  0
LINE
  5
7F
  8
1
  6
CENTER
 62
     1
 10
-940.0
 20
219.5
 30
0.0
 11
-940.0
 21
420.5
 31
0.0
  0
INSERT
  5
91
  8
1
  6
CONTINUOUS
 62
     7
  2
D_FRAME_VIEW_1503
 10
0.0
 20
0.0
 30
0.0
  0
ENDSEC
  0
EOF
