  0
SECTION
  2
HEADER
  9
$ACADVER
  1
AC1006
  9
$DWGCODEPAGE
  3
ansi_932
  9
$INSBASE
 10
0.0
 20
0.0
 30
0.0
  9
$EXTMIN
 10
-1045.5
 20
165.5681818181818
  9
$EXTMAX
 10
-581.5
 20
425.5
  9
$LIMMIN
 10
0.0
 20
0.0
  9
$LIMMAX
 10
12.0
 20
9.0
  9
$ORTHOMODE
 70
     0
  9
$REGENMODE
 70
     1
  9
$FILLMODE
 70
     1
  9
$QTEXTMODE
 70
     0
  9
$MIRRTEXT
 70
     1
  9
$DRAGMODE
 70
     2
  9
$LTSCALE
 40
1.0
  9
$OSMODE
 70
    37
  9
$ATTMODE
 70
     1
  9
$TEXTSIZE
 40
0.2
  9
$TRACEWID
 40
0.05
  9
$TEXTSTYLE
  7
STANDARD
  9
$CLAYER
  8
0
  9
$CELTYPE
  6
BYLAYER
  9
$CECOLOR
 62
   256
  9
$DIMSCALE
 40
1.0
  9
$DIMASZ
 40
3.0
  9
$DIMEXO
 40
0.0625
  9
$DIMDLI
 40
0.38
  9
$DIMRND
 40
0.0
  9
$DIMDLE
 40
0.0
  9
$DIMEXE
 40
1.5
  9
$DIMTP
 40
0.0
  9
$DIMTM
 40
0.0
  9
$DIMTXT
 40
3.0
  9
$DIMCEN
 40
0.09
  9
$DIMTSZ
 40
0.0
  9
$DIMTOL
 70
     0
  9
$DIMLIM
 70
     0
  9
$DIMTIH
 70
     1
  9
$DIMTOH
 70
     1
  9
$DIMSE1
 70
     0
  9
$DIMSE2
 70
     0
  9
$DIMTAD
 70
     1
  9
$DIMZIN
 70
     0
  9
$DIMBLK
  1

  9
$DIMASO
 70
     1
  9
$DIMSHO
 70
     1
  9
$DIMPOST
  1

  9
$DIMAPOST
  1

  9
$DIMALT
 70
     0
  9
$DIMALTD
 70
     2
  9
$DIMALTF
 40
25.4
  9
$DIMLFAC
 40
1.0
  9
$DIMTOFL
 70
     0
  9
$DIMTVP
 40
0.0
  9
$DIMTIX
 70
     0
  9
$DIMSOXD
 70
     0
  9
$DIMSAH
 70
     0
  9
$DIMBLK1
  1

  9
$DIMBLK2
  1

  9
$LUNITS
 70
     2
  9
$LUPREC
 70
     4
  9
$SKETCHINC
 40
0.1
  9
$FILLETRAD
 40
0.5
  9
$AUNITS
 70
     0
  9
$AUPREC
 70
     0
  9
$MENU
  1
.
  9
$ELEVATION
 40
0.0
  9
$THICKNESS
 40
0.0
  9
$LIMCHECK
 70
     0
  9
$CHAMFERA
 40
0.0
  9
$CHAMFERB
 40
0.0
  9
$SKPOLY
 70
     0
  9
$TDCREATE
 40
2459997.615884699
  9
$TDUPDATE
 40
2459997.615884838
  9
$TDINDWG
 40
0.0000000116
  9
$TDUSRTIMER
 40
0.0000000116
  9
$USRTIMER
 70
     1
  9
$ANGBASE
 50
0.0
  9
$ANGDIR
 70
     0
  9
$PDMODE
 70
     0
  9
$PDSIZE
 40
0.0
  9
$PLINEWID
 40
0.0
  9
$COORDS
 70
     1
  9
$SPLFRAME
 70
     0
  9
$SPLINETYPE
 70
     6
  9
$SPLINESEGS
 70
     8
  9
$ATTDIA
 70
     0
  9
$ATTREQ
 70
     1
  9
$HANDLING
 70
     1
  9
$HANDSEED
  5
17F
  9
$SURFTAB1
 70
     6
  9
$SURFTAB2
 70
     6
  9
$SURFTYPE
 70
     6
  9
$SURFU
 70
     6
  9
$SURFV
 70
     6
  9
$UCSNAME
  2

  9
$UCSORG
 10
0.0
 20
0.0
 30
0.0
  9
$UCSXDIR
 10
1.0
 20
0.0
 30
0.0
  9
$UCSYDIR
 10
0.0
 20
1.0
 30
0.0
  9
$USERI1
 70
     0
  9
$USERI2
 70
     0
  9
$USERI3
 70
     0
  9
$USERI4
 70
     0
  9
$USERI5
 70
     0
  9
$USERR1
 40
0.0
  9
$USERR2
 40
0.0
  9
$USERR3
 40
0.0
  9
$USERR4
 40
0.0
  9
$USERR5
 40
0.0
  9
$WORLDVIEW
 70
     1
  0
ENDSEC
  0
SECTION
  2
TABLES
  0
TABLE
  2
VPORT
 70
     1
  0
VPORT
  2
*ACTIVE
 70
     0
 10
0.0
 20
0.0
 11
1.0
 21
1.0
 12
-813.5
 22
295.5340909090909
 13
0.0
 23
0.0
 14
0.5
 24
0.5
 15
0.5
 25
0.5
 16
0.0
 26
0.0
 36
1.0
 17
0.0
 27
0.0
 37
0.0
 40
259.9318181818181
 41
1.6
 42
50.0
 43
0.0
 44
0.0
 50
0.0
 51
0.0
 71
     0
 72
   100
 73
     1
 74
     3
 75
     0
 76
     0
 77
     0
 78
     0
  0
ENDTAB
  0
TABLE
  2
LTYPE
 70
     2
  0
LTYPE
  2
CONTINUOUS
 70
     0
  3
Solid line
 72
    65
 73
     0
 40
0.0
  0
LTYPE
  2
CENTER
 70
     0
  3

 72
    65
 73
     0
 40
0.0
  0
ENDTAB
  0
TABLE
  2
LAYER
 70
     2
  0
LAYER
  2
0
 70
     0
 62
     7
  6
CONTINUOUS
  0
LAYER
  2
1
 70
     0
 62
     7
  6
CONTINUOUS
  0
ENDTAB
  0
TABLE
  2
STYLE
 70
     2
  0
STYLE
  2
STANDARD
 70
     0
 40
0.0
 41
1.0
 50
0.0
 71
     0
 42
0.2
  3
txt
  4

  0
STYLE
  2
ＭＳ_ゴシック
 70
     0
 40
0.0
 41
1.0
 50
0.0
 71
     0
 42
0.2
  3
ＭＳ ゴシック.shx
  4

  0
ENDTAB
  0
TABLE
  2
VIEW
 70
     0
  0
ENDTAB
  0
TABLE
  2
UCS
 70
     0
  0
ENDTAB
  0
ENDSEC
  0
SECTION
  2
BLOCKS
  0
BLOCK
  8
0
  2
D_FRAME_VIEW_1531
 70
     0
 10
0.0
 20
0.0
 30
0.0
  0
LINE
  5
71
  8
1
  6
CONTINUOUS
 62
     7
 10
-796.5
 20
263.5000210149087
 30
0.0
 11
-585.5
 21
263.5000210149087
 31
0.0
  0
LINE
  5
72
  8
1
  6
CONTINUOUS
 62
     7
 10
-796.5
 20
320.0
 30
0.0
 11
-585.5
 21
320.0
 31
0.0
  0
LINE
  5
73
  8
1
  6
CONTINUOUS
 62
     7
 10
-796.5
 20
320.0
 30
0.0
 11
-796.5
 21
263.5000210149087
 31
0.0
  0
LINE
  5
74
  8
1
  6
CONTINUOUS
 62
     7
 10
-583.5
 20
423.5
 30
0.0
 11
-585.5
 21
423.5
 31
0.0
  0
LINE
  5
75
  8
1
  6
CONTINUOUS
 62
     7
 10
-583.5
 20
423.5
 30
0.0
 11
-583.5
 21
216.5
 31
0.0
  0
LINE
  5
76
  8
1
  6
CONTINUOUS
 62
     7
 10
-583.5
 20
216.5
 30
0.0
 11
-585.5
 21
216.5
 31
0.0
  0
LINE
  5
77
  8
1
  6
CONTINUOUS
 62
     7
 10
-585.5
 20
423.5
 30
0.0
 11
-585.5
 21
216.5
 31
0.0
  0
LINE
  5
78
  8
1
  6
CONTINUOUS
 62
     7
 10
-796.5
 20
374.5
 30
0.0
 11
-796.5
 21
320.0
 31
0.0
  0
LINE
  5
79
  8
1
  6
CONTINUOUS
 62
     7
 10
-585.5
 20
374.5
 30
0.0
 11
-796.5
 21
374.5
 31
0.0
  0
ENDBLK
  8
0
  0
BLOCK
  8
0
  2
D_FRAME_VIEW_1503
 70
     0
 10
0.0
 20
0.0
 30
0.0
  0
LINE
  5
83
  8
1
  6
CONTINUOUS
 62
     7
 10
-950.0
 20
264.391996978852
 30
0.0
 11
-950.0
 21
266.4252858150414
 31
0.0
  0
ARC
  5
84
  8
1
  6
CONTINUOUS
 62
     7
 10
-940.0
 20
320.0
 30
0.0
 40
56.49999999999999
 50
259.8054483672295
 51
269.9505829093275
  0
POLYLINE
  5
85
  8
1
  6
CONTINUOUS
 62
     7
 66
     1
 10
0.0
 20
0.0
 30
0.0
  0
VERTEX
  5
9B
  8
1
  6
CONTINUOUS
 62
     7
 10
-885.4994337924828
 20
320.0
 30
0.0
  0
VERTEX
  5
9C
  8
1
  6
CONTINUOUS
 62
     7
 10
-885.48841636454
 20
319.3704542958323
 30
0.0
  0
VERTEX
  5
9D
  8
1
  6
CONTINUOUS
 62
     7
 10
-885.484749300239
 20
318.7406172267559
 30
0.0
  0
VERTEX
  5
9E
  8
1
  6
CONTINUOUS
 62
     7
 10
-885.4884229384606
 20
318.1105738174488
 30
0.0
  0
VERTEX
  5
9F
  8
1
  6
CONTINUOUS
 62
     7
 10
-885.499427618086
 20
317.4804090925886
 30
0.0
  0
VERTEX
  5
A0
  8
1
  6
CONTINUOUS
 62
     7
 10
-885.5177536779953
 20
316.8502080768527
 30
0.0
  0
VERTEX
  5
A1
  8
1
  6
CONTINUOUS
 62
     7
 10
-885.5433914570699
 20
316.2200557949188
 30
0.0
  0
VERTEX
  5
A2
  8
1
  6
CONTINUOUS
 62
     7
 10
-885.5763312941906
 20
315.5900372714647
 30
0.0
  0
VERTEX
  5
A3
  8
1
  6
CONTINUOUS
 62
     7
 10
-885.616563528238
 20
314.9602375311678
 30
0.0
  0
VERTEX
  5
A4
  8
1
  6
CONTINUOUS
 62
     7
 10
-885.6640784980927
 20
314.3307415987061
 30
0.0
  0
VERTEX
  5
A5
  8
1
  6
CONTINUOUS
 62
     7
 10
-885.7188665426363
 20
313.7016344987568
 30
0.0
  0
VERTEX
  5
A6
  8
1
  6
CONTINUOUS
 62
     7
 10
-885.7809180007488
 20
313.0730012559978
 30
0.0
  0
VERTEX
  5
A7
  8
1
  6
CONTINUOUS
 62
     7
 10
-885.8502232113116
 20
312.4449268951068
 30
0.0
  0
VERTEX
  5
A8
  8
1
  6
CONTINUOUS
 62
     7
 10
-885.926772513205
 20
311.8174964407613
 30
0.0
  0
VERTEX
  5
A9
  8
1
  6
CONTINUOUS
 62
     7
 10
-886.0105562453103
 20
311.1907949176389
 30
0.0
  0
VERTEX
  5
AA
  8
1
  6
CONTINUOUS
 62
     7
 10
-886.1015647465081
 20
310.5649073504173
 30
0.0
  0
VERTEX
  5
AB
  8
1
  6
CONTINUOUS
 62
     7
 10
-886.1997883556793
 20
309.9399187637742
 30
0.0
  0
VERTEX
  5
AC
  8
1
  6
CONTINUOUS
 62
     7
 10
-886.3052174117046
 20
309.3159141823873
 30
0.0
  0
VERTEX
  5
AD
  8
1
  6
CONTINUOUS
 62
     7
 10
-886.4178422534648
 20
308.6929786309339
 30
0.0
  0
VERTEX
  5
AE
  8
1
  6
CONTINUOUS
 62
     7
 10
-886.5376532198408
 20
308.0711971340919
 30
0.0
  0
VERTEX
  5
AF
  8
1
  6
CONTINUOUS
 62
     7
 10
-886.6646406497135
 20
307.450654716539
 30
0.0
  0
VERTEX
  5
B0
  8
1
  6
CONTINUOUS
 62
     7
 10
-886.7987948819634
 20
306.8314364029526
 30
0.0
  0
VERTEX
  5
B1
  8
1
  6
CONTINUOUS
 62
     7
 10
-886.9401062554718
 20
306.2136272180106
 30
0.0
  0
VERTEX
  5
B2
  8
1
  6
CONTINUOUS
 62
     7
 10
-887.0885651091193
 20
305.5973121863904
 30
0.0
  0
VERTEX
  5
B3
  8
1
  6
CONTINUOUS
 62
     7
 10
-887.2441617817864
 20
304.9825763327698
 30
0.0
  0
VERTEX
  5
B4
  8
1
  6
CONTINUOUS
 62
     7
 10
-887.4068866123546
 20
304.3695046818265
 30
0.0
  0
VERTEX
  5
B5
  8
1
  6
CONTINUOUS
 62
     7
 10
-887.5767299397041
 20
303.7581822582378
 30
0.0
  0
VERTEX
  5
B6
  8
1
  6
CONTINUOUS
 62
     7
 10
-887.753682102716
 20
303.1486940866816
 30
0.0
  0
VERTEX
  5
B7
  8
1
  6
CONTINUOUS
 62
     7
 10
-887.9377334402714
 20
302.5411251918357
 30
0.0
  0
VERTEX
  5
B8
  8
1
  6
CONTINUOUS
 62
     7
 10
-888.1288742912502
 20
301.9355605983774
 30
0.0
  0
VERTEX
  5
B9
  8
1
  6
CONTINUOUS
 62
     7
 10
-888.327094994534
 20
301.3320853309845
 30
0.0
  0
VERTEX
  5
BA
  8
1
  6
CONTINUOUS
 62
     7
 10
-888.5323858890035
 20
300.7307844143345
 30
0.0
  0
VERTEX
  5
BB
  8
1
  6
CONTINUOUS
 62
     7
 10
-888.7447373135393
 20
300.1317428731052
 30
0.0
  0
VERTEX
  5
BC
  8
1
  6
CONTINUOUS
 62
     7
 10
-888.9641396070227
 20
299.5350457319743
 30
0.0
  0
VERTEX
  5
BD
  8
1
  6
CONTINUOUS
 62
     7
 10
-889.190582763519
 20
298.9407782656556
 30
0.0
  0
VERTEX
  5
BE
  8
1
  6
CONTINUOUS
 62
     7
 10
-889.4240056818156
 20
298.3490560136555
 30
0.0
  0
VERTEX
  5
BF
  8
1
  6
CONTINUOUS
 62
     7
 10
-889.6643414449353
 20
297.7599761565774
 30
0.0
  0
VERTEX
  5
C0
  8
1
  6
CONTINUOUS
 62
     7
 10
-889.9115510998737
 20
297.1736109448883
 30
0.0
  0
VERTEX
  5
C1
  8
1
  6
CONTINUOUS
 62
     7
 10
-890.1655956936266
 20
296.5900326290561
 30
0.0
  0
VERTEX
  5
C2
  8
1
  6
CONTINUOUS
 62
     7
 10
-890.4264362731893
 20
296.009313459548
 30
0.0
  0
VERTEX
  5
C3
  8
1
  6
CONTINUOUS
 62
     7
 10
-890.6940338855572
 20
295.4315256868314
 30
0.0
  0
VERTEX
  5
C4
  8
1
  6
CONTINUOUS
 62
     7
 10
-890.9683495777259
 20
294.8567415613738
 30
0.0
  0
VERTEX
  5
C5
  8
1
  6
CONTINUOUS
 62
     7
 10
-891.2493443966908
 20
294.2850333336426
 30
0.0
  0
VERTEX
  5
C6
  8
1
  6
CONTINUOUS
 62
     7
 10
-891.536979389448
 20
293.7164732541053
 30
0.0
  0
VERTEX
  5
C7
  8
1
  6
CONTINUOUS
 62
     7
 10
-891.8312156029921
 20
293.1511335732291
 30
0.0
  0
VERTEX
  5
C8
  8
1
  6
CONTINUOUS
 62
     7
 10
-892.1320140843193
 20
292.5890865414818
 30
0.0
  0
VERTEX
  5
C9
  8
1
  6
CONTINUOUS
 62
     7
 10
-892.4393358804248
 20
292.0304044093305
 30
0.0
  0
VERTEX
  5
CA
  8
1
  6
CONTINUOUS
 62
     7
 10
-892.7531420383041
 20
291.4751594272428
 30
0.0
  0
VERTEX
  5
CB
  8
1
  6
CONTINUOUS
 62
     7
 10
-893.0733936049529
 20
290.923423845686
 30
0.0
  0
VERTEX
  5
CC
  8
1
  6
CONTINUOUS
 62
     7
 10
-893.4000516273663
 20
290.3752699151277
 30
0.0
  0
VERTEX
  5
CD
  8
1
  6
CONTINUOUS
 62
     7
 10
-893.7330771525405
 20
289.8307698860352
 30
0.0
  0
VERTEX
  5
CE
  8
1
  6
CONTINUOUS
 62
     7
 10
-894.0724314356397
 20
289.289995960465
 30
0.0
  0
VERTEX
  5
CF
  8
1
  6
CONTINUOUS
 62
     7
 10
-894.418097625047
 20
288.7530155703806
 30
0.0
  0
VERTEX
  5
D0
  8
1
  6
CONTINUOUS
 62
     7
 10
-894.7700470721119
 20
288.2198999428037
 30
0.0
  0
VERTEX
  5
D1
  8
1
  6
CONTINUOUS
 62
     7
 10
-895.1282343310356
 20
287.6907244238694
 30
0.0
  0
VERTEX
  5
D2
  8
1
  6
CONTINUOUS
 62
     7
 10
-895.4926139560182
 20
287.1655643597124
 30
0.0
  0
VERTEX
  5
D3
  8
1
  6
CONTINUOUS
 62
     7
 10
-895.8631405012607
 20
286.644495096468
 30
0.0
  0
VERTEX
  5
D4
  8
1
  6
CONTINUOUS
 62
     7
 10
-896.2397685209634
 20
286.1275919802709
 30
0.0
  0
VERTEX
  5
D5
  8
1
  6
CONTINUOUS
 62
     7
 10
-896.6224525693273
 20
285.6149303572565
 30
0.0
  0
VERTEX
  5
D6
  8
1
  6
CONTINUOUS
 62
     7
 10
-897.0111472005528
 20
285.1065855735594
 30
0.0
  0
VERTEX
  5
D7
  8
1
  6
CONTINUOUS
 62
     7
 10
-897.4058069688409
 20
284.6026329753148
 30
0.0
  0
VERTEX
  5
D8
  8
1
  6
CONTINUOUS
 62
     7
 10
-897.8063864283922
 20
284.1031479086577
 30
0.0
  0
VERTEX
  5
D9
  8
1
  6
CONTINUOUS
 62
     7
 10
-898.212840133407
 20
283.6082057197231
 30
0.0
  0
VERTEX
  5
DA
  8
1
  6
CONTINUOUS
 62
     7
 10
-898.6251226380864
 20
283.117881754646
 30
0.0
  0
VERTEX
  5
DB
  8
1
  6
CONTINUOUS
 62
     7
 10
-899.0431884966307
 20
282.6322513595613
 30
0.0
  0
VERTEX
  5
DC
  8
1
  6
CONTINUOUS
 62
     7
 10
-899.4669922632406
 20
282.1513898806041
 30
0.0
  0
VERTEX
  5
DD
  8
1
  6
CONTINUOUS
 62
     7
 10
-899.8964884921172
 20
281.6753726639095
 30
0.0
  0
VERTEX
  5
DE
  8
1
  6
CONTINUOUS
 62
     7
 10
-900.3316317374606
 20
281.2042750556122
 30
0.0
  0
VERTEX
  5
DF
  8
1
  6
CONTINUOUS
 62
     7
 10
-900.7723760706469
 20
280.7381722135556
 30
0.0
  0
VERTEX
  5
E0
  8
1
  6
CONTINUOUS
 62
     7
 10
-901.2186256028411
 20
280.277116991608
 30
0.0
  0
VERTEX
  5
E1
  8
1
  6
CONTINUOUS
 62
     7
 10
-901.6702887415204
 20
279.8211548371897
 30
0.0
  0
VERTEX
  5
E2
  8
1
  6
CONTINUOUS
 62
     7
 10
-902.1273024785024
 20
279.3703405399547
 30
0.0
  0
VERTEX
  5
E3
  8
1
  6
CONTINUOUS
 62
     7
 10
-902.5896038056044
 20
278.9247288895569
 30
0.0
  0
VERTEX
  5
E4
  8
1
  6
CONTINUOUS
 62
     7
 10
-903.0571297146436
 20
278.4843746756505
 30
0.0
  0
VERTEX
  5
E5
  8
1
  6
CONTINUOUS
 62
     7
 10
-903.5298171974378
 20
278.0493326878896
 30
0.0
  0
VERTEX
  5
E6
  8
1
  6
CONTINUOUS
 62
     7
 10
-904.0076032458041
 20
277.619657715928
 30
0.0
  0
VERTEX
  5
E7
  8
1
  6
CONTINUOUS
 62
     7
 10
-904.4904248515604
 20
277.1954045494197
 30
0.0
  0
VERTEX
  5
E8
  8
1
  6
CONTINUOUS
 62
     7
 10
-904.9782190065239
 20
276.7766279780189
 30
0.0
  0
VERTEX
  5
E9
  8
1
  6
CONTINUOUS
 62
     7
 10
-905.470922702512
 20
276.3633827913795
 30
0.0
  0
VERTEX
  5
EA
  8
1
  6
CONTINUOUS
 62
     7
 10
-905.9684729313424
 20
275.9557237791556
 30
0.0
  0
VERTEX
  5
EB
  8
1
  6
CONTINUOUS
 62
     7
 10
-906.470806684832
 20
275.5537057310011
 30
0.0
  0
VERTEX
  5
EC
  8
1
  6
CONTINUOUS
 62
     7
 10
-906.977860954799
 20
275.1573834365701
 30
0.0
  0
VERTEX
  5
ED
  8
1
  6
CONTINUOUS
 62
     7
 10
-907.4895727330601
 20
274.7668116855166
 30
0.0
  0
VERTEX
  5
EE
  8
1
  6
CONTINUOUS
 62
     7
 10
-908.0058790114333
 20
274.3820452674947
 30
0.0
  0
VERTEX
  5
EF
  8
1
  6
CONTINUOUS
 62
     7
 10
-908.5267167817358
 20
274.0031389721584
 30
0.0
  0
VERTEX
  5
F0
  8
1
  6
CONTINUOUS
 62
     7
 10
-909.0520234253258
 20
273.6301477646618
 30
0.0
  0
VERTEX
  5
F1
  8
1
  6
CONTINUOUS
 62
     7
 10
-909.5817664750222
 20
273.263140659385
 30
0.0
  0
VERTEX
  5
F2
  8
1
  6
CONTINUOUS
 62
     7
 10
-910.1158939760181
 20
272.902179364244
 30
0.0
  0
VERTEX
  5
F3
  8
1
  6
CONTINUOUS
 62
     7
 10
-910.6543313897786
 20
272.547315700013
 30
0.0
  0
VERTEX
  5
F4
  8
1
  6
CONTINUOUS
 62
     7
 10
-911.1970041777682
 20
272.1986014874657
 30
0.0
  0
VERTEX
  5
F5
  8
1
  6
CONTINUOUS
 62
     7
 10
-911.7438378014516
 20
271.8560885473764
 30
0.0
  0
VERTEX
  5
F6
  8
1
  6
CONTINUOUS
 62
     7
 10
-912.2947577222928
 20
271.519828700519
 30
0.0
  0
VERTEX
  5
F7
  8
1
  6
CONTINUOUS
 62
     7
 10
-912.8496894017568
 20
271.1898737676675
 30
0.0
  0
VERTEX
  5
F8
  8
1
  6
CONTINUOUS
 62
     7
 10
-913.4085583013082
 20
270.866275569596
 30
0.0
  0
VERTEX
  5
F9
  8
1
  6
CONTINUOUS
 62
     7
 10
-913.9712898824112
 20
270.5490859270785
 30
0.0
  0
VERTEX
  5
FA
  8
1
  6
CONTINUOUS
 62
     7
 10
-914.5378096065303
 20
270.238356660889
 30
0.0
  0
VERTEX
  5
FB
  8
1
  6
CONTINUOUS
 62
     7
 10
-915.1080429351306
 20
269.9341395918016
 30
0.0
  0
VERTEX
  5
FC
  8
1
  6
CONTINUOUS
 62
     7
 10
-915.681915329676
 20
269.6364865405901
 30
0.0
  0
VERTEX
  5
FD
  8
1
  6
CONTINUOUS
 62
     7
 10
-916.2593522516318
 20
269.3454493280289
 30
0.0
  0
VERTEX
  5
FE
  8
1
  6
CONTINUOUS
 62
     7
 10
-916.8402791624615
 20
269.0610797748917
 30
0.0
  0
VERTEX
  5
FF
  8
1
  6
CONTINUOUS
 62
     7
 10
-917.4246215236305
 20
268.7834297019526
 30
0.0
  0
VERTEX
  5
100
  8
1
  6
CONTINUOUS
 62
     7
 10
-918.012304796603
 20
268.5125509299857
 30
0.0
  0
VERTEX
  5
101
  8
1
  6
CONTINUOUS
 62
     7
 10
-918.6032541034704
 20
268.2484946433733
 30
0.0
  0
VERTEX
  5
102
  8
1
  6
CONTINUOUS
 62
     7
 10
-919.1973686498958
 20
267.9912603011579
 30
0.0
  0
VERTEX
  5
103
  8
1
  6
CONTINUOUS
 62
     7
 10
-919.7945541815914
 20
267.7408498793671
 30
0.0
  0
VERTEX
  5
104
  8
1
  6
CONTINUOUS
 62
     7
 10
-920.3947315703399
 20
267.4972918508445
 30
0.0
  0
VERTEX
  5
105
  8
1
  6
CONTINUOUS
 62
     7
 10
-920.9978216879251
 20
267.2606146884334
 30
0.0
  0
VERTEX
  5
106
  8
1
  6
CONTINUOUS
 62
     7
 10
-921.6037454061301
 20
267.0308468649774
 30
0.0
  0
VERTEX
  5
107
  8
1
  6
CONTINUOUS
 62
     7
 10
-922.2124235967381
 20
266.80801685332
 30
0.0
  0
VERTEX
  5
108
  8
1
  6
CONTINUOUS
 62
     7
 10
-922.8237771315322
 20
266.5921531263045
 30
0.0
  0
VERTEX
  5
109
  8
1
  6
CONTINUOUS
 62
     7
 10
-923.4377268822963
 20
266.3832841567746
 30
0.0
  0
VERTEX
  5
10A
  8
1
  6
CONTINUOUS
 62
     7
 10
-924.054193720813
 20
266.1814384175736
 30
0.0
  0
VERTEX
  5
10B
  8
1
  6
CONTINUOUS
 62
     7
 10
-924.6730985188656
 20
265.9866443815449
 30
0.0
  0
VERTEX
  5
10C
  8
1
  6
CONTINUOUS
 62
     7
 10
-925.2943621482377
 20
265.7989305215322
 30
0.0
  0
VERTEX
  5
10D
  8
1
  6
CONTINUOUS
 62
     7
 10
-925.9179054807123
 20
265.6183253103787
 30
0.0
  0
VERTEX
  5
10E
  8
1
  6
CONTINUOUS
 62
     7
 10
-926.5436493880729
 20
265.444857220928
 30
0.0
  0
VERTEX
  5
10F
  8
1
  6
CONTINUOUS
 62
     7
 10
-927.1715147421025
 20
265.2785547260236
 30
0.0
  0
VERTEX
  5
110
  8
1
  6
CONTINUOUS
 62
     7
 10
-927.801422414585
 20
265.1194462985089
 30
0.0
  0
VERTEX
  5
111
  8
1
  6
CONTINUOUS
 62
     7
 10
-928.4332932773025
 20
264.9675604112274
 30
0.0
  0
VERTEX
  5
112
  8
1
  6
CONTINUOUS
 62
     7
 10
-929.0670485685376
 20
264.8229261353084
 30
0.0
  0
VERTEX
  5
113
  8
1
  6
CONTINUOUS
 62
     7
 10
-929.7026309531248
 20
264.6856088122194
 30
0.0
  0
VERTEX
  5
114
  8
1
  6
CONTINUOUS
 62
     7
 10
-930.3399659285298
 20
264.5556497237466
 30
0.0
  0
VERTEX
  5
115
  8
1
  6
CONTINUOUS
 62
     7
 10
-930.9789629494243
 20
264.4330647085724
 30
0.0
  0
VERTEX
  5
116
  8
1
  6
CONTINUOUS
 62
     7
 10
-931.6195314704797
 20
264.3178696053793
 30
0.0
  0
VERTEX
  5
117
  8
1
  6
CONTINUOUS
 62
     7
 10
-932.2615809463675
 20
264.2100802528499
 30
0.0
  0
VERTEX
  5
118
  8
1
  6
CONTINUOUS
 62
     7
 10
-932.9050208317595
 20
264.1097124896667
 30
0.0
  0
VERTEX
  5
119
  8
1
  6
CONTINUOUS
 62
     7
 10
-933.5497605813267
 20
264.0167821545121
 30
0.0
  0
VERTEX
  5
11A
  8
1
  6
CONTINUOUS
 62
     7
 10
-934.1957096497409
 20
263.9313050860685
 30
0.0
  0
VERTEX
  5
11B
  8
1
  6
CONTINUOUS
 62
     7
 10
-934.8427774916736
 20
263.8532971230186
 30
0.0
  0
VERTEX
  5
11C
  8
1
  6
CONTINUOUS
 62
     7
 10
-935.490873561796
 20
263.7827741040447
 30
0.0
  0
VERTEX
  5
11D
  8
1
  6
CONTINUOUS
 62
     7
 10
-936.1399073147802
 20
263.7197518678296
 30
0.0
  0
VERTEX
  5
11E
  8
1
  6
CONTINUOUS
 62
     7
 10
-936.7897882052968
 20
263.6642462530554
 30
0.0
  0
VERTEX
  5
11F
  8
1
  6
CONTINUOUS
 62
     7
 10
-937.4404256880181
 20
263.6162730984048
 30
0.0
  0
VERTEX
  5
120
  8
1
  6
CONTINUOUS
 62
     7
 10
-938.0917292176154
 20
263.5758482425603
 30
0.0
  0
VERTEX
  5
121
  8
1
  6
CONTINUOUS
 62
     7
 10
-938.74360824876
 20
263.5429875242042
 30
0.0
  0
VERTEX
  5
122
  8
1
  6
CONTINUOUS
 62
     7
 10
-939.3959722361234
 20
263.5177067820193
 30
0.0
  0
VERTEX
  5
123
  8
1
  6
CONTINUOUS
 62
     7
 10
-940.0487307320112
 20
263.5000210149087
 30
0.0
  0
SEQEND
  5
17D
  8
1
  6
CONTINUOUS
 62
     7
  0
POLYLINE
  5
86
  8
1
  6
CONTINUOUS
 62
     7
 66
     1
 10
0.0
 20
0.0
 30
0.0
  0
VERTEX
  5
124
  8
1
  6
CONTINUOUS
 62
     7
 10
-940.0000000000001
 20
265.4999999999999
 30
0.0
  0
VERTEX
  5
125
  8
1
  6
CONTINUOUS
 62
     7
 10
-939.0303073792911
 20
265.531361156149
 30
0.0
  0
VERTEX
  5
126
  8
1
  6
CONTINUOUS
 62
     7
 10
-938.0607470194747
 20
265.5801055784211
 30
0.0
  0
VERTEX
  5
127
  8
1
  6
CONTINUOUS
 62
     7
 10
-937.0917730562477
 20
265.6461811626715
 30
0.0
  0
VERTEX
  5
128
  8
1
  6
CONTINUOUS
 62
     7
 10
-936.1238396253085
 20
265.7295358047559
 30
0.0
  0
VERTEX
  5
129
  8
1
  6
CONTINUOUS
 62
     7
 10
-935.1574008623542
 20
265.8301174005294
 30
0.0
  0
VERTEX
  5
12A
  8
1
  6
CONTINUOUS
 62
     7
 10
-934.1929109030825
 20
265.9478738458477
 30
0.0
  0
VERTEX
  5
12B
  8
1
  6
CONTINUOUS
 62
     7
 10
-933.2308238831911
 20
266.0827530365661
 30
0.0
  0
VERTEX
  5
12C
  8
1
  6
CONTINUOUS
 62
     7
 10
-932.2715939383772
 20
266.2347028685401
 30
0.0
  0
VERTEX
  5
12D
  8
1
  6
CONTINUOUS
 62
     7
 10
-931.3156752043387
 20
266.4036712376251
 30
0.0
  0
VERTEX
  5
12E
  8
1
  6
CONTINUOUS
 62
     7
 10
-930.3635214485183
 20
266.5896059521688
 30
0.0
  0
VERTEX
  5
12F
  8
1
  6
CONTINUOUS
 62
     7
 10
-929.415526642952
 20
266.7924406114326
 30
0.0
  0
VERTEX
  5
130
  8
1
  6
CONTINUOUS
 62
     7
 10
-928.471959368847
 20
267.0120790182579
 30
0.0
  0
VERTEX
  5
131
  8
1
  6
CONTINUOUS
 62
     7
 10
-927.5330724184772
 20
267.2484212235867
 30
0.0
  0
VERTEX
  5
132
  8
1
  6
CONTINUOUS
 62
     7
 10
-926.5991185841166
 20
267.5013672783617
 30
0.0
  0
VERTEX
  5
133
  8
1
  6
CONTINUOUS
 62
     7
 10
-925.6703506580388
 20
267.7708172335251
 30
0.0
  0
VERTEX
  5
134
  8
1
  6
CONTINUOUS
 62
     7
 10
-924.747021432518
 20
268.0566711400193
 30
0.0
  0
VERTEX
  5
135
  8
1
  6
CONTINUOUS
 62
     7
 10
-923.8293836998276
 20
268.3588290487866
 30
0.0
  0
VERTEX
  5
136
  8
1
  6
CONTINUOUS
 62
     7
 10
-922.9176902522422
 20
268.6771910107693
 30
0.0
  0
VERTEX
  5
137
  8
1
  6
CONTINUOUS
 62
     7
 10
-922.0121938820348
 20
269.0116570769097
 30
0.0
  0
VERTEX
  5
138
  8
1
  6
CONTINUOUS
 62
     7
 10
-921.1131477766423
 20
269.3621265689193
 30
0.0
  0
VERTEX
  5
139
  8
1
  6
CONTINUOUS
 62
     7
 10
-920.2208171080368
 20
269.7284766922947
 30
0.0
  0
VERTEX
  5
13A
  8
1
  6
CONTINUOUS
 62
     7
 10
-919.335480903574
 20
270.1105590838652
 30
0.0
  0
VERTEX
  5
13B
  8
1
  6
CONTINUOUS
 62
     7
 10
-918.4574189624103
 20
270.5082239561798
 30
0.0
  0
VERTEX
  5
13C
  8
1
  6
CONTINUOUS
 62
     7
 10
-917.5869110837032
 20
270.9213215217879
 30
0.0
  0
VERTEX
  5
13D
  8
1
  6
CONTINUOUS
 62
     7
 10
-916.7242370666094
 20
271.3497019932389
 30
0.0
  0
VERTEX
  5
13E
  8
1
  6
CONTINUOUS
 62
     7
 10
-915.8696767102864
 20
271.793215583082
 30
0.0
  0
VERTEX
  5
13F
  8
1
  6
CONTINUOUS
 62
     7
 10
-915.0235098138909
 20
272.2517125038665
 30
0.0
  0
VERTEX
  5
140
  8
1
  6
CONTINUOUS
 62
     7
 10
-914.1860161765796
 20
272.7250429681417
 30
0.0
  0
VERTEX
  5
141
  8
1
  6
CONTINUOUS
 62
     7
 10
-913.3574755975104
 20
273.213057188457
 30
0.0
  0
VERTEX
  5
142
  8
1
  6
CONTINUOUS
 62
     7
 10
-912.5381656770888
 20
273.7156032291126
 30
0.0
  0
VERTEX
  5
143
  8
1
  6
CONTINUOUS
 62
     7
 10
-911.7283384552412
 20
274.232504181012
 30
0.0
  0
VERTEX
  5
144
  8
1
  6
CONTINUOUS
 62
     7
 10
-910.9282294812621
 20
274.7635670231903
 30
0.0
  0
VERTEX
  5
145
  8
1
  6
CONTINUOUS
 62
     7
 10
-910.1380740296016
 20
275.3085984661518
 30
0.0
  0
VERTEX
  5
146
  8
1
  6
CONTINUOUS
 62
     7
 10
-909.3581073747105
 20
275.8674052204001
 30
0.0
  0
VERTEX
  5
147
  8
1
  6
CONTINUOUS
 62
     7
 10
-908.588564791039
 20
276.4397939964393
 30
0.0
  0
VERTEX
  5
148
  8
1
  6
CONTINUOUS
 62
     7
 10
-907.8296815530376
 20
277.0255715047733
 30
0.0
  0
VERTEX
  5
149
  8
1
  6
CONTINUOUS
 62
     7
 10
-907.0816929351566
 20
277.6245444559061
 30
0.0
  0
VERTEX
  5
14A
  8
1
  6
CONTINUOUS
 62
     7
 10
-906.3448342118467
 20
278.2365195603416
 30
0.0
  0
VERTEX
  5
14B
  8
1
  6
CONTINUOUS
 62
     7
 10
-905.6193406575578
 20
278.8613035285837
 30
0.0
  0
VERTEX
  5
14C
  8
1
  6
CONTINUOUS
 62
     7
 10
-904.9054435111698
 20
279.4986986977852
 30
0.0
  0
VERTEX
  5
14D
  8
1
  6
CONTINUOUS
 62
     7
 10
-904.203351429702
 20
280.1484829331219
 30
0.0
  0
VERTEX
  5
14E
  8
1
  6
CONTINUOUS
 62
     7
 10
-903.5132652197277
 20
280.810425592235
 30
0.0
  0
VERTEX
  5
14F
  8
1
  6
CONTINUOUS
 62
     7
 10
-902.8353856799374
 20
281.484296024224
 30
0.0
  0
VERTEX
  5
150
  8
1
  6
CONTINUOUS
 62
     7
 10
-902.1699136090215
 20
282.1698635781879
 30
0.0
  0
VERTEX
  5
151
  8
1
  6
CONTINUOUS
 62
     7
 10
-901.5170498056711
 20
282.8668976032262
 30
0.0
  0
VERTEX
  5
152
  8
1
  6
CONTINUOUS
 62
     7
 10
-900.8769950685771
 20
283.5751674484382
 30
0.0
  0
VERTEX
  5
153
  8
1
  6
CONTINUOUS
 62
     7
 10
-900.24995019643
 20
284.294442462923
 30
0.0
  0
VERTEX
  5
154
  8
1
  6
CONTINUOUS
 62
     7
 10
-899.6361159879204
 20
285.0244919957802
 30
0.0
  0
VERTEX
  5
155
  8
1
  6
CONTINUOUS
 62
     7
 10
-899.0356932314897
 20
285.765085389008
 30
0.0
  0
VERTEX
  5
156
  8
1
  6
CONTINUOUS
 62
     7
 10
-898.4488725067764
 20
286.5159849120136
 30
0.0
  0
VERTEX
  5
157
  8
1
  6
CONTINUOUS
 62
     7
 10
-897.8758150277409
 20
287.276932489853
 30
0.0
  0
VERTEX
  5
158
  8
1
  6
CONTINUOUS
 62
     7
 10
-897.316676760444
 20
288.0476664118733
 30
0.0
  0
VERTEX
  5
159
  8
1
  6
CONTINUOUS
 62
     7
 10
-896.7716136709473
 20
288.8279249674209
 30
0.0
  0
VERTEX
  5
15A
  8
1
  6
CONTINUOUS
 62
     7
 10
-896.2407817253123
 20
289.6174464458426
 30
0.0
  0
VERTEX
  5
15B
  8
1
  6
CONTINUOUS
 62
     7
 10
-895.7243368896005
 20
290.4159691364852
 30
0.0
  0
VERTEX
  5
15C
  8
1
  6
CONTINUOUS
 62
     7
 10
-895.222435129873
 20
291.2232313286952
 30
0.0
  0
VERTEX
  5
15D
  8
1
  6
CONTINUOUS
 62
     7
 10
-894.7352324121916
 20
292.0389713118195
 30
0.0
  0
VERTEX
  5
15E
  8
1
  6
CONTINUOUS
 62
     7
 10
-894.2628847026177
 20
292.8629273752047
 30
0.0
  0
VERTEX
  5
15F
  8
1
  6
CONTINUOUS
 62
     7
 10
-893.8055476715874
 20
293.6948376928021
 30
0.0
  0
VERTEX
  5
160
  8
1
  6
CONTINUOUS
 62
     7
 10
-893.3633592520382
 20
294.5344335148417
 30
0.0
  0
VERTEX
  5
161
  8
1
  6
CONTINUOUS
 62
     7
 10
-892.9364298837824
 20
295.381435359785
 30
0.0
  0
VERTEX
  5
162
  8
1
  6
CONTINUOUS
 62
     7
 10
-892.5248676416329
 20
296.2355628229304
 30
0.0
  0
VERTEX
  5
163
  8
1
  6
CONTINUOUS
 62
     7
 10
-892.1287806004023
 20
297.0965354995769
 30
0.0
  0
VERTEX
  5
164
  8
1
  6
CONTINUOUS
 62
     7
 10
-891.7482768349038
 20
297.9640729850229
 30
0.0
  0
VERTEX
  5
165
  8
1
  6
CONTINUOUS
 62
     7
 10
-891.3834644199496
 20
298.8378948745671
 30
0.0
  0
VERTEX
  5
166
  8
1
  6
CONTINUOUS
 62
     7
 10
-891.034451430353
 20
299.7177207635082
 30
0.0
  0
VERTEX
  5
167
  8
1
  6
CONTINUOUS
 62
     7
 10
-890.7013459409267
 20
300.6032702471448
 30
0.0
  0
VERTEX
  5
168
  8
1
  6
CONTINUOUS
 62
     7
 10
-890.3842560264832
 20
301.4942629207757
 30
0.0
  0
VERTEX
  5
169
  8
1
  6
CONTINUOUS
 62
     7
 10
-890.0832882903118
 20
302.3904176475965
 30
0.0
  0
VERTEX
  5
16A
  8
1
  6
CONTINUOUS
 62
     7
 10
-889.7985229189156
 20
303.2914401480955
 30
0.0
  0
VERTEX
  5
16B
  8
1
  6
CONTINUOUS
 62
     7
 10
-889.5300172489825
 20
304.1970247746698
 30
0.0
  0
VERTEX
  5
16C
  8
1
  6
CONTINUOUS
 62
     7
 10
-889.2778278637812
 20
305.1068655048798
 30
0.0
  0
VERTEX
  5
16D
  8
1
  6
CONTINUOUS
 62
     7
 10
-889.0420113465798
 20
306.0206563162861
 30
0.0
  0
VERTEX
  5
16E
  8
1
  6
CONTINUOUS
 62
     7
 10
-888.8226242806463
 20
306.9380911864491
 30
0.0
  0
VERTEX
  5
16F
  8
1
  6
CONTINUOUS
 62
     7
 10
-888.6197232492495
 20
307.8588640929294
 30
0.0
  0
VERTEX
  5
170
  8
1
  6
CONTINUOUS
 62
     7
 10
-888.4333648356578
 20
308.7826690132877
 30
0.0
  0
VERTEX
  5
171
  8
1
  6
CONTINUOUS
 62
     7
 10
-888.2636056231393
 20
309.7091999250841
 30
0.0
  0
VERTEX
  5
172
  8
1
  6
CONTINUOUS
 62
     7
 10
-888.1105021949622
 20
310.6381508058794
 30
0.0
  0
VERTEX
  5
173
  8
1
  6
CONTINUOUS
 62
     7
 10
-887.9741071156839
 20
311.5692189385653
 30
0.0
  0
VERTEX
  5
174
  8
1
  6
CONTINUOUS
 62
     7
 10
-887.8544410344974
 20
312.502127855951
 30
0.0
  0
VERTEX
  5
175
  8
1
  6
CONTINUOUS
 62
     7
 10
-887.7515093810453
 20
313.4366136087033
 30
0.0
  0
VERTEX
  5
176
  8
1
  6
CONTINUOUS
 62
     7
 10
-887.6653174912389
 20
314.3724123245815
 30
0.0
  0
VERTEX
  5
177
  8
1
  6
CONTINUOUS
 62
     7
 10
-887.5958707009895
 20
315.3092601313446
 30
0.0
  0
VERTEX
  5
178
  8
1
  6
CONTINUOUS
 62
     7
 10
-887.5431743462088
 20
316.2468931567515
 30
0.0
  0
VERTEX
  5
179
  8
1
  6
CONTINUOUS
 62
     7
 10
-887.507233762808
 20
317.1850475285614
 30
0.0
  0
VERTEX
  5
17A
  8
1
  6
CONTINUOUS
 62
     7
 10
-887.4880542866988
 20
318.1234593745335
 30
0.0
  0
VERTEX
  5
17B
  8
1
  6
CONTINUOUS
 62
     7
 10
-887.4856412537922
 20
319.0618648224265
 30
0.0
  0
VERTEX
  5
17C
  8
1
  6
CONTINUOUS
 62
     7
 10
-887.5
 20
319.9999999999998
 30
0.0
  0
SEQEND
  5
17E
  8
1
  6
CONTINUOUS
 62
     7
  0
ARC
  5
87
  8
1
  6
CONTINUOUS
 62
     7
 10
-940.0
 20
320.0
 30
0.0
 40
54.50000000000001
 50
259.4271104100575
 51
269.9999999999998
  0
ARC
  5
88
  8
1
  6
CONTINUOUS
 62
     7
 10
-940.0
 20
320.0
 30
0.0
 40
52.49999999999999
 50
0.0
 51
270.0
  0
ARC
  5
89
  8
1
  6
CONTINUOUS
 62
     7
 10
-940.0
 20
320.0
 30
0.0
 40
54.49999999999999
 50
259.4271104100575
 51
270.0
  0
ARC
  5
8A
  8
1
  6
CONTINUOUS
 62
     7
 10
-940.0
 20
320.0
 30
0.0
 40
54.50000000000001
 50
0.0
 51
259.4271104100575
  0
LINE
  5
8B
  8
1
  6
CONTINUOUS
 62
     7
 10
-940.0
 20
267.5
 30
0.0
 11
-940.0
 21
265.5
 31
0.0
  0
LINE
  5
8C
  8
1
  6
CONTINUOUS
 62
     7
 10
-1043.5
 20
423.5
 30
0.0
 11
-836.5
 21
423.5
 31
0.0
  0
LINE
  5
8D
  8
1
  6
CONTINUOUS
 62
     7
 10
-836.5
 20
423.5
 30
0.0
 11
-836.5
 21
216.5
 31
0.0
  0
LINE
  5
8E
  8
1
  6
CONTINUOUS
 62
     7
 10
-836.5
 20
216.5
 30
0.0
 11
-1043.5
 21
216.5
 31
0.0
  0
LINE
  5
8F
  8
1
  6
CONTINUOUS
 62
     7
 10
-1043.5
 20
216.5
 30
0.0
 11
-1043.5
 21
423.5
 31
0.0
  0
ARC
  5
90
  8
1
  6
CONTINUOUS
 62
     7
 10
-940.0
 20
320.0
 30
0.0
 40
52.49999999999999
 50
270.0
 51
0.0
  0
ENDBLK
  8
0
  0
ENDSEC
  0
SECTION
  2
ENTITIES
  0
INSERT
  5
7A
  8
1
  6
CONTINUOUS
 62
     7
  2
D_FRAME_VIEW_1531
 10
0.0
 20
0.0
 30
0.0
  0
LINE
  5
7B
  8
1
  6
CENTER
 62
     1
 10
-581.5
 20
320.0
 30
0.0
 11
-812.5
 21
320.0
 31
0.0
  0
TEXT
  5
7D
  8
1
  6
CONTINUOUS
 62
     1
 10
-811.8182756033511
 20
164.4280667750407
 30
0.0
 40
10.0
  1
XPK-92
  0
LINE
  5
7E
  8
1
  6
CENTER
 62
     1
 10
-1045.5
 20
320.0
 30
0.0
 11
-834.5
 21
320.0
 31
0.0
  0
LINE
  5
7F
  8
1
  6
CENTER
 62
     1
 10
-940.0
 20
214.5
 30
0.0
 11
-940.0
 21
425.5
 31
0.0
  0
INSERT
  5
91
  8
1
  6
CONTINUOUS
 62
     7
  2
D_FRAME_VIEW_1503
 10
0.0
 20
0.0
 30
0.0
  0
ENDSEC
  0
EOF
