  0
SECTION
  2
HEADER
  9
$ACADVER
  1
AC1006
  9
$DWGCODEPAGE
  3
ansi_932
  9
$INSBASE
 10
0.0
 20
0.0
 30
0.0
  9
$EXTMIN
 10
-400.1
 20
174.5772727272727
  9
$EXTMAX
 10
-164.6
 20
359.8500000000001
  9
$LIMMIN
 10
0.0
 20
0.0
  9
$LIMMAX
 10
12.0
 20
9.0
  9
$ORTHOMODE
 70
     0
  9
$REGENMODE
 70
     1
  9
$FILLMODE
 70
     1
  9
$QTEXTMODE
 70
     0
  9
$MIRRTEXT
 70
     1
  9
$DRAGMODE
 70
     2
  9
$LTSCALE
 40
1.0
  9
$OSMODE
 70
    37
  9
$ATTMODE
 70
     1
  9
$TEXTSIZE
 40
0.2
  9
$TRACEWID
 40
0.05
  9
$TEXTSTYLE
  7
STANDARD
  9
$CLAYER
  8
0
  9
$CELTYPE
  6
BYLAYER
  9
$CECOLOR
 62
   256
  9
$DIMSCALE
 40
1.0
  9
$DIMASZ
 40
3.0
  9
$DIMEXO
 40
0.0625
  9
$DIMDLI
 40
0.38
  9
$DIMRND
 40
0.0
  9
$DIMDLE
 40
0.0
  9
$DIMEXE
 40
1.5
  9
$DIMTP
 40
0.0
  9
$DIMTM
 40
0.0
  9
$DIMTXT
 40
3.0
  9
$DIMCEN
 40
0.09
  9
$DIMTSZ
 40
0.0
  9
$DIMTOL
 70
     0
  9
$DIMLIM
 70
     0
  9
$DIMTIH
 70
     1
  9
$DIMTOH
 70
     1
  9
$DIMSE1
 70
     0
  9
$DIMSE2
 70
     0
  9
$DIMTAD
 70
     1
  9
$DIMZIN
 70
     0
  9
$DIMBLK
  1

  9
$DIMASO
 70
     1
  9
$DIMSHO
 70
     1
  9
$DIMPOST
  1

  9
$DIMAPOST
  1

  9
$DIMALT
 70
     0
  9
$DIMALTD
 70
     2
  9
$DIMALTF
 40
25.4
  9
$DIMLFAC
 40
1.0
  9
$DIMTOFL
 70
     0
  9
$DIMTVP
 40
0.0
  9
$DIMTIX
 70
     0
  9
$DIMSOXD
 70
     0
  9
$DIMSAH
 70
     0
  9
$DIMBLK1
  1

  9
$DIMBLK2
  1

  9
$LUNITS
 70
     2
  9
$LUPREC
 70
     4
  9
$SKETCHINC
 40
0.1
  9
$FILLETRAD
 40
0.5
  9
$AUNITS
 70
     0
  9
$AUPREC
 70
     0
  9
$MENU
  1
.
  9
$ELEVATION
 40
0.0
  9
$THICKNESS
 40
0.0
  9
$LIMCHECK
 70
     0
  9
$CHAMFERA
 40
0.0
  9
$CHAMFERB
 40
0.0
  9
$SKPOLY
 70
     0
  9
$TDCREATE
 40
2459712.355856331
  9
$TDUPDATE
 40
2459712.355856481
  9
$TDINDWG
 40
0.0000000116
  9
$TDUSRTIMER
 40
0.0000000116
  9
$USRTIMER
 70
     1
  9
$ANGBASE
 50
0.0
  9
$ANGDIR
 70
     0
  9
$PDMODE
 70
     0
  9
$PDSIZE
 40
0.0
  9
$PLINEWID
 40
0.0
  9
$COORDS
 70
     1
  9
$SPLFRAME
 70
     0
  9
$SPLINETYPE
 70
     6
  9
$SPLINESEGS
 70
     8
  9
$ATTDIA
 70
     0
  9
$ATTREQ
 70
     1
  9
$HANDLING
 70
     1
  9
$HANDSEED
  5
F9
  9
$SURFTAB1
 70
     6
  9
$SURFTAB2
 70
     6
  9
$SURFTYPE
 70
     6
  9
$SURFU
 70
     6
  9
$SURFV
 70
     6
  9
$UCSNAME
  2

  9
$UCSORG
 10
0.0
 20
0.0
 30
0.0
  9
$UCSXDIR
 10
1.0
 20
0.0
 30
0.0
  9
$UCSYDIR
 10
0.0
 20
1.0
 30
0.0
  9
$USERI1
 70
     0
  9
$USERI2
 70
     0
  9
$USERI3
 70
     0
  9
$USERI4
 70
     0
  9
$USERI5
 70
     0
  9
$USERR1
 40
0.0
  9
$USERR2
 40
0.0
  9
$USERR3
 40
0.0
  9
$USERR4
 40
0.0
  9
$USERR5
 40
0.0
  9
$WORLDVIEW
 70
     1
  0
ENDSEC
  0
SECTION
  2
TABLES
  0
TABLE
  2
VPORT
 70
     1
  0
VPORT
  2
*ACTIVE
 70
     0
 10
0.0
 20
0.0
 11
1.0
 21
1.0
 12
-282.35
 22
267.2136363636364
 13
0.0
 23
0.0
 14
0.5
 24
0.5
 15
0.5
 25
0.5
 16
0.0
 26
0.0
 36
1.0
 17
0.0
 27
0.0
 37
0.0
 40
185.2727272727273
 41
1.6
 42
50.0
 43
0.0
 44
0.0
 50
0.0
 51
0.0
 71
     0
 72
   100
 73
     1
 74
     3
 75
     0
 76
     0
 77
     0
 78
     0
  0
ENDTAB
  0
TABLE
  2
LTYPE
 70
     1
  0
LTYPE
  2
CONTINUOUS
 70
     0
  3
Solid line
 72
    65
 73
     0
 40
0.0
  0
ENDTAB
  0
TABLE
  2
LAYER
 70
     2
  0
LAYER
  2
0
 70
     0
 62
     7
  6
CONTINUOUS
  0
LAYER
  2
1
 70
     0
 62
     7
  6
CONTINUOUS
  0
ENDTAB
  0
TABLE
  2
STYLE
 70
     2
  0
STYLE
  2
STANDARD
 70
     0
 40
0.0
 41
1.0
 50
0.0
 71
     0
 42
0.2
  3
txt
  4

  0
STYLE
  2
ＭＳ_ゴシック
 70
     0
 40
0.0
 41
1.0
 50
0.0
 71
     0
 42
0.2
  3
ＭＳ ゴシック.shx
  4

  0
ENDTAB
  0
TABLE
  2
VIEW
 70
     0
  0
ENDTAB
  0
TABLE
  2
UCS
 70
     0
  0
ENDTAB
  0
ENDSEC
  0
SECTION
  2
BLOCKS
  0
BLOCK
  8
0
  2
D_FRAME_VIEW_2907
 70
     0
 10
0.0
 20
0.0
 30
0.0
  0
LINE
  5
71
  8
1
  6
CONTINUOUS
 62
     7
 10
-309.0999999999999
 20
346.65
 30
0.0
 11
-309.0999999999999
 21
347.85
 31
0.0
  0
LINE
  5
72
  8
1
  6
CONTINUOUS
 62
     7
 10
-309.0999999999999
 20
347.85
 30
0.0
 11
-306.0999999999999
 21
347.85
 31
0.0
  0
LINE
  5
73
  8
1
  6
CONTINUOUS
 62
     7
 10
-306.0999999999999
 20
346.65
 30
0.0
 11
-309.0999999999999
 21
346.65
 31
0.0
  0
LINE
  5
74
  8
1
  6
CONTINUOUS
 62
     7
 10
-294.0999999999999
 20
347.85
 30
0.0
 11
-294.0999999999999
 21
346.65
 31
0.0
  0
LINE
  5
75
  8
1
  6
CONTINUOUS
 62
     7
 10
-294.1
 20
346.65
 30
0.0
 11
-297.1
 21
346.65
 31
0.0
  0
LINE
  5
76
  8
1
  6
CONTINUOUS
 62
     7
 10
-297.1
 20
347.85
 30
0.0
 11
-294.1
 21
347.85
 31
0.0
  0
LINE
  5
77
  8
1
  6
CONTINUOUS
 62
     7
 10
-297.1
 20
346.65
 30
0.0
 11
-306.0999999999999
 21
346.65
 31
0.0
  0
LINE
  5
78
  8
1
  6
CONTINUOUS
 62
     7
 10
-306.0999999999999
 20
347.85
 30
0.0
 11
-297.1
 21
347.85
 31
0.0
  0
LINE
  5
79
  8
1
  6
CONTINUOUS
 62
     7
 10
-357.1
 20
346.65
 30
0.0
 11
-372.1
 21
346.65
 31
0.0
  0
LINE
  5
7A
  8
1
  6
CONTINUOUS
 62
     7
 10
-372.0999999999999
 20
347.85
 30
0.0
 11
-357.1
 21
347.85
 31
0.0
  0
LINE
  5
7B
  8
1
  6
CONTINUOUS
 62
     7
 10
-357.1
 20
347.85
 30
0.0
 11
-357.1
 21
346.65
 31
0.0
  0
LINE
  5
7C
  8
1
  6
CONTINUOUS
 62
     7
 10
-372.1
 20
346.65
 30
0.0
 11
-372.0999999999999
 21
347.85
 31
0.0
  0
LINE
  5
7D
  8
1
  6
CONTINUOUS
 62
     7
 10
-294.1
 20
345.65
 30
0.0
 11
-294.0999999999999
 21
346.65
 31
0.0
  0
LINE
  5
7E
  8
1
  6
CONTINUOUS
 62
     7
 10
-309.0999999999999
 20
346.65
 30
0.0
 11
-309.0999999999999
 21
345.65
 31
0.0
  0
LINE
  5
7F
  8
1
  6
CONTINUOUS
 62
     7
 10
-357.1
 20
345.65
 30
0.0
 11
-357.1
 21
346.65
 31
0.0
  0
LINE
  5
80
  8
1
  6
CONTINUOUS
 62
     7
 10
-372.1
 20
346.65
 30
0.0
 11
-372.1
 21
345.65
 31
0.0
  0
LINE
  5
81
  8
1
  6
CONTINUOUS
 62
     7
 10
-294.0999999999999
 20
310.8500000000001
 30
0.0
 11
-372.1
 21
310.8500000000001
 31
0.0
  0
LINE
  5
82
  8
1
  6
CONTINUOUS
 62
     7
 10
-357.1
 20
345.65
 30
0.0
 11
-353.5147005856074
 21
345.65
 31
0.0
  0
ARC
  5
83
  8
1
  6
CONTINUOUS
 62
     7
 10
-353.5147005856073
 20
342.65
 30
0.0
 40
3.000000000000003
 50
21.88391389351238
 51
90.0000000000003
  0
ARC
  5
84
  8
1
  6
CONTINUOUS
 62
     7
 10
-333.1
 20
350.85
 30
0.0
 40
19.00000000000002
 50
201.8839138935123
 51
270.0
  0
ARC
  5
85
  8
1
  6
CONTINUOUS
 62
     7
 10
-333.1
 20
350.85
 30
0.0
 40
19.00000000000002
 50
270.0
 51
338.1160861064877
  0
ARC
  5
86
  8
1
  6
CONTINUOUS
 62
     7
 10
-312.6852994143925
 20
342.65
 30
0.0
 40
2.999999999999954
 50
89.9999999999999
 51
158.1160861064875
  0
LINE
  5
87
  8
1
  6
CONTINUOUS
 62
     7
 10
-312.6852994143925
 20
345.65
 30
0.0
 11
-309.0999999999999
 21
345.65
 31
0.0
  0
LINE
  5
88
  8
1
  6
CONTINUOUS
 62
     7
 10
-372.1
 20
310.8500000000001
 30
0.0
 11
-372.1
 21
345.65
 31
0.0
  0
LINE
  5
89
  8
1
  6
CONTINUOUS
 62
     7
 10
-294.1
 20
345.65
 30
0.0
 11
-294.0999999999999
 21
310.8500000000001
 31
0.0
  0
LINE
  5
8A
  8
1
  6
CONTINUOUS
 62
     7
 10
-372.0999999999999
 20
349.85
 30
0.0
 11
-353.496078054371
 21
349.85
 31
0.0
  0
ARC
  5
8B
  8
1
  6
CONTINUOUS
 62
     7
 10
-353.4960780543711
 20
344.85
 30
0.0
 40
5.000000000000004
 50
13.77414699802671
 51
89.99999999999972
  0
ARC
  5
8C
  8
1
  6
CONTINUOUS
 62
     7
 10
-333.1
 20
349.85
 30
0.0
 40
16.00000000000002
 50
193.7741469980268
 51
346.2258530019733
  0
ARC
  5
8D
  8
1
  6
CONTINUOUS
 62
     7
 10
-312.7039219456288
 20
344.85
 30
0.0
 40
4.999999999999996
 50
90.00000000000011
 51
166.2258530019732
  0
LINE
  5
8E
  8
1
  6
CONTINUOUS
 62
     7
 10
-312.7039219456288
 20
349.85
 30
0.0
 11
-294.0999999999999
 21
349.85
 31
0.0
  0
LINE
  5
8F
  8
1
  6
CONTINUOUS
 62
     7
 10
-294.0999999999999
 20
349.85
 30
0.0
 11
-294.1
 21
347.85
 31
0.0
  0
LINE
  5
90
  8
1
  6
CONTINUOUS
 62
     7
 10
-309.0999999999999
 20
347.85
 30
0.0
 11
-312.7039219456288
 21
347.85
 31
0.0
  0
ARC
  5
91
  8
1
  6
CONTINUOUS
 62
     7
 10
-312.7039219456288
 20
344.85
 30
0.0
 40
3.000000000000003
 50
90.00000000000028
 51
166.2258530019733
  0
ARC
  5
92
  8
1
  6
CONTINUOUS
 62
     7
 10
-333.1
 20
349.85
 30
0.0
 40
17.99999999999998
 50
193.7741469980267
 51
346.2258530019733
  0
ARC
  5
93
  8
1
  6
CONTINUOUS
 62
     7
 10
-353.4960780543711
 20
344.85
 30
0.0
 40
3.000000000000043
 50
13.77414699802674
 51
89.9999999999999
  0
LINE
  5
94
  8
1
  6
CONTINUOUS
 62
     7
 10
-372.1
 20
347.85
 30
0.0
 11
-372.0999999999999
 21
349.85
 31
0.0
  0
LINE
  5
95
  8
1
  6
CONTINUOUS
 62
     7
 10
-353.4960780543711
 20
347.85
 30
0.0
 11
-357.1
 21
347.85
 31
0.0
  0
LINE
  5
96
  8
1
  6
CONTINUOUS
 62
     7
 10
-357.1
 20
347.85
 30
0.0
 11
-372.1
 21
347.85
 31
0.0
  0
LINE
  5
97
  8
1
  6
CONTINUOUS
 62
     7
 10
-400.1
 20
282.85
 30
0.0
 11
-400.1
 21
349.85
 31
0.0
  0
LINE
  5
98
  8
1
  6
CONTINUOUS
 62
     7
 10
-400.1
 20
349.85
 30
0.0
 11
-372.0999999999999
 21
349.85
 31
0.0
  0
LINE
  5
99
  8
1
  6
CONTINUOUS
 62
     7
 10
-353.496078054371
 20
349.85
 30
0.0
 11
-349.1
 21
349.85
 31
0.0
  0
ARC
  5
9A
  8
1
  6
CONTINUOUS
 62
     7
 10
-333.1
 20
349.85
 30
0.0
 40
16.00000000000001
 50
180.0
 51
193.7741469980267
  0
ARC
  5
9B
  8
1
  6
CONTINUOUS
 62
     7
 10
-333.1
 20
349.85
 30
0.0
 40
16.00000000000002
 50
346.2258530019733
 51
0.0
  0
LINE
  5
9C
  8
1
  6
CONTINUOUS
 62
     7
 10
-317.0999999999999
 20
349.85
 30
0.0
 11
-312.7039219456288
 21
349.85
 31
0.0
  0
LINE
  5
9D
  8
1
  6
CONTINUOUS
 62
     7
 10
-294.0999999999999
 20
349.85
 30
0.0
 11
-293.0999999999999
 21
349.85
 31
0.0
  0
LINE
  5
9E
  8
1
  6
CONTINUOUS
 62
     9
 10
-293.0999999999999
 20
339.85
 30
0.0
 11
-293.0999999999999
 21
349.85
 31
0.0
  0
LINE
  5
9F
  8
1
  6
CONTINUOUS
 62
     7
 10
-293.0999999999999
 20
349.85
 30
0.0
 11
-293.1
 21
359.8500000000001
 31
0.0
  0
LINE
  5
A0
  8
1
  6
CONTINUOUS
 62
     7
 10
-293.1
 20
359.8500000000001
 30
0.0
 11
-266.1
 21
359.8500000000001
 31
0.0
  0
LINE
  5
A1
  8
1
  6
CONTINUOUS
 62
     7
 10
-266.1
 20
359.8500000000001
 30
0.0
 11
-266.1
 21
282.85
 31
0.0
  0
LINE
  5
A2
  8
1
  6
CONTINUOUS
 62
     7
 10
-266.1
 20
282.85
 30
0.0
 11
-400.1
 21
282.85
 31
0.0
  0
ENDBLK
  8
0
  0
BLOCK
  8
0
  2
D_FRAME_VIEW_2741
 70
     0
 10
0.0
 20
0.0
 30
0.0
  0
LINE
  5
A8
  8
1
  6
CONTINUOUS
 62
     7
 10
-372.1
 20
193.55
 30
0.0
 11
-372.1
 21
192.35
 31
0.0
  0
LINE
  5
A9
  8
1
  6
CONTINUOUS
 62
     7
 10
-294.0999999999999
 20
193.55
 30
0.0
 11
-372.1
 21
193.55
 31
0.0
  0
LINE
  5
AA
  8
1
  6
CONTINUOUS
 62
     7
 10
-294.0999999999999
 20
193.55
 30
0.0
 11
-294.0999999999999
 21
192.35
 31
0.0
  0
LINE
  5
AB
  8
1
  6
CONTINUOUS
 62
     7
 10
-309.0999999999999
 20
194.55
 30
0.0
 11
-309.0999999999999
 21
193.55
 31
0.0
  0
LINE
  5
AC
  8
1
  6
CONTINUOUS
 62
     7
 10
-294.1
 20
193.55
 30
0.0
 11
-294.1
 21
194.55
 31
0.0
  0
LINE
  5
AD
  8
1
  6
CONTINUOUS
 62
     7
 10
-357.1
 20
193.55
 30
0.0
 11
-357.1
 21
194.55
 31
0.0
  0
LINE
  5
AE
  8
1
  6
CONTINUOUS
 62
     7
 10
-372.1
 20
194.55
 30
0.0
 11
-372.1
 21
193.55
 31
0.0
  0
LINE
  5
AF
  8
1
  6
CONTINUOUS
 62
     7
 10
-357.1
 20
257.35
 30
0.0
 11
-372.1
 21
257.35
 31
0.0
  0
ARC
  5
B0
  8
1
  6
CONTINUOUS
 62
     7
 10
-364.5999999999999
 20
225.25
 30
0.0
 40
2.10000000000049
 50
0.0
 51
180.0
  0
ARC
  5
B1
  8
1
  6
CONTINUOUS
 62
     7
 10
-364.5999999999999
 20
219.45
 30
0.0
 40
2.099999999999991
 50
180.0
 51
0.0
  0
LINE
  5
B2
  8
1
  6
CONTINUOUS
 62
     7
 10
-362.4999999999995
 20
225.25
 30
0.0
 11
-362.4999999999999
 21
219.45
 31
0.0
  0
LINE
  5
B3
  8
1
  6
CONTINUOUS
 62
     7
 10
-366.7
 20
219.45
 30
0.0
 11
-366.7
 21
225.25
 31
0.0
  0
LINE
  5
B4
  8
1
  6
CONTINUOUS
 62
     7
 10
-357.1
 20
194.55
 30
0.0
 11
-357.1
 21
257.35
 31
0.0
  0
LINE
  5
B5
  8
1
  6
CONTINUOUS
 62
     7
 10
-372.1
 20
194.55
 30
0.0
 11
-372.1
 21
257.35
 31
0.0
  0
ARC
  5
B6
  8
1
  6
CONTINUOUS
 62
     7
 10
-306.0999999999999
 20
269.35
 30
0.0
 40
3.000000000000003
 50
90.0
 51
180.0
  0
ARC
  5
B7
  8
1
  6
CONTINUOUS
 62
     7
 10
-297.1
 20
269.35
 30
0.0
 40
3.000000000000003
 50
0.0
 51
90.0
  0
ARC
  5
B8
  8
1
  6
CONTINUOUS
 62
     7
 10
-306.0999999999999
 20
268.35
 30
0.0
 40
1.000000000000001
 50
90.00000000000055
 51
180.0
  0
ARC
  5
B9
  8
1
  6
CONTINUOUS
 62
     7
 10
-306.0999999999999
 20
258.35
 30
0.0
 40
1.000000000000001
 50
180.0
 51
270.0000000000005
  0
ARC
  5
BA
  8
1
  6
CONTINUOUS
 62
     7
 10
-297.0999999999999
 20
268.35
 30
0.0
 40
1.000000000000001
 50
359.9999999999993
 51
89.9999999999992
  0
ARC
  5
BB
  8
1
  6
CONTINUOUS
 62
     7
 10
-301.6
 20
225.25
 30
0.0
 40
2.100000000000435
 50
0.0
 51
180.0
  0
LINE
  5
BC
  8
1
  6
CONTINUOUS
 62
     7
 10
-307.0999999999999
 20
258.35
 30
0.0
 11
-307.0999999999999
 21
268.35
 31
0.0
  0
LINE
  5
BD
  8
1
  6
CONTINUOUS
 62
     7
 10
-299.4999999999999
 20
225.25
 30
0.0
 11
-299.4999999999999
 21
219.45
 31
0.0
  0
ARC
  5
BE
  8
1
  6
CONTINUOUS
 62
     7
 10
-301.6
 20
219.45
 30
0.0
 40
2.100000000000046
 50
180.0
 51
0.0
  0
LINE
  5
BF
  8
1
  6
CONTINUOUS
 62
     7
 10
-297.1
 20
272.35
 30
0.0
 11
-306.0999999999999
 21
272.35
 31
0.0
  0
LINE
  5
C0
  8
1
  6
CONTINUOUS
 62
     7
 10
-297.0999999999999
 20
257.35
 30
0.0
 11
-306.0999999999999
 21
257.35
 31
0.0
  0
LINE
  5
C1
  8
1
  6
CONTINUOUS
 62
     7
 10
-296.0999999999999
 20
268.35
 30
0.0
 11
-296.0999999999999
 21
258.35
 31
0.0
  0
LINE
  5
C2
  8
1
  6
CONTINUOUS
 62
     7
 10
-303.7
 20
219.45
 30
0.0
 11
-303.7
 21
225.25
 31
0.0
  0
LINE
  5
C3
  8
1
  6
CONTINUOUS
 62
     7
 10
-306.0999999999999
 20
269.35
 30
0.0
 11
-297.0999999999999
 21
269.35
 31
0.0
  0
ARC
  5
C4
  8
1
  6
CONTINUOUS
 62
     7
 10
-297.1
 20
258.35
 30
0.0
 40
1.000000000000001
 50
270.0000000000007
 51
0.0
  0
LINE
  5
C5
  8
1
  6
CONTINUOUS
 62
     7
 10
-309.0999999999999
 20
194.55
 30
0.0
 11
-309.0999999999999
 21
269.35
 31
0.0
  0
LINE
  5
C6
  8
1
  6
CONTINUOUS
 62
     7
 10
-294.0999999999999
 20
194.55
 30
0.0
 11
-294.0999999999999
 21
269.35
 31
0.0
  0
LINE
  5
C7
  8
1
  6
CONTINUOUS
 62
     9
 10
-350.5823526180323
 20
257.35
 30
0.0
 11
-350.5823526180323
 21
193.55
 31
0.0
  0
LINE
  5
C8
  8
1
  6
CONTINUOUS
 62
     7
 10
-315.6176473819676
 20
257.35
 30
0.0
 11
-350.5823526180323
 21
257.35
 31
0.0
  0
LINE
  5
C9
  8
1
  6
CONTINUOUS
 62
     9
 10
-315.6176473819675
 20
257.35
 30
0.0
 11
-315.6176473819675
 21
193.55
 31
0.0
  0
LINE
  5
CA
  8
1
  6
CONTINUOUS
 62
     9
 10
-312.7039219456288
 20
257.35
 30
0.0
 11
-312.7039219456288
 21
193.55
 31
0.0
  0
LINE
  5
CB
  8
1
  6
CONTINUOUS
 62
     7
 10
-315.6176473819675
 20
257.35
 30
0.0
 11
-312.7039219456288
 21
257.35
 31
0.0
  0
LINE
  5
CC
  8
1
  6
CONTINUOUS
 62
     9
 10
-353.4960780543711
 20
257.35
 30
0.0
 11
-353.4960780543711
 21
193.55
 31
0.0
  0
LINE
  5
CD
  8
1
  6
CONTINUOUS
 62
     7
 10
-353.4960780543711
 20
257.35
 30
0.0
 11
-350.5823526180324
 21
257.35
 31
0.0
  0
LINE
  5
CE
  8
1
  6
CONTINUOUS
 62
     7
 10
-309.0999999999999
 20
257.35
 30
0.0
 11
-312.7039219456288
 21
257.35
 31
0.0
  0
LINE
  5
CF
  8
1
  6
CONTINUOUS
 62
     7
 10
-353.4960780543711
 20
257.35
 30
0.0
 11
-357.1
 21
257.35
 31
0.0
  0
LINE
  5
D0
  8
1
  6
CONTINUOUS
 62
     7
 10
-266.1
 20
190.35
 30
0.0
 11
-400.1
 21
190.35
 31
0.0
  0
LINE
  5
D1
  8
1
  6
CONTINUOUS
 62
     7
 10
-400.1
 20
190.35
 30
0.0
 11
-400.1
 21
192.35
 31
0.0
  0
LINE
  5
D2
  8
1
  6
CONTINUOUS
 62
     7
 10
-266.1
 20
190.35
 30
0.0
 11
-266.1
 21
192.35
 31
0.0
  0
LINE
  5
D3
  8
1
  6
CONTINUOUS
 62
     7
 10
-266.1
 20
192.35
 30
0.0
 11
-400.1
 21
192.35
 31
0.0
  0
ENDBLK
  8
0
  0
BLOCK
  8
0
  2
D_FRAME_VIEW_2932
 70
     0
 10
0.0
 20
0.0
 30
0.0
  0
LINE
  5
D8
  8
1
  6
CONTINUOUS
 62
     9
 10
-176.6
 20
269.35
 30
0.0
 11
-177.8
 21
269.35
 31
0.0
  0
LINE
  5
D9
  8
1
  6
CONTINUOUS
 62
     7
 10
-177.8
 20
269.35
 30
0.0
 11
-177.8
 21
272.35
 31
0.0
  0
LINE
  5
DA
  8
1
  6
CONTINUOUS
 62
     7
 10
-177.8
 20
272.35
 30
0.0
 11
-176.6
 21
272.35
 31
0.0
  0
LINE
  5
DB
  8
1
  6
CONTINUOUS
 62
     7
 10
-176.6
 20
272.35
 30
0.0
 11
-176.6
 21
269.35
 31
0.0
  0
LINE
  5
DC
  8
1
  6
CONTINUOUS
 62
     7
 10
-177.8
 20
194.55
 30
0.0
 11
-177.8
 21
269.35
 31
0.0
  0
LINE
  5
DD
  8
1
  6
CONTINUOUS
 62
     7
 10
-178.8
 20
193.55
 30
0.0
 11
-213.6
 21
193.55
 31
0.0
  0
LINE
  5
DE
  8
1
  6
CONTINUOUS
 62
     7
 10
-213.6
 20
193.55
 30
0.0
 11
-213.6
 21
192.35
 31
0.0
  0
ARC
  5
DF
  8
1
  6
CONTINUOUS
 62
     7
 10
-178.8
 20
194.55
 30
0.0
 40
2.200000000000007
 50
270.0
 51
0.0
  0
LINE
  5
E0
  8
1
  6
CONTINUOUS
 62
     7
 10
-176.6
 20
269.35
 30
0.0
 11
-176.6
 21
257.35
 31
0.0
  0
LINE
  5
E1
  8
1
  6
CONTINUOUS
 62
     7
 10
-176.6
 20
257.35
 30
0.0
 11
-176.6
 21
194.55
 31
0.0
  0
ARC
  5
E2
  8
1
  6
CONTINUOUS
 62
     7
 10
-178.8
 20
194.55
 30
0.0
 40
0.9999999999999731
 50
270.0
 51
0.0
  0
LINE
  5
E3
  8
1
  6
CONTINUOUS
 62
     7
 10
-176.6
 20
257.35
 30
0.0
 11
-176.6
 21
194.55
 31
0.0
  0
LINE
  5
E4
  8
1
  6
CONTINUOUS
 62
     7
 10
-176.6
 20
194.55
 30
0.0
 11
-176.6
 21
192.35
 31
0.0
  0
LINE
  5
E5
  8
1
  6
CONTINUOUS
 62
     7
 10
-174.6
 20
257.35
 30
0.0
 11
-176.6
 21
257.35
 31
0.0
  0
LINE
  5
E6
  8
1
  6
CONTINUOUS
 62
     7
 10
-174.6
 20
257.35
 30
0.0
 11
-174.6
 21
192.35
 31
0.0
  0
LINE
  5
E7
  8
1
  6
CONTINUOUS
 62
     9
 10
-178.8857142857142
 20
257.35
 30
0.0
 11
-178.8857142857142
 21
193.55
 31
0.0
  0
LINE
  5
E8
  8
1
  6
CONTINUOUS
 62
     7
 10
-178.8857142857142
 20
257.35
 30
0.0
 11
-177.8
 21
257.35
 31
0.0
  0
LINE
  5
E9
  8
1
  6
CONTINUOUS
 62
     7
 10
-178.8857142857142
 20
257.35
 30
0.0
 11
-192.6
 21
257.35
 31
0.0
  0
LINE
  5
EA
  8
1
  6
CONTINUOUS
 62
     7
 10
-164.6
 20
190.35
 30
0.0
 11
-164.6
 21
192.35
 31
0.0
  0
LINE
  5
EB
  8
1
  6
CONTINUOUS
 62
     7
 10
-164.6
 20
190.35
 30
0.0
 11
-241.6
 21
190.35
 31
0.0
  0
LINE
  5
EC
  8
1
  6
CONTINUOUS
 62
     7
 10
-241.6
 20
190.35
 30
0.0
 11
-241.6
 21
192.35
 31
0.0
  0
LINE
  5
ED
  8
1
  6
CONTINUOUS
 62
     7
 10
-164.6
 20
192.35
 30
0.0
 11
-241.6
 21
192.35
 31
0.0
  0
LINE
  5
EE
  8
1
  6
CONTINUOUS
 62
     7
 10
-192.6
 20
257.35
 30
0.0
 11
-192.6
 21
193.55
 31
0.0
  0
ENDBLK
  8
0
  0
ENDSEC
  0
SECTION
  2
ENTITIES
  0
INSERT
  5
A3
  8
1
  6
CONTINUOUS
 62
     7
  2
D_FRAME_VIEW_2907
 10
0.0
 20
0.0
 30
0.0
  0
TEXT
  5
A4
  8
1
  6
CONTINUOUS
 62
     7
 10
-230.9909466049768
 20
174.1212267100163
 30
0.0
 40
4.0
  1
XPKH-22
  0
INSERT
  5
D4
  8
1
  6
CONTINUOUS
 62
     7
  2
D_FRAME_VIEW_2741
 10
0.0
 20
0.0
 30
0.0
  0
INSERT
  5
EF
  8
1
  6
CONTINUOUS
 62
     7
  2
D_FRAME_VIEW_2932
 10
0.0
 20
0.0
 30
0.0
  0
ENDSEC
  0
EOF
