  0
SECTION
  2
HEADER
  9
$ACADVER
  1
AC1006
  9
$DWGCODEPAGE
  3
ansi_932
  9
$INSBASE
 10
0.0
 20
0.0
 30
0.0
  9
$EXTMIN
 10
-403.1
 20
174.5772727272727
  9
$EXTMAX
 10
-163.1
 20
376.35
  9
$LIMMIN
 10
0.0
 20
0.0
  9
$LIMMAX
 10
12.0
 20
9.0
  9
$ORTHOMODE
 70
     0
  9
$REGENMODE
 70
     1
  9
$FILLMODE
 70
     1
  9
$QTEXTMODE
 70
     0
  9
$MIRRTEXT
 70
     1
  9
$DRAGMODE
 70
     2
  9
$LTSCALE
 40
1.0
  9
$OSMODE
 70
    37
  9
$ATTMODE
 70
     1
  9
$TEXTSIZE
 40
0.2
  9
$TRACEWID
 40
0.05
  9
$TEXTSTYLE
  7
STANDARD
  9
$CLAYER
  8
0
  9
$CELTYPE
  6
BYLAYER
  9
$CECOLOR
 62
   256
  9
$DIMSCALE
 40
1.0
  9
$DIMASZ
 40
3.0
  9
$DIMEXO
 40
0.0625
  9
$DIMDLI
 40
0.38
  9
$DIMRND
 40
0.0
  9
$DIMDLE
 40
0.0
  9
$DIMEXE
 40
1.5
  9
$DIMTP
 40
0.0
  9
$DIMTM
 40
0.0
  9
$DIMTXT
 40
3.0
  9
$DIMCEN
 40
0.09
  9
$DIMTSZ
 40
0.0
  9
$DIMTOL
 70
     0
  9
$DIMLIM
 70
     0
  9
$DIMTIH
 70
     1
  9
$DIMTOH
 70
     1
  9
$DIMSE1
 70
     0
  9
$DIMSE2
 70
     0
  9
$DIMTAD
 70
     1
  9
$DIMZIN
 70
     0
  9
$DIMBLK
  1

  9
$DIMASO
 70
     1
  9
$DIMSHO
 70
     1
  9
$DIMPOST
  1

  9
$DIMAPOST
  1

  9
$DIMALT
 70
     0
  9
$DIMALTD
 70
     2
  9
$DIMALTF
 40
25.4
  9
$DIMLFAC
 40
1.0
  9
$DIMTOFL
 70
     0
  9
$DIMTVP
 40
0.0
  9
$DIMTIX
 70
     0
  9
$DIMSOXD
 70
     0
  9
$DIMSAH
 70
     0
  9
$DIMBLK1
  1

  9
$DIMBLK2
  1

  9
$LUNITS
 70
     2
  9
$LUPREC
 70
     4
  9
$SKETCHINC
 40
0.1
  9
$FILLETRAD
 40
0.5
  9
$AUNITS
 70
     0
  9
$AUPREC
 70
     0
  9
$MENU
  1
.
  9
$ELEVATION
 40
0.0
  9
$THICKNESS
 40
0.0
  9
$LIMCHECK
 70
     0
  9
$CHAMFERA
 40
0.0
  9
$CHAMFERB
 40
0.0
  9
$SKPOLY
 70
     0
  9
$TDCREATE
 40
2459712.35824463
  9
$TDUPDATE
 40
2459712.358244803
  9
$TDINDWG
 40
0.0000000116
  9
$TDUSRTIMER
 40
0.0000000116
  9
$USRTIMER
 70
     1
  9
$ANGBASE
 50
0.0
  9
$ANGDIR
 70
     0
  9
$PDMODE
 70
     0
  9
$PDSIZE
 40
0.0
  9
$PLINEWID
 40
0.0
  9
$COORDS
 70
     1
  9
$SPLFRAME
 70
     0
  9
$SPLINETYPE
 70
     6
  9
$SPLINESEGS
 70
     8
  9
$ATTDIA
 70
     0
  9
$ATTREQ
 70
     1
  9
$HANDLING
 70
     1
  9
$HANDSEED
  5
F9
  9
$SURFTAB1
 70
     6
  9
$SURFTAB2
 70
     6
  9
$SURFTYPE
 70
     6
  9
$SURFU
 70
     6
  9
$SURFV
 70
     6
  9
$UCSNAME
  2

  9
$UCSORG
 10
0.0
 20
0.0
 30
0.0
  9
$UCSXDIR
 10
1.0
 20
0.0
 30
0.0
  9
$UCSYDIR
 10
0.0
 20
1.0
 30
0.0
  9
$USERI1
 70
     0
  9
$USERI2
 70
     0
  9
$USERI3
 70
     0
  9
$USERI4
 70
     0
  9
$USERI5
 70
     0
  9
$USERR1
 40
0.0
  9
$USERR2
 40
0.0
  9
$USERR3
 40
0.0
  9
$USERR4
 40
0.0
  9
$USERR5
 40
0.0
  9
$WORLDVIEW
 70
     1
  0
ENDSEC
  0
SECTION
  2
TABLES
  0
TABLE
  2
VPORT
 70
     1
  0
VPORT
  2
*ACTIVE
 70
     0
 10
0.0
 20
0.0
 11
1.0
 21
1.0
 12
-283.1
 22
275.4636363636364
 13
0.0
 23
0.0
 14
0.5
 24
0.5
 15
0.5
 25
0.5
 16
0.0
 26
0.0
 36
1.0
 17
0.0
 27
0.0
 37
0.0
 40
201.7727272727273
 41
1.6
 42
50.0
 43
0.0
 44
0.0
 50
0.0
 51
0.0
 71
     0
 72
   100
 73
     1
 74
     3
 75
     0
 76
     0
 77
     0
 78
     0
  0
ENDTAB
  0
TABLE
  2
LTYPE
 70
     1
  0
LTYPE
  2
CONTINUOUS
 70
     0
  3
Solid line
 72
    65
 73
     0
 40
0.0
  0
ENDTAB
  0
TABLE
  2
LAYER
 70
     2
  0
LAYER
  2
0
 70
     0
 62
     7
  6
CONTINUOUS
  0
LAYER
  2
1
 70
     0
 62
     7
  6
CONTINUOUS
  0
ENDTAB
  0
TABLE
  2
STYLE
 70
     2
  0
STYLE
  2
STANDARD
 70
     0
 40
0.0
 41
1.0
 50
0.0
 71
     0
 42
0.2
  3
txt
  4

  0
STYLE
  2
ＭＳ_ゴシック
 70
     0
 40
0.0
 41
1.0
 50
0.0
 71
     0
 42
0.2
  3
ＭＳ ゴシック.shx
  4

  0
ENDTAB
  0
TABLE
  2
VIEW
 70
     0
  0
ENDTAB
  0
TABLE
  2
UCS
 70
     0
  0
ENDTAB
  0
ENDSEC
  0
SECTION
  2
BLOCKS
  0
BLOCK
  8
0
  2
D_FRAME_VIEW_2907
 70
     0
 10
0.0
 20
0.0
 30
0.0
  0
LINE
  5
71
  8
1
  6
CONTINUOUS
 62
     7
 10
-306.1
 20
363.1500000000002
 30
0.0
 11
-306.1
 21
364.3500000000002
 31
0.0
  0
LINE
  5
72
  8
1
  6
CONTINUOUS
 62
     7
 10
-306.1
 20
364.3500000000002
 30
0.0
 11
-303.1
 21
364.3500000000002
 31
0.0
  0
LINE
  5
73
  8
1
  6
CONTINUOUS
 62
     7
 10
-303.1
 20
363.1500000000002
 30
0.0
 11
-306.1
 21
363.1500000000002
 31
0.0
  0
LINE
  5
74
  8
1
  6
CONTINUOUS
 62
     7
 10
-291.1
 20
364.3500000000002
 30
0.0
 11
-291.1
 21
363.1500000000002
 31
0.0
  0
LINE
  5
75
  8
1
  6
CONTINUOUS
 62
     7
 10
-291.1000000000001
 20
363.1500000000002
 30
0.0
 11
-294.1000000000001
 21
363.1500000000002
 31
0.0
  0
LINE
  5
76
  8
1
  6
CONTINUOUS
 62
     7
 10
-294.1000000000001
 20
364.3500000000002
 30
0.0
 11
-291.1000000000001
 21
364.3500000000002
 31
0.0
  0
LINE
  5
77
  8
1
  6
CONTINUOUS
 62
     7
 10
-294.1000000000001
 20
363.1500000000002
 30
0.0
 11
-303.1
 21
363.1500000000002
 31
0.0
  0
LINE
  5
78
  8
1
  6
CONTINUOUS
 62
     7
 10
-303.1
 20
364.3500000000002
 30
0.0
 11
-294.1000000000001
 21
364.3500000000002
 31
0.0
  0
LINE
  5
79
  8
1
  6
CONTINUOUS
 62
     7
 10
-360.1000000000001
 20
363.1500000000002
 30
0.0
 11
-375.1
 21
363.1500000000002
 31
0.0
  0
LINE
  5
7A
  8
1
  6
CONTINUOUS
 62
     7
 10
-375.1
 20
364.3500000000002
 30
0.0
 11
-360.1000000000001
 21
364.3500000000002
 31
0.0
  0
LINE
  5
7B
  8
1
  6
CONTINUOUS
 62
     7
 10
-360.1000000000001
 20
364.3500000000002
 30
0.0
 11
-360.1000000000001
 21
363.1500000000002
 31
0.0
  0
LINE
  5
7C
  8
1
  6
CONTINUOUS
 62
     7
 10
-375.1
 20
363.1500000000002
 30
0.0
 11
-375.1
 21
364.3500000000002
 31
0.0
  0
LINE
  5
7D
  8
1
  6
CONTINUOUS
 62
     7
 10
-291.1000000000001
 20
362.1500000000002
 30
0.0
 11
-291.1
 21
363.1500000000002
 31
0.0
  0
LINE
  5
7E
  8
1
  6
CONTINUOUS
 62
     7
 10
-306.1
 20
363.1500000000002
 30
0.0
 11
-306.1
 21
362.1500000000002
 31
0.0
  0
LINE
  5
7F
  8
1
  6
CONTINUOUS
 62
     7
 10
-360.1000000000001
 20
362.1500000000002
 30
0.0
 11
-360.1000000000001
 21
363.1500000000002
 31
0.0
  0
LINE
  5
80
  8
1
  6
CONTINUOUS
 62
     7
 10
-375.1
 20
363.1500000000002
 30
0.0
 11
-375.1
 21
362.1500000000002
 31
0.0
  0
LINE
  5
81
  8
1
  6
CONTINUOUS
 62
     7
 10
-291.1
 20
324.3500000000002
 30
0.0
 11
-375.1
 21
324.3500000000002
 31
0.0
  0
LINE
  5
82
  8
1
  6
CONTINUOUS
 62
     7
 10
-360.1000000000001
 20
362.1500000000002
 30
0.0
 11
-356.7169430706008
 21
362.1500000000002
 31
0.0
  0
ARC
  5
83
  8
1
  6
CONTINUOUS
 62
     7
 10
-356.7169430706008
 20
359.1500000000002
 30
0.0
 40
3.000000000000003
 50
19.14742850705192
 51
89.99999999999972
  0
ARC
  5
84
  8
1
  6
CONTINUOUS
 62
     7
 10
-333.1000000000001
 20
367.3500000000002
 30
0.0
 40
22.0
 50
199.1474285070519
 51
270.0
  0
ARC
  5
85
  8
1
  6
CONTINUOUS
 62
     7
 10
-333.1000000000001
 20
367.3500000000002
 30
0.0
 40
22.00000000000002
 50
270.0
 51
340.8525714929481
  0
ARC
  5
86
  8
1
  6
CONTINUOUS
 62
     7
 10
-309.4830569293993
 20
359.1500000000002
 30
0.0
 40
2.999999999999981
 50
90.00000000000011
 51
160.8525714929481
  0
LINE
  5
87
  8
1
  6
CONTINUOUS
 62
     7
 10
-309.4830569293993
 20
362.1500000000002
 30
0.0
 11
-306.1
 21
362.1500000000002
 31
0.0
  0
LINE
  5
88
  8
1
  6
CONTINUOUS
 62
     7
 10
-375.1
 20
324.3500000000002
 30
0.0
 11
-375.1
 21
362.1500000000002
 31
0.0
  0
LINE
  5
89
  8
1
  6
CONTINUOUS
 62
     7
 10
-291.1000000000001
 20
362.1500000000002
 30
0.0
 11
-291.1
 21
324.3500000000002
 31
0.0
  0
LINE
  5
8A
  8
1
  6
CONTINUOUS
 62
     7
 10
-375.1
 20
366.3500000000002
 30
0.0
 11
-356.573389188611
 21
366.3500000000002
 31
0.0
  0
ARC
  5
8B
  8
1
  6
CONTINUOUS
 62
     7
 10
-356.5733891886111
 20
361.3500000000001
 30
0.0
 40
5.000000000000004
 50
12.02469918056579
 51
89.9999999999999
  0
ARC
  5
8C
  8
1
  6
CONTINUOUS
 62
     7
 10
-333.1000000000001
 20
366.3500000000002
 30
0.0
 40
19.0
 50
192.0246991805659
 51
347.9753008194343
  0
ARC
  5
8D
  8
1
  6
CONTINUOUS
 62
     7
 10
-309.626610811389
 20
361.3500000000001
 30
0.0
 40
5.00000000000002
 50
90.0
 51
167.9753008194341
  0
LINE
  5
8E
  8
1
  6
CONTINUOUS
 62
     7
 10
-309.626610811389
 20
366.3500000000002
 30
0.0
 11
-291.1000000000001
 21
366.3500000000002
 31
0.0
  0
LINE
  5
8F
  8
1
  6
CONTINUOUS
 62
     7
 10
-291.1000000000001
 20
366.3500000000002
 30
0.0
 11
-291.1000000000001
 21
364.3500000000002
 31
0.0
  0
LINE
  5
90
  8
1
  6
CONTINUOUS
 62
     7
 10
-306.1
 20
364.3500000000002
 30
0.0
 11
-309.6266108113891
 21
364.3500000000002
 31
0.0
  0
ARC
  5
91
  8
1
  6
CONTINUOUS
 62
     7
 10
-309.626610811389
 20
361.3500000000001
 30
0.0
 40
3.000000000000003
 50
90.00000000000028
 51
167.9753008194342
  0
ARC
  5
92
  8
1
  6
CONTINUOUS
 62
     7
 10
-333.1000000000001
 20
366.3500000000002
 30
0.0
 40
21.0
 50
192.0246991805658
 51
347.9753008194342
  0
ARC
  5
93
  8
1
  6
CONTINUOUS
 62
     7
 10
-356.5733891886111
 20
361.3500000000001
 30
0.0
 40
3.00000000000002
 50
12.02469918056584
 51
89.99999999999982
  0
LINE
  5
94
  8
1
  6
CONTINUOUS
 62
     7
 10
-375.1000000000001
 20
364.3500000000002
 30
0.0
 11
-375.1
 21
366.3500000000002
 31
0.0
  0
LINE
  5
95
  8
1
  6
CONTINUOUS
 62
     7
 10
-356.573389188611
 20
364.3500000000002
 30
0.0
 11
-360.1000000000001
 21
364.3500000000002
 31
0.0
  0
LINE
  5
96
  8
1
  6
CONTINUOUS
 62
     7
 10
-360.1000000000001
 20
364.3500000000002
 30
0.0
 11
-375.1000000000001
 21
364.3500000000002
 31
0.0
  0
LINE
  5
97
  8
1
  6
CONTINUOUS
 62
     7
 10
-403.1
 20
296.3500000000001
 30
0.0
 11
-403.1
 21
366.3500000000001
 31
0.0
  0
LINE
  5
98
  8
1
  6
CONTINUOUS
 62
     7
 10
-403.1
 20
366.3500000000001
 30
0.0
 11
-375.1
 21
366.3500000000001
 31
0.0
  0
LINE
  5
99
  8
1
  6
CONTINUOUS
 62
     7
 10
-356.573389188611
 20
366.3500000000001
 30
0.0
 11
-352.1
 21
366.3500000000001
 31
0.0
  0
ARC
  5
9A
  8
1
  6
CONTINUOUS
 62
     7
 10
-333.1
 20
366.3500000000001
 30
0.0
 40
19.00000000000002
 50
180.0
 51
192.0246991805653
  0
ARC
  5
9B
  8
1
  6
CONTINUOUS
 62
     7
 10
-333.1
 20
366.3500000000001
 30
0.0
 40
18.99999999999999
 50
347.9753008194345
 51
0.0
  0
LINE
  5
9C
  8
1
  6
CONTINUOUS
 62
     7
 10
-314.1
 20
366.3500000000001
 30
0.0
 11
-309.626610811389
 21
366.3500000000001
 31
0.0
  0
LINE
  5
9D
  8
1
  6
CONTINUOUS
 62
     7
 10
-291.1000000000001
 20
366.3500000000001
 30
0.0
 11
-290.1
 21
366.3500000000001
 31
0.0
  0
LINE
  5
9E
  8
1
  6
CONTINUOUS
 62
     9
 10
-290.1
 20
356.3500000000001
 30
0.0
 11
-290.1
 21
366.3500000000001
 31
0.0
  0
LINE
  5
9F
  8
1
  6
CONTINUOUS
 62
     7
 10
-290.1
 20
366.3500000000001
 30
0.0
 11
-290.1
 21
376.35
 31
0.0
  0
LINE
  5
A0
  8
1
  6
CONTINUOUS
 62
     7
 10
-290.1
 20
376.35
 30
0.0
 11
-263.1
 21
376.35
 31
0.0
  0
LINE
  5
A1
  8
1
  6
CONTINUOUS
 62
     7
 10
-263.1
 20
376.35
 30
0.0
 11
-263.1
 21
296.3500000000001
 31
0.0
  0
LINE
  5
A2
  8
1
  6
CONTINUOUS
 62
     7
 10
-263.1
 20
296.3500000000001
 30
0.0
 11
-403.1
 21
296.3500000000001
 31
0.0
  0
ENDBLK
  8
0
  0
BLOCK
  8
0
  2
D_FRAME_VIEW_2741
 70
     0
 10
0.0
 20
0.0
 30
0.0
  0
LINE
  5
A8
  8
1
  6
CONTINUOUS
 62
     7
 10
-375.1
 20
187.55
 30
0.0
 11
-375.1
 21
186.35
 31
0.0
  0
LINE
  5
A9
  8
1
  6
CONTINUOUS
 62
     7
 10
-291.1
 20
187.55
 30
0.0
 11
-375.1
 21
187.55
 31
0.0
  0
LINE
  5
AA
  8
1
  6
CONTINUOUS
 62
     7
 10
-291.1
 20
187.55
 30
0.0
 11
-291.1
 21
186.35
 31
0.0
  0
LINE
  5
AB
  8
1
  6
CONTINUOUS
 62
     7
 10
-306.1
 20
188.55
 30
0.0
 11
-306.1
 21
187.55
 31
0.0
  0
LINE
  5
AC
  8
1
  6
CONTINUOUS
 62
     7
 10
-291.1000000000001
 20
187.55
 30
0.0
 11
-291.1000000000001
 21
188.55
 31
0.0
  0
LINE
  5
AD
  8
1
  6
CONTINUOUS
 62
     7
 10
-360.1000000000001
 20
187.55
 30
0.0
 11
-360.1000000000001
 21
188.55
 31
0.0
  0
LINE
  5
AE
  8
1
  6
CONTINUOUS
 62
     7
 10
-375.1
 20
188.55
 30
0.0
 11
-375.1
 21
187.55
 31
0.0
  0
LINE
  5
AF
  8
1
  6
CONTINUOUS
 62
     7
 10
-360.1000000000001
 20
263.35
 30
0.0
 11
-375.1
 21
263.35
 31
0.0
  0
ARC
  5
B0
  8
1
  6
CONTINUOUS
 62
     7
 10
-367.6
 20
224.25
 30
0.0
 40
2.100000000000046
 50
0.0
 51
180.0
  0
ARC
  5
B1
  8
1
  6
CONTINUOUS
 62
     7
 10
-367.6
 20
218.45
 30
0.0
 40
2.099999999999491
 50
180.0
 51
0.0
  0
LINE
  5
B2
  8
1
  6
CONTINUOUS
 62
     7
 10
-365.5000000000001
 20
224.25
 30
0.0
 11
-365.5000000000001
 21
218.45
 31
0.0
  0
LINE
  5
B3
  8
1
  6
CONTINUOUS
 62
     7
 10
-369.7000000000001
 20
218.45
 30
0.0
 11
-369.7000000000001
 21
224.25
 31
0.0
  0
LINE
  5
B4
  8
1
  6
CONTINUOUS
 62
     7
 10
-360.1000000000001
 20
188.55
 30
0.0
 11
-360.1000000000001
 21
263.35
 31
0.0
  0
LINE
  5
B5
  8
1
  6
CONTINUOUS
 62
     7
 10
-375.1
 20
188.55
 30
0.0
 11
-375.1
 21
263.35
 31
0.0
  0
ARC
  5
B6
  8
1
  6
CONTINUOUS
 62
     7
 10
-303.1
 20
275.35
 30
0.0
 40
3.000000000000003
 50
90.0
 51
180.0
  0
ARC
  5
B7
  8
1
  6
CONTINUOUS
 62
     7
 10
-294.1000000000001
 20
275.35
 30
0.0
 40
3.000000000000003
 50
0.0
 51
90.0
  0
ARC
  5
B8
  8
1
  6
CONTINUOUS
 62
     7
 10
-303.1
 20
274.35
 30
0.0
 40
1.000000000000001
 50
90.00000000000055
 51
180.0
  0
ARC
  5
B9
  8
1
  6
CONTINUOUS
 62
     7
 10
-303.1
 20
264.35
 30
0.0
 40
1.000000000000001
 50
180.0000000000008
 51
270.0000000000005
  0
ARC
  5
BA
  8
1
  6
CONTINUOUS
 62
     7
 10
-294.1
 20
274.35
 30
0.0
 40
1.000000000000001
 50
0.0
 51
89.9999999999992
  0
ARC
  5
BB
  8
1
  6
CONTINUOUS
 62
     7
 10
-298.6000000000001
 20
224.25
 30
0.0
 40
2.099999999999991
 50
0.0
 51
180.0
  0
LINE
  5
BC
  8
1
  6
CONTINUOUS
 62
     7
 10
-304.1
 20
264.35
 30
0.0
 11
-304.1
 21
274.35
 31
0.0
  0
LINE
  5
BD
  8
1
  6
CONTINUOUS
 62
     7
 10
-296.5000000000001
 20
224.25
 30
0.0
 11
-296.5000000000001
 21
218.45
 31
0.0
  0
ARC
  5
BE
  8
1
  6
CONTINUOUS
 62
     7
 10
-298.6000000000001
 20
218.45
 30
0.0
 40
2.099999999999547
 50
180.0
 51
0.0
  0
LINE
  5
BF
  8
1
  6
CONTINUOUS
 62
     7
 10
-294.1000000000001
 20
278.35
 30
0.0
 11
-303.1
 21
278.35
 31
0.0
  0
LINE
  5
C0
  8
1
  6
CONTINUOUS
 62
     7
 10
-294.1
 20
263.35
 30
0.0
 11
-303.1
 21
263.35
 31
0.0
  0
LINE
  5
C1
  8
1
  6
CONTINUOUS
 62
     7
 10
-293.1
 20
274.35
 30
0.0
 11
-293.1
 21
264.35
 31
0.0
  0
LINE
  5
C2
  8
1
  6
CONTINUOUS
 62
     7
 10
-300.7
 20
218.45
 30
0.0
 11
-300.7
 21
224.25
 31
0.0
  0
LINE
  5
C3
  8
1
  6
CONTINUOUS
 62
     7
 10
-303.1000000000001
 20
275.35
 30
0.0
 11
-294.1
 21
275.35
 31
0.0
  0
ARC
  5
C4
  8
1
  6
CONTINUOUS
 62
     7
 10
-294.1
 20
264.35
 30
0.0
 40
1.000000000000001
 50
270.0
 51
0.0
  0
LINE
  5
C5
  8
1
  6
CONTINUOUS
 62
     7
 10
-306.1
 20
188.55
 30
0.0
 11
-306.1
 21
275.35
 31
0.0
  0
LINE
  5
C6
  8
1
  6
CONTINUOUS
 62
     7
 10
-291.1
 20
188.55
 30
0.0
 11
-291.1
 21
275.35
 31
0.0
  0
LINE
  5
C7
  8
1
  6
CONTINUOUS
 62
     9
 10
-353.6392155400347
 20
263.35
 30
0.0
 11
-353.6392155400347
 21
187.55
 31
0.0
  0
LINE
  5
C8
  8
1
  6
CONTINUOUS
 62
     7
 10
-312.5607844599654
 20
263.35
 30
0.0
 11
-353.6392155400347
 21
263.35
 31
0.0
  0
LINE
  5
C9
  8
1
  6
CONTINUOUS
 62
     9
 10
-312.5607844599654
 20
263.35
 30
0.0
 11
-312.5607844599654
 21
187.55
 31
0.0
  0
LINE
  5
CA
  8
1
  6
CONTINUOUS
 62
     9
 10
-309.6266108113891
 20
263.35
 30
0.0
 11
-309.6266108113891
 21
187.55
 31
0.0
  0
LINE
  5
CB
  8
1
  6
CONTINUOUS
 62
     7
 10
-312.5607844599654
 20
263.35
 30
0.0
 11
-309.6266108113891
 21
263.35
 31
0.0
  0
LINE
  5
CC
  8
1
  6
CONTINUOUS
 62
     9
 10
-356.573389188611
 20
263.35
 30
0.0
 11
-356.573389188611
 21
187.55
 31
0.0
  0
LINE
  5
CD
  8
1
  6
CONTINUOUS
 62
     7
 10
-356.573389188611
 20
263.35
 30
0.0
 11
-353.6392155400347
 21
263.35
 31
0.0
  0
LINE
  5
CE
  8
1
  6
CONTINUOUS
 62
     7
 10
-306.1
 20
263.35
 30
0.0
 11
-309.6266108113891
 21
263.35
 31
0.0
  0
LINE
  5
CF
  8
1
  6
CONTINUOUS
 62
     7
 10
-356.573389188611
 20
263.35
 30
0.0
 11
-360.1000000000001
 21
263.35
 31
0.0
  0
LINE
  5
D0
  8
1
  6
CONTINUOUS
 62
     7
 10
-263.1
 20
184.35
 30
0.0
 11
-403.1
 21
184.35
 31
0.0
  0
LINE
  5
D1
  8
1
  6
CONTINUOUS
 62
     7
 10
-403.1
 20
184.35
 30
0.0
 11
-403.1
 21
186.35
 31
0.0
  0
LINE
  5
D2
  8
1
  6
CONTINUOUS
 62
     7
 10
-263.1
 20
184.35
 30
0.0
 11
-263.1
 21
186.35
 31
0.0
  0
LINE
  5
D3
  8
1
  6
CONTINUOUS
 62
     7
 10
-263.1
 20
186.35
 30
0.0
 11
-403.1
 21
186.35
 31
0.0
  0
ENDBLK
  8
0
  0
BLOCK
  8
0
  2
D_FRAME_VIEW_2932
 70
     0
 10
0.0
 20
0.0
 30
0.0
  0
LINE
  5
D8
  8
1
  6
CONTINUOUS
 62
     9
 10
-175.0999999999999
 20
275.35
 30
0.0
 11
-176.2999999999999
 21
275.35
 31
0.0
  0
LINE
  5
D9
  8
1
  6
CONTINUOUS
 62
     7
 10
-176.2999999999999
 20
275.35
 30
0.0
 11
-176.2999999999999
 21
278.35
 31
0.0
  0
LINE
  5
DA
  8
1
  6
CONTINUOUS
 62
     7
 10
-176.2999999999999
 20
278.35
 30
0.0
 11
-175.0999999999999
 21
278.35
 31
0.0
  0
LINE
  5
DB
  8
1
  6
CONTINUOUS
 62
     7
 10
-175.0999999999999
 20
278.35
 30
0.0
 11
-175.0999999999999
 21
275.35
 31
0.0
  0
LINE
  5
DC
  8
1
  6
CONTINUOUS
 62
     7
 10
-176.2999999999999
 20
188.55
 30
0.0
 11
-176.2999999999999
 21
275.35
 31
0.0
  0
LINE
  5
DD
  8
1
  6
CONTINUOUS
 62
     7
 10
-177.2999999999998
 20
187.55
 30
0.0
 11
-215.0999999999999
 21
187.55
 31
0.0
  0
LINE
  5
DE
  8
1
  6
CONTINUOUS
 62
     7
 10
-215.0999999999999
 20
187.55
 30
0.0
 11
-215.0999999999999
 21
186.35
 31
0.0
  0
ARC
  5
DF
  8
1
  6
CONTINUOUS
 62
     7
 10
-177.2999999999999
 20
188.55
 30
0.0
 40
2.200000000000007
 50
270.0
 51
0.0
  0
LINE
  5
E0
  8
1
  6
CONTINUOUS
 62
     7
 10
-175.0999999999999
 20
275.35
 30
0.0
 11
-175.0999999999999
 21
263.35
 31
0.0
  0
LINE
  5
E1
  8
1
  6
CONTINUOUS
 62
     7
 10
-175.0999999999999
 20
263.35
 30
0.0
 11
-175.0999999999999
 21
188.55
 31
0.0
  0
ARC
  5
E2
  8
1
  6
CONTINUOUS
 62
     7
 10
-177.2999999999998
 20
188.55
 30
0.0
 40
0.9999999999999731
 50
270.0
 51
0.0
  0
LINE
  5
E3
  8
1
  6
CONTINUOUS
 62
     7
 10
-173.0999999999999
 20
263.35
 30
0.0
 11
-175.0999999999999
 21
263.35
 31
0.0
  0
LINE
  5
E4
  8
1
  6
CONTINUOUS
 62
     7
 10
-173.0999999999999
 20
263.35
 30
0.0
 11
-173.0999999999999
 21
186.35
 31
0.0
  0
LINE
  5
E5
  8
1
  6
CONTINUOUS
 62
     7
 10
-175.0999999999999
 20
263.35
 30
0.0
 11
-175.0999999999999
 21
188.55
 31
0.0
  0
LINE
  5
E6
  8
1
  6
CONTINUOUS
 62
     7
 10
-175.0999999999999
 20
188.55
 30
0.0
 11
-175.0999999999999
 21
186.35
 31
0.0
  0
LINE
  5
E7
  8
1
  6
CONTINUOUS
 62
     9
 10
-177.4749999999999
 20
263.35
 30
0.0
 11
-177.4749999999999
 21
187.55
 31
0.0
  0
LINE
  5
E8
  8
1
  6
CONTINUOUS
 62
     7
 10
-177.4749999999999
 20
263.35
 30
0.0
 11
-176.2999999999999
 21
263.35
 31
0.0
  0
LINE
  5
E9
  8
1
  6
CONTINUOUS
 62
     7
 10
-177.4749999999999
 20
263.35
 30
0.0
 11
-194.0999999999999
 21
263.35
 31
0.0
  0
LINE
  5
EA
  8
1
  6
CONTINUOUS
 62
     7
 10
-163.1
 20
184.35
 30
0.0
 11
-163.1
 21
186.35
 31
0.0
  0
LINE
  5
EB
  8
1
  6
CONTINUOUS
 62
     7
 10
-163.1
 20
184.35
 30
0.0
 11
-243.0999999999999
 21
184.35
 31
0.0
  0
LINE
  5
EC
  8
1
  6
CONTINUOUS
 62
     7
 10
-243.0999999999999
 20
184.35
 30
0.0
 11
-243.0999999999999
 21
186.35
 31
0.0
  0
LINE
  5
ED
  8
1
  6
CONTINUOUS
 62
     7
 10
-163.1
 20
186.35
 30
0.0
 11
-243.0999999999999
 21
186.35
 31
0.0
  0
LINE
  5
EE
  8
1
  6
CONTINUOUS
 62
     7
 10
-194.0999999999999
 20
263.35
 30
0.0
 11
-194.0999999999999
 21
187.55
 31
0.0
  0
ENDBLK
  8
0
  0
ENDSEC
  0
SECTION
  2
ENTITIES
  0
INSERT
  5
A3
  8
1
  6
CONTINUOUS
 62
     7
  2
D_FRAME_VIEW_2907
 10
0.0
 20
0.0
 30
0.0
  0
TEXT
  5
A4
  8
1
  6
CONTINUOUS
 62
     7
 10
-231.0000375140677
 20
174.1212267100163
 30
0.0
 40
4.0
  1
XPKH-28
  0
INSERT
  5
D4
  8
1
  6
CONTINUOUS
 62
     7
  2
D_FRAME_VIEW_2741
 10
0.0
 20
0.0
 30
0.0
  0
INSERT
  5
EF
  8
1
  6
CONTINUOUS
 62
     7
  2
D_FRAME_VIEW_2932
 10
0.0
 20
0.0
 30
0.0
  0
ENDSEC
  0
EOF
