  0
SECTION
  2
HEADER
  9
$ACADVER
  1
AC1006
  9
$DWGCODEPAGE
  3
ansi_932
  9
$INSBASE
 10
0.0
 20
0.0
 30
0.0
  9
$EXTMIN
 10
-407.6
 20
159.5772727272728
  9
$EXTMAX
 10
-160.85
 20
388.6
  9
$LIMMIN
 10
0.0
 20
0.0
  9
$LIMMAX
 10
12.0
 20
9.0
  9
$ORTHOMODE
 70
     0
  9
$REGENMODE
 70
     1
  9
$FILLMODE
 70
     1
  9
$QTEXTMODE
 70
     0
  9
$MIRRTEXT
 70
     1
  9
$DRAGMODE
 70
     2
  9
$LTSCALE
 40
1.0
  9
$OSMODE
 70
    37
  9
$ATTMODE
 70
     1
  9
$TEXTSIZE
 40
0.2
  9
$TRACEWID
 40
0.05
  9
$TEXTSTYLE
  7
STANDARD
  9
$CLAYER
  8
0
  9
$CELTYPE
  6
BYLAYER
  9
$CECOLOR
 62
   256
  9
$DIMSCALE
 40
1.0
  9
$DIMASZ
 40
3.0
  9
$DIMEXO
 40
0.0625
  9
$DIMDLI
 40
0.38
  9
$DIMRND
 40
0.0
  9
$DIMDLE
 40
0.0
  9
$DIMEXE
 40
1.5
  9
$DIMTP
 40
0.0
  9
$DIMTM
 40
0.0
  9
$DIMTXT
 40
3.0
  9
$DIMCEN
 40
0.09
  9
$DIMTSZ
 40
0.0
  9
$DIMTOL
 70
     0
  9
$DIMLIM
 70
     0
  9
$DIMTIH
 70
     1
  9
$DIMTOH
 70
     1
  9
$DIMSE1
 70
     0
  9
$DIMSE2
 70
     0
  9
$DIMTAD
 70
     1
  9
$DIMZIN
 70
     0
  9
$DIMBLK
  1

  9
$DIMASO
 70
     1
  9
$DIMSHO
 70
     1
  9
$DIMPOST
  1

  9
$DIMAPOST
  1

  9
$DIMALT
 70
     0
  9
$DIMALTD
 70
     2
  9
$DIMALTF
 40
25.4
  9
$DIMLFAC
 40
1.0
  9
$DIMTOFL
 70
     0
  9
$DIMTVP
 40
0.0
  9
$DIMTIX
 70
     0
  9
$DIMSOXD
 70
     0
  9
$DIMSAH
 70
     0
  9
$DIMBLK1
  1

  9
$DIMBLK2
  1

  9
$LUNITS
 70
     2
  9
$LUPREC
 70
     4
  9
$SKETCHINC
 40
0.1
  9
$FILLETRAD
 40
0.5
  9
$AUNITS
 70
     0
  9
$AUPREC
 70
     0
  9
$MENU
  1
.
  9
$ELEVATION
 40
0.0
  9
$THICKNESS
 40
0.0
  9
$LIMCHECK
 70
     0
  9
$CHAMFERA
 40
0.0
  9
$CHAMFERB
 40
0.0
  9
$SKPOLY
 70
     0
  9
$TDCREATE
 40
2459712.360239444
  9
$TDUPDATE
 40
2459712.360239584
  9
$TDINDWG
 40
0.0000000116
  9
$TDUSRTIMER
 40
0.0000000116
  9
$USRTIMER
 70
     1
  9
$ANGBASE
 50
0.0
  9
$ANGDIR
 70
     0
  9
$PDMODE
 70
     0
  9
$PDSIZE
 40
0.0
  9
$PLINEWID
 40
0.0
  9
$COORDS
 70
     1
  9
$SPLFRAME
 70
     0
  9
$SPLINETYPE
 70
     6
  9
$SPLINESEGS
 70
     8
  9
$ATTDIA
 70
     0
  9
$ATTREQ
 70
     1
  9
$HANDLING
 70
     1
  9
$HANDSEED
  5
F9
  9
$SURFTAB1
 70
     6
  9
$SURFTAB2
 70
     6
  9
$SURFTYPE
 70
     6
  9
$SURFU
 70
     6
  9
$SURFV
 70
     6
  9
$UCSNAME
  2

  9
$UCSORG
 10
0.0
 20
0.0
 30
0.0
  9
$UCSXDIR
 10
1.0
 20
0.0
 30
0.0
  9
$UCSYDIR
 10
0.0
 20
1.0
 30
0.0
  9
$USERI1
 70
     0
  9
$USERI2
 70
     0
  9
$USERI3
 70
     0
  9
$USERI4
 70
     0
  9
$USERI5
 70
     0
  9
$USERR1
 40
0.0
  9
$USERR2
 40
0.0
  9
$USERR3
 40
0.0
  9
$USERR4
 40
0.0
  9
$USERR5
 40
0.0
  9
$WORLDVIEW
 70
     1
  0
ENDSEC
  0
SECTION
  2
TABLES
  0
TABLE
  2
VPORT
 70
     1
  0
VPORT
  2
*ACTIVE
 70
     0
 10
0.0
 20
0.0
 11
1.0
 21
1.0
 12
-284.225
 22
274.0886363636364
 13
0.0
 23
0.0
 14
0.5
 24
0.5
 15
0.5
 25
0.5
 16
0.0
 26
0.0
 36
1.0
 17
0.0
 27
0.0
 37
0.0
 40
229.0227272727273
 41
1.6
 42
50.0
 43
0.0
 44
0.0
 50
0.0
 51
0.0
 71
     0
 72
   100
 73
     1
 74
     3
 75
     0
 76
     0
 77
     0
 78
     0
  0
ENDTAB
  0
TABLE
  2
LTYPE
 70
     1
  0
LTYPE
  2
CONTINUOUS
 70
     0
  3
Solid line
 72
    65
 73
     0
 40
0.0
  0
ENDTAB
  0
TABLE
  2
LAYER
 70
     2
  0
LAYER
  2
0
 70
     0
 62
     7
  6
CONTINUOUS
  0
LAYER
  2
1
 70
     0
 62
     7
  6
CONTINUOUS
  0
ENDTAB
  0
TABLE
  2
STYLE
 70
     2
  0
STYLE
  2
STANDARD
 70
     0
 40
0.0
 41
1.0
 50
0.0
 71
     0
 42
0.2
  3
txt
  4

  0
STYLE
  2
ＭＳ_ゴシック
 70
     0
 40
0.0
 41
1.0
 50
0.0
 71
     0
 42
0.2
  3
ＭＳ ゴシック.shx
  4

  0
ENDTAB
  0
TABLE
  2
VIEW
 70
     0
  0
ENDTAB
  0
TABLE
  2
UCS
 70
     0
  0
ENDTAB
  0
ENDSEC
  0
SECTION
  2
BLOCKS
  0
BLOCK
  8
0
  2
D_FRAME_VIEW_2907
 70
     0
 10
0.0
 20
0.0
 30
0.0
  0
LINE
  5
71
  8
1
  6
CONTINUOUS
 62
     7
 10
-301.6
 20
375.4
 30
0.0
 11
-301.6
 21
376.6
 31
0.0
  0
LINE
  5
72
  8
1
  6
CONTINUOUS
 62
     7
 10
-301.6
 20
376.6
 30
0.0
 11
-298.6
 21
376.6
 31
0.0
  0
LINE
  5
73
  8
1
  6
CONTINUOUS
 62
     7
 10
-298.6
 20
375.4
 30
0.0
 11
-301.6
 21
375.4
 31
0.0
  0
LINE
  5
74
  8
1
  6
CONTINUOUS
 62
     7
 10
-286.6
 20
376.6
 30
0.0
 11
-286.6
 21
375.4
 31
0.0
  0
LINE
  5
75
  8
1
  6
CONTINUOUS
 62
     7
 10
-286.6
 20
375.4
 30
0.0
 11
-289.6
 21
375.4
 31
0.0
  0
LINE
  5
76
  8
1
  6
CONTINUOUS
 62
     7
 10
-289.6
 20
376.6
 30
0.0
 11
-286.6
 21
376.6
 31
0.0
  0
LINE
  5
77
  8
1
  6
CONTINUOUS
 62
     7
 10
-289.6
 20
375.4
 30
0.0
 11
-298.6
 21
375.4
 31
0.0
  0
LINE
  5
78
  8
1
  6
CONTINUOUS
 62
     7
 10
-298.6
 20
376.6
 30
0.0
 11
-289.6
 21
376.6
 31
0.0
  0
LINE
  5
79
  8
1
  6
CONTINUOUS
 62
     7
 10
-364.5999999999999
 20
375.4
 30
0.0
 11
-379.5999999999999
 21
375.4
 31
0.0
  0
LINE
  5
7A
  8
1
  6
CONTINUOUS
 62
     7
 10
-379.5999999999999
 20
375.4
 30
0.0
 11
-379.5999999999999
 21
376.6
 31
0.0
  0
LINE
  5
7B
  8
1
  6
CONTINUOUS
 62
     7
 10
-379.5999999999999
 20
376.6
 30
0.0
 11
-364.5999999999999
 21
376.6
 31
0.0
  0
LINE
  5
7C
  8
1
  6
CONTINUOUS
 62
     7
 10
-364.5999999999999
 20
376.6
 30
0.0
 11
-364.5999999999999
 21
375.4
 31
0.0
  0
LINE
  5
7D
  8
1
  6
CONTINUOUS
 62
     7
 10
-301.6
 20
375.4
 30
0.0
 11
-301.6
 21
374.4
 31
0.0
  0
LINE
  5
7E
  8
1
  6
CONTINUOUS
 62
     7
 10
-286.6
 20
374.4
 30
0.0
 11
-286.6
 21
375.4
 31
0.0
  0
LINE
  5
7F
  8
1
  6
CONTINUOUS
 62
     7
 10
-364.5999999999999
 20
374.4
 30
0.0
 11
-364.5999999999999
 21
375.4
 31
0.0
  0
LINE
  5
80
  8
1
  6
CONTINUOUS
 62
     7
 10
-379.5999999999999
 20
375.4
 30
0.0
 11
-379.5999999999999
 21
374.4
 31
0.0
  0
LINE
  5
81
  8
1
  6
CONTINUOUS
 62
     7
 10
-286.6
 20
332.1000000000001
 30
0.0
 11
-379.5999999999999
 21
332.1000000000001
 31
0.0
  0
LINE
  5
82
  8
1
  6
CONTINUOUS
 62
     7
 10
-364.5999999999999
 20
374.4
 30
0.0
 11
-361.4374310762284
 21
374.4
 31
0.0
  0
ARC
  5
83
  8
1
  6
CONTINUOUS
 62
     7
 10
-361.4374310762284
 20
371.4
 30
0.0
 40
3.000000000000003
 50
16.13885273663345
 51
90.0
  0
ARC
  5
84
  8
1
  6
CONTINUOUS
 62
     7
 10
-333.1
 20
379.6
 30
0.0
 40
26.50000000000002
 50
196.1388527366333
 51
270.0
  0
ARC
  5
85
  8
1
  6
CONTINUOUS
 62
     7
 10
-333.1
 20
379.6
 30
0.0
 40
26.49999999999997
 50
270.0
 51
343.8611472633667
  0
ARC
  5
86
  8
1
  6
CONTINUOUS
 62
     7
 10
-304.7625689237714
 20
371.4
 30
0.0
 40
2.999999999999976
 50
89.9999999999999
 51
163.8611472633664
  0
LINE
  5
87
  8
1
  6
CONTINUOUS
 62
     7
 10
-304.7625689237714
 20
374.4
 30
0.0
 11
-301.6
 21
374.4
 31
0.0
  0
LINE
  5
88
  8
1
  6
CONTINUOUS
 62
     7
 10
-379.5999999999999
 20
332.1000000000001
 30
0.0
 11
-379.5999999999999
 21
374.4
 31
0.0
  0
LINE
  5
89
  8
1
  6
CONTINUOUS
 62
     7
 10
-286.6
 20
374.4
 30
0.0
 11
-286.6
 21
332.1000000000001
 31
0.0
  0
LINE
  5
8A
  8
1
  6
CONTINUOUS
 62
     7
 10
-379.5999999999999
 20
378.6
 30
0.0
 11
-361.1579756931964
 21
378.6
 31
0.0
  0
ARC
  5
8B
  8
1
  6
CONTINUOUS
 62
     7
 10
-361.1579756931964
 20
373.6
 30
0.0
 40
5.000000000000004
 50
10.10418271612497
 51
89.99999999999994
  0
ARC
  5
8C
  8
1
  6
CONTINUOUS
 62
     7
 10
-333.1
 20
378.6
 30
0.0
 40
23.49999999999999
 50
190.104182716125
 51
349.895817283875
  0
ARC
  5
8D
  8
1
  6
CONTINUOUS
 62
     7
 10
-305.0420243068036
 20
373.6
 30
0.0
 40
5.000000000000011
 50
90.0
 51
169.8958172838753
  0
LINE
  5
8E
  8
1
  6
CONTINUOUS
 62
     7
 10
-305.0420243068036
 20
378.6
 30
0.0
 11
-286.6
 21
378.6
 31
0.0
  0
LINE
  5
8F
  8
1
  6
CONTINUOUS
 62
     7
 10
-286.6
 20
378.6
 30
0.0
 11
-286.6
 21
376.6
 31
0.0
  0
ARC
  5
90
  8
1
  6
CONTINUOUS
 62
     7
 10
-305.0420243068036
 20
373.6
 30
0.0
 40
3.000000000000003
 50
90.0
 51
169.895817283875
  0
ARC
  5
91
  8
1
  6
CONTINUOUS
 62
     7
 10
-333.1
 20
378.6
 30
0.0
 40
25.49999999999999
 50
190.1041827161249
 51
349.895817283875
  0
ARC
  5
92
  8
1
  6
CONTINUOUS
 62
     7
 10
-361.1579756931964
 20
373.6
 30
0.0
 40
3.00000000000001
 50
10.10418271612471
 51
90.0
  0
LINE
  5
93
  8
1
  6
CONTINUOUS
 62
     7
 10
-379.5999999999999
 20
376.6
 30
0.0
 11
-379.5999999999999
 21
378.6
 31
0.0
  0
LINE
  5
94
  8
1
  6
CONTINUOUS
 62
     7
 10
-301.6
 20
376.6
 30
0.0
 11
-305.0420243068036
 21
376.6
 31
0.0
  0
LINE
  5
95
  8
1
  6
CONTINUOUS
 62
     7
 10
-361.1579756931964
 20
376.6
 30
0.0
 11
-364.5999999999999
 21
376.6
 31
0.0
  0
LINE
  5
96
  8
1
  6
CONTINUOUS
 62
     7
 10
-364.5999999999999
 20
376.6
 30
0.0
 11
-379.5999999999999
 21
376.6
 31
0.0
  0
LINE
  5
97
  8
1
  6
CONTINUOUS
 62
     7
 10
-407.6
 20
304.1
 30
0.0
 11
-407.6
 21
378.6
 31
0.0
  0
LINE
  5
98
  8
1
  6
CONTINUOUS
 62
     7
 10
-407.6
 20
378.6
 30
0.0
 11
-379.5999999999999
 21
378.6
 31
0.0
  0
LINE
  5
99
  8
1
  6
CONTINUOUS
 62
     7
 10
-361.1579756931964
 20
378.6
 30
0.0
 11
-356.5999999999999
 21
378.6
 31
0.0
  0
ARC
  5
9A
  8
1
  6
CONTINUOUS
 62
     7
 10
-333.1
 20
378.6
 30
0.0
 40
23.50000000000002
 50
180.0
 51
190.104182716125
  0
ARC
  5
9B
  8
1
  6
CONTINUOUS
 62
     7
 10
-333.1
 20
378.6
 30
0.0
 40
23.49999999999999
 50
349.895817283875
 51
0.0
  0
LINE
  5
9C
  8
1
  6
CONTINUOUS
 62
     7
 10
-309.5999999999999
 20
378.6
 30
0.0
 11
-305.0420243068036
 21
378.6
 31
0.0
  0
LINE
  5
9D
  8
1
  6
CONTINUOUS
 62
     7
 10
-286.6
 20
378.6
 30
0.0
 11
-285.5999999999999
 21
378.6
 31
0.0
  0
LINE
  5
9E
  8
1
  6
CONTINUOUS
 62
     9
 10
-285.6
 20
368.6
 30
0.0
 11
-285.5999999999999
 21
378.6
 31
0.0
  0
LINE
  5
9F
  8
1
  6
CONTINUOUS
 62
     7
 10
-285.5999999999999
 20
378.6
 30
0.0
 11
-285.6
 21
388.6
 31
0.0
  0
LINE
  5
A0
  8
1
  6
CONTINUOUS
 62
     7
 10
-285.6
 20
388.6
 30
0.0
 11
-258.5999999999999
 21
388.6
 31
0.0
  0
LINE
  5
A1
  8
1
  6
CONTINUOUS
 62
     7
 10
-258.5999999999999
 20
388.6
 30
0.0
 11
-258.5999999999999
 21
304.1
 31
0.0
  0
LINE
  5
A2
  8
1
  6
CONTINUOUS
 62
     7
 10
-258.5999999999999
 20
304.1
 30
0.0
 11
-407.6
 21
304.1
 31
0.0
  0
ENDBLK
  8
0
  0
BLOCK
  8
0
  2
D_FRAME_VIEW_2741
 70
     0
 10
0.0
 20
0.0
 30
0.0
  0
LINE
  5
A8
  8
1
  6
CONTINUOUS
 62
     7
 10
-379.5999999999999
 20
178.55
 30
0.0
 11
-379.5999999999999
 21
177.35
 31
0.0
  0
LINE
  5
A9
  8
1
  6
CONTINUOUS
 62
     7
 10
-286.6
 20
178.55
 30
0.0
 11
-379.5999999999999
 21
178.55
 31
0.0
  0
LINE
  5
AA
  8
1
  6
CONTINUOUS
 62
     7
 10
-286.6
 20
178.55
 30
0.0
 11
-286.6
 21
177.35
 31
0.0
  0
LINE
  5
AB
  8
1
  6
CONTINUOUS
 62
     7
 10
-301.6
 20
179.55
 30
0.0
 11
-301.6
 21
178.55
 31
0.0
  0
LINE
  5
AC
  8
1
  6
CONTINUOUS
 62
     7
 10
-286.6
 20
178.55
 30
0.0
 11
-286.6
 21
179.55
 31
0.0
  0
LINE
  5
AD
  8
1
  6
CONTINUOUS
 62
     7
 10
-364.5999999999999
 20
178.55
 30
0.0
 11
-364.5999999999999
 21
179.55
 31
0.0
  0
LINE
  5
AE
  8
1
  6
CONTINUOUS
 62
     7
 10
-379.5999999999999
 20
179.55
 30
0.0
 11
-379.5999999999999
 21
178.55
 31
0.0
  0
LINE
  5
AF
  8
1
  6
CONTINUOUS
 62
     7
 10
-364.5999999999999
 20
272.35
 30
0.0
 11
-379.5999999999999
 21
272.35
 31
0.0
  0
ARC
  5
B0
  8
1
  6
CONTINUOUS
 62
     7
 10
-372.0999999999999
 20
220.25
 30
0.0
 40
2.100000000000046
 50
0.0
 51
180.0
  0
ARC
  5
B1
  8
1
  6
CONTINUOUS
 62
     7
 10
-372.0999999999999
 20
214.45
 30
0.0
 40
2.099999999999991
 50
180.0
 51
0.0
  0
LINE
  5
B2
  8
1
  6
CONTINUOUS
 62
     7
 10
-369.9999999999999
 20
220.25
 30
0.0
 11
-369.9999999999999
 21
214.45
 31
0.0
  0
LINE
  5
B3
  8
1
  6
CONTINUOUS
 62
     7
 10
-374.2
 20
214.45
 30
0.0
 11
-374.2
 21
220.25
 31
0.0
  0
LINE
  5
B4
  8
1
  6
CONTINUOUS
 62
     7
 10
-364.5999999999999
 20
179.55
 30
0.0
 11
-364.5999999999999
 21
272.35
 31
0.0
  0
LINE
  5
B5
  8
1
  6
CONTINUOUS
 62
     7
 10
-379.5999999999999
 20
179.55
 30
0.0
 11
-379.5999999999999
 21
272.35
 31
0.0
  0
ARC
  5
B6
  8
1
  6
CONTINUOUS
 62
     7
 10
-298.6
 20
284.35
 30
0.0
 40
3.000000000000003
 50
90.0
 51
180.0
  0
ARC
  5
B7
  8
1
  6
CONTINUOUS
 62
     7
 10
-289.6
 20
284.35
 30
0.0
 40
3.000000000000003
 50
0.0
 51
90.0
  0
ARC
  5
B8
  8
1
  6
CONTINUOUS
 62
     7
 10
-298.5999999999999
 20
283.35
 30
0.0
 40
1.000000000000001
 50
90.0000000000004
 51
180.0
  0
ARC
  5
B9
  8
1
  6
CONTINUOUS
 62
     7
 10
-298.6
 20
273.35
 30
0.0
 40
1.000000000000001
 50
180.0
 51
270.0000000000005
  0
ARC
  5
BA
  8
1
  6
CONTINUOUS
 62
     7
 10
-289.6
 20
283.35
 30
0.0
 40
1.000000000000001
 50
0.0000000000007958
 51
89.99999999999962
  0
ARC
  5
BB
  8
1
  6
CONTINUOUS
 62
     7
 10
-294.1
 20
220.25
 30
0.0
 40
2.099999999999991
 50
0.0
 51
180.0
  0
LINE
  5
BC
  8
1
  6
CONTINUOUS
 62
     7
 10
-299.5999999999999
 20
273.35
 30
0.0
 11
-299.5999999999999
 21
283.35
 31
0.0
  0
LINE
  5
BD
  8
1
  6
CONTINUOUS
 62
     7
 10
-291.9999999999999
 20
220.25
 30
0.0
 11
-291.9999999999999
 21
214.45
 31
0.0
  0
ARC
  5
BE
  8
1
  6
CONTINUOUS
 62
     7
 10
-294.1
 20
214.45
 30
0.0
 40
2.100000000000046
 50
180.0
 51
0.0
  0
LINE
  5
BF
  8
1
  6
CONTINUOUS
 62
     7
 10
-289.6
 20
287.35
 30
0.0
 11
-298.6
 21
287.35
 31
0.0
  0
LINE
  5
C0
  8
1
  6
CONTINUOUS
 62
     7
 10
-289.6
 20
272.35
 30
0.0
 11
-298.5999999999999
 21
272.35
 31
0.0
  0
LINE
  5
C1
  8
1
  6
CONTINUOUS
 62
     7
 10
-288.6
 20
283.35
 30
0.0
 11
-288.6
 21
273.35
 31
0.0
  0
LINE
  5
C2
  8
1
  6
CONTINUOUS
 62
     7
 10
-296.1999999999999
 20
214.45
 30
0.0
 11
-296.1999999999999
 21
220.25
 31
0.0
  0
LINE
  5
C3
  8
1
  6
CONTINUOUS
 62
     7
 10
-298.6
 20
284.35
 30
0.0
 11
-289.6
 21
284.35
 31
0.0
  0
ARC
  5
C4
  8
1
  6
CONTINUOUS
 62
     7
 10
-289.6
 20
273.35
 30
0.0
 40
1.000000000000001
 50
270.0000000000004
 51
0.0
  0
LINE
  5
C5
  8
1
  6
CONTINUOUS
 62
     7
 10
-301.6
 20
179.55
 30
0.0
 11
-301.6
 21
284.35
 31
0.0
  0
LINE
  5
C6
  8
1
  6
CONTINUOUS
 62
     7
 10
-286.6
 20
179.55
 30
0.0
 11
-286.6
 21
284.35
 31
0.0
  0
LINE
  5
C7
  8
1
  6
CONTINUOUS
 62
     9
 10
-358.2045045675967
 20
272.35
 30
0.0
 11
-358.2045045675967
 21
178.55
 31
0.0
  0
LINE
  5
C8
  8
1
  6
CONTINUOUS
 62
     7
 10
-307.9954954324032
 20
272.35
 30
0.0
 11
-358.2045045675967
 21
272.35
 31
0.0
  0
LINE
  5
C9
  8
1
  6
CONTINUOUS
 62
     9
 10
-307.9954954324032
 20
272.35
 30
0.0
 11
-307.9954954324032
 21
178.55
 31
0.0
  0
LINE
  5
CA
  8
1
  6
CONTINUOUS
 62
     9
 10
-361.1579756931964
 20
272.35
 30
0.0
 11
-361.1579756931964
 21
178.55
 31
0.0
  0
LINE
  5
CB
  8
1
  6
CONTINUOUS
 62
     7
 10
-361.1579756931964
 20
272.35
 30
0.0
 11
-358.2045045675967
 21
272.35
 31
0.0
  0
LINE
  5
CC
  8
1
  6
CONTINUOUS
 62
     9
 10
-305.0420243068036
 20
272.35
 30
0.0
 11
-305.0420243068036
 21
178.55
 31
0.0
  0
LINE
  5
CD
  8
1
  6
CONTINUOUS
 62
     7
 10
-307.9954954324032
 20
272.35
 30
0.0
 11
-305.0420243068036
 21
272.35
 31
0.0
  0
LINE
  5
CE
  8
1
  6
CONTINUOUS
 62
     7
 10
-301.6
 20
272.35
 30
0.0
 11
-305.0420243068036
 21
272.35
 31
0.0
  0
LINE
  5
CF
  8
1
  6
CONTINUOUS
 62
     7
 10
-361.1579756931964
 20
272.35
 30
0.0
 11
-364.5999999999999
 21
272.35
 31
0.0
  0
LINE
  5
D0
  8
1
  6
CONTINUOUS
 62
     7
 10
-258.5999999999999
 20
175.35
 30
0.0
 11
-407.6
 21
175.35
 31
0.0
  0
LINE
  5
D1
  8
1
  6
CONTINUOUS
 62
     7
 10
-407.6
 20
175.35
 30
0.0
 11
-407.6
 21
177.35
 31
0.0
  0
LINE
  5
D2
  8
1
  6
CONTINUOUS
 62
     7
 10
-258.5999999999999
 20
175.35
 30
0.0
 11
-258.5999999999999
 21
177.35
 31
0.0
  0
LINE
  5
D3
  8
1
  6
CONTINUOUS
 62
     7
 10
-258.5999999999999
 20
177.35
 30
0.0
 11
-407.6
 21
177.35
 31
0.0
  0
ENDBLK
  8
0
  0
BLOCK
  8
0
  2
D_FRAME_VIEW_2932
 70
     0
 10
0.0
 20
0.0
 30
0.0
  0
LINE
  5
D8
  8
1
  6
CONTINUOUS
 62
     9
 10
-172.85
 20
284.35
 30
0.0
 11
-174.05
 21
284.35
 31
0.0
  0
LINE
  5
D9
  8
1
  6
CONTINUOUS
 62
     7
 10
-174.05
 20
284.35
 30
0.0
 11
-174.05
 21
287.35
 31
0.0
  0
LINE
  5
DA
  8
1
  6
CONTINUOUS
 62
     7
 10
-174.05
 20
287.35
 30
0.0
 11
-172.85
 21
287.35
 31
0.0
  0
LINE
  5
DB
  8
1
  6
CONTINUOUS
 62
     7
 10
-172.85
 20
287.35
 30
0.0
 11
-172.85
 21
284.35
 31
0.0
  0
LINE
  5
DC
  8
1
  6
CONTINUOUS
 62
     7
 10
-174.05
 20
179.55
 30
0.0
 11
-174.05
 21
284.35
 31
0.0
  0
LINE
  5
DD
  8
1
  6
CONTINUOUS
 62
     7
 10
-175.05
 20
178.55
 30
0.0
 11
-217.35
 21
178.55
 31
0.0
  0
LINE
  5
DE
  8
1
  6
CONTINUOUS
 62
     7
 10
-217.35
 20
178.55
 30
0.0
 11
-217.35
 21
177.35
 31
0.0
  0
ARC
  5
DF
  8
1
  6
CONTINUOUS
 62
     7
 10
-175.05
 20
179.55
 30
0.0
 40
2.200000000000007
 50
270.0
 51
0.0
  0
LINE
  5
E0
  8
1
  6
CONTINUOUS
 62
     7
 10
-172.85
 20
284.35
 30
0.0
 11
-172.85
 21
272.35
 31
0.0
  0
LINE
  5
E1
  8
1
  6
CONTINUOUS
 62
     7
 10
-172.85
 20
272.35
 30
0.0
 11
-172.85
 21
179.55
 31
0.0
  0
ARC
  5
E2
  8
1
  6
CONTINUOUS
 62
     7
 10
-175.05
 20
179.55
 30
0.0
 40
1.000000000000001
 50
270.0
 51
0.0
  0
LINE
  5
E3
  8
1
  6
CONTINUOUS
 62
     7
 10
-172.85
 20
272.35
 30
0.0
 11
-172.85
 21
179.55
 31
0.0
  0
LINE
  5
E4
  8
1
  6
CONTINUOUS
 62
     7
 10
-172.85
 20
179.55
 30
0.0
 11
-172.85
 21
177.35
 31
0.0
  0
LINE
  5
E5
  8
1
  6
CONTINUOUS
 62
     7
 10
-170.85
 20
272.35
 30
0.0
 11
-172.85
 21
272.35
 31
0.0
  0
LINE
  5
E6
  8
1
  6
CONTINUOUS
 62
     7
 10
-170.85
 20
272.35
 30
0.0
 11
-170.85
 21
177.35
 31
0.0
  0
LINE
  5
E7
  8
1
  6
CONTINUOUS
 62
     9
 10
-175.3236842105263
 20
272.35
 30
0.0
 11
-175.3236842105263
 21
178.55
 31
0.0
  0
LINE
  5
E8
  8
1
  6
CONTINUOUS
 62
     7
 10
-175.3236842105263
 20
272.35
 30
0.0
 11
-174.05
 21
272.35
 31
0.0
  0
LINE
  5
E9
  8
1
  6
CONTINUOUS
 62
     7
 10
-175.3236842105263
 20
272.35
 30
0.0
 11
-196.35
 21
272.35
 31
0.0
  0
LINE
  5
EA
  8
1
  6
CONTINUOUS
 62
     7
 10
-160.85
 20
175.35
 30
0.0
 11
-160.85
 21
177.35
 31
0.0
  0
LINE
  5
EB
  8
1
  6
CONTINUOUS
 62
     7
 10
-160.85
 20
175.35
 30
0.0
 11
-245.35
 21
175.35
 31
0.0
  0
LINE
  5
EC
  8
1
  6
CONTINUOUS
 62
     7
 10
-245.35
 20
175.35
 30
0.0
 11
-245.35
 21
177.35
 31
0.0
  0
LINE
  5
ED
  8
1
  6
CONTINUOUS
 62
     7
 10
-160.85
 20
177.35
 30
0.0
 11
-245.35
 21
177.35
 31
0.0
  0
LINE
  5
EE
  8
1
  6
CONTINUOUS
 62
     7
 10
-196.35
 20
272.35
 30
0.0
 11
-196.35
 21
178.55
 31
0.0
  0
ENDBLK
  8
0
  0
ENDSEC
  0
SECTION
  2
ENTITIES
  0
INSERT
  5
A3
  8
1
  6
CONTINUOUS
 62
     7
  2
D_FRAME_VIEW_2907
 10
0.0
 20
0.0
 30
0.0
  0
TEXT
  5
A4
  8
1
  6
CONTINUOUS
 62
     7
 10
-230.9909466049768
 20
159.1212267100163
 30
0.0
 40
4.0
  1
XPKH-36
  0
INSERT
  5
D4
  8
1
  6
CONTINUOUS
 62
     7
  2
D_FRAME_VIEW_2741
 10
0.0
 20
0.0
 30
0.0
  0
INSERT
  5
EF
  8
1
  6
CONTINUOUS
 62
     7
  2
D_FRAME_VIEW_2932
 10
0.0
 20
0.0
 30
0.0
  0
ENDSEC
  0
EOF
