  0
SECTION
  2
HEADER
  9
$ACADVER
  1
AC1006
  9
$DWGCODEPAGE
  3
ansi_932
  9
$INSBASE
 10
0.0
 20
0.0
 30
0.0
  9
$EXTMIN
 10
-423.0999999999999
 20
124.5772727272727
  9
$EXTMAX
 10
-103.0999999999999
 20
461.35
  9
$LIMMIN
 10
0.0
 20
0.0
  9
$LIMMAX
 10
12.0
 20
9.0
  9
$ORTHOMODE
 70
     0
  9
$REGENMODE
 70
     1
  9
$FILLMODE
 70
     1
  9
$QTEXTMODE
 70
     0
  9
$MIRRTEXT
 70
     1
  9
$DRAGMODE
 70
     2
  9
$LTSCALE
 40
1.0
  9
$OSMODE
 70
    37
  9
$ATTMODE
 70
     1
  9
$TEXTSIZE
 40
0.2
  9
$TRACEWID
 40
0.05
  9
$TEXTSTYLE
  7
STANDARD
  9
$CLAYER
  8
0
  9
$CELTYPE
  6
BYLAYER
  9
$CECOLOR
 62
   256
  9
$DIMSCALE
 40
1.0
  9
$DIMASZ
 40
3.0
  9
$DIMEXO
 40
0.0625
  9
$DIMDLI
 40
0.38
  9
$DIMRND
 40
0.0
  9
$DIMDLE
 40
0.0
  9
$DIMEXE
 40
1.5
  9
$DIMTP
 40
0.0
  9
$DIMTM
 40
0.0
  9
$DIMTXT
 40
3.0
  9
$DIMCEN
 40
0.09
  9
$DIMTSZ
 40
0.0
  9
$DIMTOL
 70
     0
  9
$DIMLIM
 70
     0
  9
$DIMTIH
 70
     1
  9
$DIMTOH
 70
     1
  9
$DIMSE1
 70
     0
  9
$DIMSE2
 70
     0
  9
$DIMTAD
 70
     1
  9
$DIMZIN
 70
     0
  9
$DIMBLK
  1

  9
$DIMASO
 70
     1
  9
$DIMSHO
 70
     1
  9
$DIMPOST
  1

  9
$DIMAPOST
  1

  9
$DIMALT
 70
     0
  9
$DIMALTD
 70
     2
  9
$DIMALTF
 40
25.4
  9
$DIMLFAC
 40
1.0
  9
$DIMTOFL
 70
     0
  9
$DIMTVP
 40
0.0
  9
$DIMTIX
 70
     0
  9
$DIMSOXD
 70
     0
  9
$DIMSAH
 70
     0
  9
$DIMBLK1
  1

  9
$DIMBLK2
  1

  9
$LUNITS
 70
     2
  9
$LUPREC
 70
     4
  9
$SKETCHINC
 40
0.1
  9
$FILLETRAD
 40
0.5
  9
$AUNITS
 70
     0
  9
$AUPREC
 70
     0
  9
$MENU
  1
.
  9
$ELEVATION
 40
0.0
  9
$THICKNESS
 40
0.0
  9
$LIMCHECK
 70
     0
  9
$CHAMFERA
 40
0.0
  9
$CHAMFERB
 40
0.0
  9
$SKPOLY
 70
     0
  9
$TDCREATE
 40
2459712.362020903
  9
$TDUPDATE
 40
2459712.362021076
  9
$TDINDWG
 40
0.0000000116
  9
$TDUSRTIMER
 40
0.0000000116
  9
$USRTIMER
 70
     1
  9
$ANGBASE
 50
0.0
  9
$ANGDIR
 70
     0
  9
$PDMODE
 70
     0
  9
$PDSIZE
 40
0.0
  9
$PLINEWID
 40
0.0
  9
$COORDS
 70
     1
  9
$SPLFRAME
 70
     0
  9
$SPLINETYPE
 70
     6
  9
$SPLINESEGS
 70
     8
  9
$ATTDIA
 70
     0
  9
$ATTREQ
 70
     1
  9
$HANDLING
 70
     1
  9
$HANDSEED
  5
101
  9
$SURFTAB1
 70
     6
  9
$SURFTAB2
 70
     6
  9
$SURFTYPE
 70
     6
  9
$SURFU
 70
     6
  9
$SURFV
 70
     6
  9
$UCSNAME
  2

  9
$UCSORG
 10
0.0
 20
0.0
 30
0.0
  9
$UCSXDIR
 10
1.0
 20
0.0
 30
0.0
  9
$UCSYDIR
 10
0.0
 20
1.0
 30
0.0
  9
$USERI1
 70
     0
  9
$USERI2
 70
     0
  9
$USERI3
 70
     0
  9
$USERI4
 70
     0
  9
$USERI5
 70
     0
  9
$USERR1
 40
0.0
  9
$USERR2
 40
0.0
  9
$USERR3
 40
0.0
  9
$USERR4
 40
0.0
  9
$USERR5
 40
0.0
  9
$WORLDVIEW
 70
     1
  0
ENDSEC
  0
SECTION
  2
TABLES
  0
TABLE
  2
VPORT
 70
     1
  0
VPORT
  2
*ACTIVE
 70
     0
 10
0.0
 20
0.0
 11
1.0
 21
1.0
 12
-263.0999999999999
 22
292.9636363636364
 13
0.0
 23
0.0
 14
0.5
 24
0.5
 15
0.5
 25
0.5
 16
0.0
 26
0.0
 36
1.0
 17
0.0
 27
0.0
 37
0.0
 40
336.7727272727273
 41
1.6
 42
50.0
 43
0.0
 44
0.0
 50
0.0
 51
0.0
 71
     0
 72
   100
 73
     1
 74
     3
 75
     0
 76
     0
 77
     0
 78
     0
  0
ENDTAB
  0
TABLE
  2
LTYPE
 70
     1
  0
LTYPE
  2
CONTINUOUS
 70
     0
  3
Solid line
 72
    65
 73
     0
 40
0.0
  0
ENDTAB
  0
TABLE
  2
LAYER
 70
     2
  0
LAYER
  2
0
 70
     0
 62
     7
  6
CONTINUOUS
  0
LAYER
  2
1
 70
     0
 62
     7
  6
CONTINUOUS
  0
ENDTAB
  0
TABLE
  2
STYLE
 70
     2
  0
STYLE
  2
STANDARD
 70
     0
 40
0.0
 41
1.0
 50
0.0
 71
     0
 42
0.2
  3
txt
  4

  0
STYLE
  2
ＭＳ_ゴシック
 70
     0
 40
0.0
 41
1.0
 50
0.0
 71
     0
 42
0.2
  3
ＭＳ ゴシック.shx
  4

  0
ENDTAB
  0
TABLE
  2
VIEW
 70
     0
  0
ENDTAB
  0
TABLE
  2
UCS
 70
     0
  0
ENDTAB
  0
ENDSEC
  0
SECTION
  2
BLOCKS
  0
BLOCK
  8
0
  2
D_FRAME_VIEW_2907
 70
     0
 10
0.0
 20
0.0
 30
0.0
  0
LINE
  5
71
  8
1
  6
CONTINUOUS
 62
     7
 10
-274.1
 20
448.15
 30
0.0
 11
-283.1
 21
448.15
 31
0.0
  0
LINE
  5
72
  8
1
  6
CONTINUOUS
 62
     7
 10
-283.1
 20
449.35
 30
0.0
 11
-274.1
 21
449.35
 31
0.0
  0
LINE
  5
73
  8
1
  6
CONTINUOUS
 62
     7
 10
-286.0999999999999
 20
448.15
 30
0.0
 11
-286.1
 21
449.35
 31
0.0
  0
LINE
  5
74
  8
1
  6
CONTINUOUS
 62
     7
 10
-283.1
 20
448.15
 30
0.0
 11
-286.1
 21
448.15
 31
0.0
  0
LINE
  5
75
  8
1
  6
CONTINUOUS
 62
     7
 10
-286.1
 20
449.35
 30
0.0
 11
-283.1
 21
449.35
 31
0.0
  0
LINE
  5
76
  8
1
  6
CONTINUOUS
 62
     7
 10
-271.1
 20
449.35
 30
0.0
 11
-271.1
 21
448.15
 31
0.0
  0
LINE
  5
77
  8
1
  6
CONTINUOUS
 62
     7
 10
-271.1
 20
448.15
 30
0.0
 11
-274.1
 21
448.15
 31
0.0
  0
LINE
  5
78
  8
1
  6
CONTINUOUS
 62
     7
 10
-274.1
 20
449.35
 30
0.0
 11
-271.1
 21
449.35
 31
0.0
  0
LINE
  5
79
  8
1
  6
CONTINUOUS
 62
     7
 10
-380.0999999999999
 20
448.15
 30
0.0
 11
-395.1
 21
448.15
 31
0.0
  0
LINE
  5
7A
  8
1
  6
CONTINUOUS
 62
     7
 10
-395.1
 20
448.15
 30
0.0
 11
-395.1
 21
449.35
 31
0.0
  0
LINE
  5
7B
  8
1
  6
CONTINUOUS
 62
     7
 10
-395.1
 20
449.35
 30
0.0
 11
-380.0999999999999
 21
449.35
 31
0.0
  0
LINE
  5
7C
  8
1
  6
CONTINUOUS
 62
     7
 10
-380.0999999999999
 20
449.35
 30
0.0
 11
-380.0999999999999
 21
448.15
 31
0.0
  0
LINE
  5
7D
  8
1
  6
CONTINUOUS
 62
     7
 10
-380.0999999999999
 20
447.15
 30
0.0
 11
-380.0999999999999
 21
448.15
 31
0.0
  0
LINE
  5
7E
  8
1
  6
CONTINUOUS
 62
     7
 10
-395.1
 20
448.15
 30
0.0
 11
-395.1
 21
447.15
 31
0.0
  0
LINE
  5
7F
  8
1
  6
CONTINUOUS
 62
     7
 10
-271.1
 20
447.15
 30
0.0
 11
-271.1
 21
448.15
 31
0.0
  0
LINE
  5
80
  8
1
  6
CONTINUOUS
 62
     7
 10
-286.1
 20
448.15
 30
0.0
 11
-286.1
 21
447.15
 31
0.0
  0
LINE
  5
81
  8
1
  6
CONTINUOUS
 62
     7
 10
-271.1
 20
389.35
 30
0.0
 11
-395.1
 21
389.35
 31
0.0
  0
LINE
  5
82
  8
1
  6
CONTINUOUS
 62
     7
 10
-380.0999999999999
 20
447.15
 30
0.0
 11
-377.3465817888794
 21
447.15
 31
0.0
  0
ARC
  5
83
  8
1
  6
CONTINUOUS
 62
     7
 10
-377.3465817888794
 20
444.15
 30
0.0
 40
3.000000000000003
 50
10.49922479892155
 51
90.0
  0
ARC
  5
84
  8
1
  6
CONTINUOUS
 62
     7
 10
-333.1
 20
452.35
 30
0.0
 40
42.00000000000001
 50
190.4992247989214
 51
270.0
  0
ARC
  5
85
  8
1
  6
CONTINUOUS
 62
     7
 10
-333.1
 20
452.35
 30
0.0
 40
41.99999999999998
 50
270.0
 51
349.5007752010784
  0
ARC
  5
86
  8
1
  6
CONTINUOUS
 62
     7
 10
-288.8534182111205
 20
444.15
 30
0.0
 40
2.999999999999974
 50
90.0
 51
169.50077520108
  0
LINE
  5
87
  8
1
  6
CONTINUOUS
 62
     7
 10
-288.8534182111205
 20
447.15
 30
0.0
 11
-286.0999999999999
 21
447.15
 31
0.0
  0
LINE
  5
88
  8
1
  6
CONTINUOUS
 62
     7
 10
-395.1
 20
389.35
 30
0.0
 11
-395.1
 21
447.15
 31
0.0
  0
LINE
  5
89
  8
1
  6
CONTINUOUS
 62
     7
 10
-271.1
 20
447.15
 30
0.0
 11
-271.1
 21
389.35
 31
0.0
  0
LINE
  5
8A
  8
1
  6
CONTINUOUS
 62
     7
 10
-395.1
 20
451.35
 30
0.0
 11
-376.8149859887887
 21
451.35
 31
0.0
  0
ARC
  5
8B
  8
1
  6
CONTINUOUS
 62
     7
 10
-376.8149859887887
 20
446.35
 30
0.0
 40
5.000000000000004
 50
6.524978844143788
 51
90.00000000000011
  0
ARC
  5
8C
  8
1
  6
CONTINUOUS
 62
     7
 10
-333.1
 20
451.35
 30
0.0
 40
39.00000000000001
 50
186.5249788441438
 51
353.4750211558562
  0
LINE
  5
8D
  8
1
  6
CONTINUOUS
 62
     7
 10
-286.1
 20
449.35
 30
0.0
 11
-289.3850140112112
 21
449.35
 31
0.0
  0
ARC
  5
8E
  8
1
  6
CONTINUOUS
 62
     7
 10
-333.1
 20
451.35
 30
0.0
 40
40.99999999999999
 50
186.5249788441438
 51
353.4750211558562
  0
ARC
  5
8F
  8
1
  6
CONTINUOUS
 62
     7
 10
-376.8149859887887
 20
446.35
 30
0.0
 40
2.999999999999978
 50
6.524978844144213
 51
89.99999999999991
  0
LINE
  5
90
  8
1
  6
CONTINUOUS
 62
     7
 10
-376.8149859887887
 20
449.35
 30
0.0
 11
-380.0999999999999
 21
449.35
 31
0.0
  0
LINE
  5
91
  8
1
  6
CONTINUOUS
 62
     7
 10
-380.0999999999999
 20
449.35
 30
0.0
 11
-395.1
 21
449.35
 31
0.0
  0
LINE
  5
92
  8
1
  6
CONTINUOUS
 62
     7
 10
-395.1
 20
449.35
 30
0.0
 11
-395.1
 21
451.35
 31
0.0
  0
ARC
  5
93
  8
1
  6
CONTINUOUS
 62
     7
 10
-289.3850140112112
 20
446.35
 30
0.0
 40
3.000000000000003
 50
90.0
 51
173.4750211558562
  0
LINE
  5
94
  8
1
  6
CONTINUOUS
 62
     7
 10
-271.1
 20
451.35
 30
0.0
 11
-271.1
 21
449.35
 31
0.0
  0
LINE
  5
95
  8
1
  6
CONTINUOUS
 62
     7
 10
-289.3850140112112
 20
451.35
 30
0.0
 11
-271.1
 21
451.35
 31
0.0
  0
ARC
  5
96
  8
1
  6
CONTINUOUS
 62
     7
 10
-289.3850140112112
 20
446.35
 30
0.0
 40
4.999999999999956
 50
90.0
 51
173.4750211558565
  0
LINE
  5
97
  8
1
  6
CONTINUOUS
 62
     7
 10
-423.0999999999999
 20
451.35
 30
0.0
 11
-395.1
 21
451.35
 31
0.0
  0
LINE
  5
98
  8
1
  6
CONTINUOUS
 62
     7
 10
-376.8149859887887
 20
451.35
 30
0.0
 11
-372.1
 21
451.35
 31
0.0
  0
ARC
  5
99
  8
1
  6
CONTINUOUS
 62
     7
 10
-333.1
 20
451.35
 30
0.0
 40
38.99999999999998
 50
180.0
 51
186.5249788441438
  0
ARC
  5
9A
  8
1
  6
CONTINUOUS
 62
     7
 10
-333.1
 20
451.35
 30
0.0
 40
39.00000000000001
 50
353.4750211558563
 51
0.0
  0
LINE
  5
9B
  8
1
  6
CONTINUOUS
 62
     7
 10
-294.1
 20
451.35
 30
0.0
 11
-289.3850140112112
 21
451.35
 31
0.0
  0
LINE
  5
9C
  8
1
  6
CONTINUOUS
 62
     7
 10
-271.1
 20
451.35
 30
0.0
 11
-270.1
 21
451.35
 31
0.0
  0
LINE
  5
9D
  8
1
  6
CONTINUOUS
 62
     9
 10
-270.1
 20
441.35
 30
0.0
 11
-270.1
 21
451.35
 31
0.0
  0
LINE
  5
9E
  8
1
  6
CONTINUOUS
 62
     7
 10
-270.1
 20
451.35
 30
0.0
 11
-270.1
 21
461.35
 31
0.0
  0
LINE
  5
9F
  8
1
  6
CONTINUOUS
 62
     7
 10
-270.1
 20
461.35
 30
0.0
 11
-243.0999999999999
 21
461.35
 31
0.0
  0
LINE
  5
A0
  8
1
  6
CONTINUOUS
 62
     7
 10
-243.0999999999999
 20
461.35
 30
0.0
 11
-243.0999999999999
 21
361.3500000000001
 31
0.0
  0
LINE
  5
A1
  8
1
  6
CONTINUOUS
 62
     7
 10
-243.0999999999999
 20
361.35
 30
0.0
 11
-423.0999999999999
 21
361.35
 31
0.0
  0
LINE
  5
A2
  8
1
  6
CONTINUOUS
 62
     7
 10
-423.0999999999999
 20
361.35
 30
0.0
 11
-423.0999999999999
 21
451.35
 31
0.0
  0
ENDBLK
  8
0
  0
BLOCK
  8
0
  2
D_FRAME_VIEW_2741
 70
     0
 10
0.0
 20
0.0
 30
0.0
  0
LINE
  5
A8
  8
1
  6
CONTINUOUS
 62
     7
 10
-395.1
 20
147.55
 30
0.0
 11
-395.1
 21
146.35
 31
0.0
  0
LINE
  5
A9
  8
1
  6
CONTINUOUS
 62
     7
 10
-271.1
 20
147.55
 30
0.0
 11
-395.1
 21
147.55
 31
0.0
  0
LINE
  5
AA
  8
1
  6
CONTINUOUS
 62
     7
 10
-271.1
 20
147.55
 30
0.0
 11
-271.1
 21
146.35
 31
0.0
  0
LINE
  5
AB
  8
1
  6
CONTINUOUS
 62
     7
 10
-286.1
 20
148.55
 30
0.0
 11
-286.0999999999999
 21
147.55
 31
0.0
  0
LINE
  5
AC
  8
1
  6
CONTINUOUS
 62
     7
 10
-271.1
 20
147.55
 30
0.0
 11
-271.1
 21
148.55
 31
0.0
  0
LINE
  5
AD
  8
1
  6
CONTINUOUS
 62
     7
 10
-380.0999999999999
 20
147.55
 30
0.0
 11
-380.0999999999999
 21
148.55
 31
0.0
  0
LINE
  5
AE
  8
1
  6
CONTINUOUS
 62
     7
 10
-395.1
 20
148.55
 30
0.0
 11
-395.1
 21
147.55
 31
0.0
  0
ARC
  5
AF
  8
1
  6
CONTINUOUS
 62
     7
 10
-387.5999999999999
 20
199.25
 30
0.0
 40
2.099999999999991
 50
0.0
 51
180.0
  0
LINE
  5
B0
  8
1
  6
CONTINUOUS
 62
     7
 10
-389.6999999999999
 20
193.45
 30
0.0
 11
-389.6999999999999
 21
199.25
 31
0.0
  0
ARC
  5
B1
  8
1
  6
CONTINUOUS
 62
     7
 10
-387.5999999999999
 20
193.45
 30
0.0
 40
2.099999999999991
 50
180.0
 51
0.0
  0
LINE
  5
B2
  8
1
  6
CONTINUOUS
 62
     7
 10
-385.4999999999999
 20
199.25
 30
0.0
 11
-385.4999999999999
 21
193.45
 31
0.0
  0
ARC
  5
B3
  8
1
  6
CONTINUOUS
 62
     7
 10
-387.5999999999999
 20
249.25
 30
0.0
 40
2.099999999999991
 50
0.0
 51
180.0
  0
LINE
  5
B4
  8
1
  6
CONTINUOUS
 62
     7
 10
-389.6999999999999
 20
243.45
 30
0.0
 11
-389.6999999999999
 21
249.25
 31
0.0
  0
ARC
  5
B5
  8
1
  6
CONTINUOUS
 62
     7
 10
-387.5999999999999
 20
243.45
 30
0.0
 40
2.099999999999991
 50
180.0
 51
359.9999999999996
  0
LINE
  5
B6
  8
1
  6
CONTINUOUS
 62
     7
 10
-385.4999999999999
 20
249.25
 30
0.0
 11
-385.4999999999999
 21
243.45
 31
0.0
  0
LINE
  5
B7
  8
1
  6
CONTINUOUS
 62
     7
 10
-380.0999999999999
 20
303.35
 30
0.0
 11
-395.1
 21
303.35
 31
0.0
  0
LINE
  5
B8
  8
1
  6
CONTINUOUS
 62
     7
 10
-380.0999999999999
 20
148.55
 30
0.0
 11
-380.0999999999999
 21
303.35
 31
0.0
  0
LINE
  5
B9
  8
1
  6
CONTINUOUS
 62
     7
 10
-395.1
 20
148.55
 30
0.0
 11
-395.1
 21
303.35
 31
0.0
  0
LINE
  5
BA
  8
1
  6
CONTINUOUS
 62
     7
 10
-274.1
 20
318.35
 30
0.0
 11
-283.1
 21
318.35
 31
0.0
  0
ARC
  5
BB
  8
1
  6
CONTINUOUS
 62
     7
 10
-278.6
 20
243.45
 30
0.0
 40
2.099999999999991
 50
180.0
 51
0.0
  0
LINE
  5
BC
  8
1
  6
CONTINUOUS
 62
     7
 10
-276.4999999999999
 20
199.25
 30
0.0
 11
-276.4999999999999
 21
193.45
 31
0.0
  0
LINE
  5
BD
  8
1
  6
CONTINUOUS
 62
     7
 10
-283.0999999999999
 20
315.35
 30
0.0
 11
-274.0999999999999
 21
315.3500000000001
 31
0.0
  0
ARC
  5
BE
  8
1
  6
CONTINUOUS
 62
     7
 10
-283.0999999999999
 20
314.35
 30
0.0
 40
1.000000000000001
 50
89.99999999999962
 51
180.0
  0
ARC
  5
BF
  8
1
  6
CONTINUOUS
 62
     7
 10
-278.6
 20
199.25
 30
0.0
 40
2.099999999999991
 50
0.0
 51
180.0
  0
ARC
  5
C0
  8
1
  6
CONTINUOUS
 62
     7
 10
-274.0999999999999
 20
314.35
 30
0.0
 40
1.000000000000001
 50
0.0
 51
89.9999999999988
  0
LINE
  5
C1
  8
1
  6
CONTINUOUS
 62
     7
 10
-276.4999999999999
 20
249.25
 30
0.0
 11
-276.4999999999999
 21
243.45
 31
0.0
  0
LINE
  5
C2
  8
1
  6
CONTINUOUS
 62
     7
 10
-274.1
 20
303.35
 30
0.0
 11
-283.0999999999999
 21
303.3500000000001
 31
0.0
  0
LINE
  5
C3
  8
1
  6
CONTINUOUS
 62
     7
 10
-284.0999999999999
 20
304.35
 30
0.0
 11
-284.0999999999999
 21
314.35
 31
0.0
  0
ARC
  5
C4
  8
1
  6
CONTINUOUS
 62
     7
 10
-274.1
 20
315.35
 30
0.0
 40
3.000000000000003
 50
359.9999999999989
 51
90.0
  0
ARC
  5
C5
  8
1
  6
CONTINUOUS
 62
     7
 10
-283.1
 20
315.35
 30
0.0
 40
3.000000000000003
 50
90.0
 51
180.0000000000011
  0
ARC
  5
C6
  8
1
  6
CONTINUOUS
 62
     7
 10
-278.6
 20
193.45
 30
0.0
 40
2.099999999999991
 50
180.0
 51
0.0
  0
LINE
  5
C7
  8
1
  6
CONTINUOUS
 62
     7
 10
-273.0999999999999
 20
314.35
 30
0.0
 11
-273.1
 21
304.35
 31
0.0
  0
ARC
  5
C8
  8
1
  6
CONTINUOUS
 62
     7
 10
-278.6
 20
249.25
 30
0.0
 40
2.099999999999991
 50
0.0
 51
180.0000000000003
  0
LINE
  5
C9
  8
1
  6
CONTINUOUS
 62
     7
 10
-280.6999999999999
 20
193.45
 30
0.0
 11
-280.6999999999999
 21
199.25
 31
0.0
  0
ARC
  5
CA
  8
1
  6
CONTINUOUS
 62
     7
 10
-274.1
 20
304.35
 30
0.0
 40
1.000000000000001
 50
269.9999999999996
 51
0.0
  0
ARC
  5
CB
  8
1
  6
CONTINUOUS
 62
     7
 10
-283.0999999999999
 20
304.35
 30
0.0
 40
1.000000000000001
 50
180.0
 51
270.0
  0
LINE
  5
CC
  8
1
  6
CONTINUOUS
 62
     7
 10
-280.6999999999999
 20
243.45
 30
0.0
 11
-280.6999999999999
 21
249.25
 31
0.0
  0
LINE
  5
CD
  8
1
  6
CONTINUOUS
 62
     7
 10
-286.0999999999999
 20
148.55
 30
0.0
 11
-286.0999999999999
 21
315.3499999999999
 31
0.0
  0
LINE
  5
CE
  8
1
  6
CONTINUOUS
 62
     7
 10
-271.1
 20
148.55
 30
0.0
 11
-271.1
 21
315.3499999999999
 31
0.0
  0
LINE
  5
CF
  8
1
  6
CONTINUOUS
 62
     9
 10
-373.8344187622804
 20
303.35
 30
0.0
 11
-373.8344187622804
 21
147.55
 31
0.0
  0
LINE
  5
D0
  8
1
  6
CONTINUOUS
 62
     7
 10
-292.3655812377195
 20
303.35
 30
0.0
 11
-373.8344187622804
 21
303.35
 31
0.0
  0
LINE
  5
D1
  8
1
  6
CONTINUOUS
 62
     9
 10
-292.3655812377195
 20
303.35
 30
0.0
 11
-292.3655812377195
 21
147.55
 31
0.0
  0
LINE
  5
D2
  8
1
  6
CONTINUOUS
 62
     9
 10
-289.3850140112112
 20
303.35
 30
0.0
 11
-289.3850140112112
 21
147.55
 31
0.0
  0
LINE
  5
D3
  8
1
  6
CONTINUOUS
 62
     7
 10
-292.3655812377195
 20
303.35
 30
0.0
 11
-289.3850140112112
 21
303.35
 31
0.0
  0
LINE
  5
D4
  8
1
  6
CONTINUOUS
 62
     9
 10
-376.8149859887887
 20
303.35
 30
0.0
 11
-376.8149859887887
 21
147.55
 31
0.0
  0
LINE
  5
D5
  8
1
  6
CONTINUOUS
 62
     7
 10
-376.8149859887887
 20
303.35
 30
0.0
 11
-373.8344187622804
 21
303.35
 31
0.0
  0
LINE
  5
D6
  8
1
  6
CONTINUOUS
 62
     7
 10
-286.0999999999999
 20
303.35
 30
0.0
 11
-289.3850140112112
 21
303.35
 31
0.0
  0
LINE
  5
D7
  8
1
  6
CONTINUOUS
 62
     7
 10
-376.8149859887887
 20
303.35
 30
0.0
 11
-380.0999999999999
 21
303.35
 31
0.0
  0
LINE
  5
D8
  8
1
  6
CONTINUOUS
 62
     7
 10
-243.0999999999999
 20
144.35
 30
0.0
 11
-423.0999999999999
 21
144.35
 31
0.0
  0
LINE
  5
D9
  8
1
  6
CONTINUOUS
 62
     7
 10
-423.0999999999999
 20
144.35
 30
0.0
 11
-423.0999999999999
 21
146.35
 31
0.0
  0
LINE
  5
DA
  8
1
  6
CONTINUOUS
 62
     7
 10
-243.0999999999999
 20
144.35
 30
0.0
 11
-243.0999999999999
 21
146.35
 31
0.0
  0
LINE
  5
DB
  8
1
  6
CONTINUOUS
 62
     7
 10
-243.0999999999999
 20
146.35
 30
0.0
 11
-423.0999999999999
 21
146.35
 31
0.0
  0
ENDBLK
  8
0
  0
BLOCK
  8
0
  2
D_FRAME_VIEW_2932
 70
     0
 10
0.0
 20
0.0
 30
0.0
  0
ARC
  5
E0
  8
1
  6
CONTINUOUS
 62
     7
 10
-117.2999999999999
 20
148.55
 30
0.0
 40
1.000000000000001
 50
270.0
 51
359.9999999999993
  0
LINE
  5
E1
  8
1
  6
CONTINUOUS
 62
     7
 10
-116.2999999999999
 20
148.55
 30
0.0
 11
-116.2999999999999
 21
315.3499999999999
 31
0.0
  0
LINE
  5
E2
  8
1
  6
CONTINUOUS
 62
     9
 10
-115.1
 20
315.35
 30
0.0
 11
-116.2999999999999
 21
315.3499999999999
 31
0.0
  0
LINE
  5
E3
  8
1
  6
CONTINUOUS
 62
     7
 10
-115.1
 20
315.35
 30
0.0
 11
-115.1
 21
303.35
 31
0.0
  0
LINE
  5
E4
  8
1
  6
CONTINUOUS
 62
     7
 10
-115.1
 20
303.35
 30
0.0
 11
-115.1
 21
148.55
 31
0.0
  0
ARC
  5
E5
  8
1
  6
CONTINUOUS
 62
     7
 10
-117.3
 20
148.55
 30
0.0
 40
2.200000000000007
 50
270.0
 51
0.0
  0
LINE
  5
E6
  8
1
  6
CONTINUOUS
 62
     7
 10
-117.2999999999999
 20
147.55
 30
0.0
 11
-175.0999999999999
 21
147.55
 31
0.0
  0
LINE
  5
E7
  8
1
  6
CONTINUOUS
 62
     7
 10
-175.0999999999999
 20
147.55
 30
0.0
 11
-175.0999999999999
 21
146.35
 31
0.0
  0
LINE
  5
E8
  8
1
  6
CONTINUOUS
 62
     7
 10
-116.2999999999999
 20
318.35
 30
0.0
 11
-115.1
 21
318.35
 31
0.0
  0
LINE
  5
E9
  8
1
  6
CONTINUOUS
 62
     7
 10
-116.2999999999999
 20
315.3499999999999
 30
0.0
 11
-116.2999999999999
 21
318.35
 31
0.0
  0
LINE
  5
EA
  8
1
  6
CONTINUOUS
 62
     7
 10
-115.1
 20
318.35
 30
0.0
 11
-115.1
 21
315.35
 31
0.0
  0
LINE
  5
EB
  8
1
  6
CONTINUOUS
 62
     7
 10
-113.1
 20
303.35
 30
0.0
 11
-113.1
 21
146.35
 31
0.0
  0
LINE
  5
EC
  8
1
  6
CONTINUOUS
 62
     7
 10
-113.1
 20
303.35
 30
0.0
 11
-115.1
 21
303.35
 31
0.0
  0
LINE
  5
ED
  8
1
  6
CONTINUOUS
 62
     7
 10
-115.1
 20
303.35
 30
0.0
 11
-115.1
 21
148.55
 31
0.0
  0
LINE
  5
EE
  8
1
  6
CONTINUOUS
 62
     7
 10
-115.1
 20
148.55
 30
0.0
 11
-115.1
 21
146.35
 31
0.0
  0
LINE
  5
EF
  8
1
  6
CONTINUOUS
 62
     9
 10
-117.7590909090909
 20
303.35
 30
0.0
 11
-117.7590909090909
 21
147.55
 31
0.0
  0
LINE
  5
F0
  8
1
  6
CONTINUOUS
 62
     7
 10
-117.7590909090909
 20
303.35
 30
0.0
 11
-116.3
 21
303.35
 31
0.0
  0
LINE
  5
F1
  8
1
  6
CONTINUOUS
 62
     7
 10
-117.7590909090909
 20
303.35
 30
0.0
 11
-154.1
 21
303.35
 31
0.0
  0
LINE
  5
F2
  8
1
  6
CONTINUOUS
 62
     7
 10
-103.0999999999999
 20
144.35
 30
0.0
 11
-103.0999999999999
 21
146.35
 31
0.0
  0
LINE
  5
F3
  8
1
  6
CONTINUOUS
 62
     7
 10
-103.0999999999999
 20
144.35
 30
0.0
 11
-203.0999999999999
 21
144.35
 31
0.0
  0
LINE
  5
F4
  8
1
  6
CONTINUOUS
 62
     7
 10
-203.1
 20
144.35
 30
0.0
 11
-203.1
 21
146.35
 31
0.0
  0
LINE
  5
F5
  8
1
  6
CONTINUOUS
 62
     7
 10
-103.0999999999999
 20
146.35
 30
0.0
 11
-203.0999999999999
 21
146.35
 31
0.0
  0
LINE
  5
F6
  8
1
  6
CONTINUOUS
 62
     7
 10
-154.1
 20
303.35
 30
0.0
 11
-154.1
 21
147.55
 31
0.0
  0
ENDBLK
  8
0
  0
ENDSEC
  0
SECTION
  2
ENTITIES
  0
INSERT
  5
A3
  8
1
  6
CONTINUOUS
 62
     7
  2
D_FRAME_VIEW_2907
 10
0.0
 20
0.0
 30
0.0
  0
TEXT
  5
A4
  8
1
  6
CONTINUOUS
 62
     7
 10
-196.0273102413404
 20
124.1212267100163
 30
0.0
 40
4.0
  1
XPKH-70
  0
INSERT
  5
DC
  8
1
  6
CONTINUOUS
 62
     7
  2
D_FRAME_VIEW_2741
 10
0.0
 20
0.0
 30
0.0
  0
INSERT
  5
F7
  8
1
  6
CONTINUOUS
 62
     7
  2
D_FRAME_VIEW_2932
 10
0.0
 20
0.0
 30
0.0
  0
ENDSEC
  0
EOF
