  0
SECTION
  2
HEADER
  9
$ACADVER
  1
AC1006
  9
$DWGCODEPAGE
  3
ansi_932
  9
$INSBASE
 10
0.0
 20
0.0
 30
0.0
  9
$EXTMIN
 10
430.5000000000001
 20
-727.5227272727273
  9
$EXTMAX
 10
1039.5
 20
-303.0
  9
$LIMMIN
 10
0.0
 20
0.0
  9
$LIMMAX
 10
12.0
 20
9.0
  9
$ORTHOMODE
 70
     0
  9
$REGENMODE
 70
     1
  9
$FILLMODE
 70
     1
  9
$QTEXTMODE
 70
     0
  9
$MIRRTEXT
 70
     1
  9
$DRAGMODE
 70
     2
  9
$LTSCALE
 40
1.0
  9
$OSMODE
 70
    37
  9
$ATTMODE
 70
     1
  9
$TEXTSIZE
 40
0.2
  9
$TRACEWID
 40
0.05
  9
$TEXTSTYLE
  7
STANDARD
  9
$CLAYER
  8
0
  9
$CELTYPE
  6
BYLAYER
  9
$CECOLOR
 62
   256
  9
$DIMSCALE
 40
1.0
  9
$DIMASZ
 40
3.0
  9
$DIMEXO
 40
0.0625
  9
$DIMDLI
 40
0.38
  9
$DIMRND
 40
0.0
  9
$DIMDLE
 40
0.0
  9
$DIMEXE
 40
1.5
  9
$DIMTP
 40
0.0
  9
$DIMTM
 40
0.0
  9
$DIMTXT
 40
3.0
  9
$DIMCEN
 40
0.09
  9
$DIMTSZ
 40
0.0
  9
$DIMTOL
 70
     0
  9
$DIMLIM
 70
     0
  9
$DIMTIH
 70
     1
  9
$DIMTOH
 70
     1
  9
$DIMSE1
 70
     0
  9
$DIMSE2
 70
     0
  9
$DIMTAD
 70
     1
  9
$DIMZIN
 70
     0
  9
$DIMBLK
  1

  9
$DIMASO
 70
     1
  9
$DIMSHO
 70
     1
  9
$DIMPOST
  1

  9
$DIMAPOST
  1

  9
$DIMALT
 70
     0
  9
$DIMALTD
 70
     2
  9
$DIMALTF
 40
25.4
  9
$DIMLFAC
 40
1.0
  9
$DIMTOFL
 70
     0
  9
$DIMTVP
 40
0.0
  9
$DIMTIX
 70
     0
  9
$DIMSOXD
 70
     0
  9
$DIMSAH
 70
     0
  9
$DIMBLK1
  1

  9
$DIMBLK2
  1

  9
$LUNITS
 70
     2
  9
$LUPREC
 70
     4
  9
$SKETCHINC
 40
0.1
  9
$FILLETRAD
 40
0.5
  9
$AUNITS
 70
     0
  9
$AUPREC
 70
     0
  9
$MENU
  1
.
  9
$ELEVATION
 40
0.0
  9
$THICKNESS
 40
0.0
  9
$LIMCHECK
 70
     0
  9
$CHAMFERA
 40
0.0
  9
$CHAMFERB
 40
0.0
  9
$SKPOLY
 70
     0
  9
$TDCREATE
 40
2460427.583063924
  9
$TDUPDATE
 40
2460427.583064178
  9
$TDINDWG
 40
0.0000000116
  9
$TDUSRTIMER
 40
0.0000000116
  9
$USRTIMER
 70
     1
  9
$ANGBASE
 50
0.0
  9
$ANGDIR
 70
     0
  9
$PDMODE
 70
     0
  9
$PDSIZE
 40
0.0
  9
$PLINEWID
 40
0.0
  9
$COORDS
 70
     1
  9
$SPLFRAME
 70
     0
  9
$SPLINETYPE
 70
     6
  9
$SPLINESEGS
 70
     8
  9
$ATTDIA
 70
     0
  9
$ATTREQ
 70
     1
  9
$HANDLING
 70
     1
  9
$HANDSEED
  5
2E2
  9
$SURFTAB1
 70
     6
  9
$SURFTAB2
 70
     6
  9
$SURFTYPE
 70
     6
  9
$SURFU
 70
     6
  9
$SURFV
 70
     6
  9
$UCSNAME
  2

  9
$UCSORG
 10
0.0
 20
0.0
 30
0.0
  9
$UCSXDIR
 10
1.0
 20
0.0
 30
0.0
  9
$UCSYDIR
 10
0.0
 20
1.0
 30
0.0
  9
$USERI1
 70
     0
  9
$USERI2
 70
     0
  9
$USERI3
 70
     0
  9
$USERI4
 70
     0
  9
$USERI5
 70
     0
  9
$USERR1
 40
0.0
  9
$USERR2
 40
0.0
  9
$USERR3
 40
0.0
  9
$USERR4
 40
0.0
  9
$USERR5
 40
0.0
  9
$WORLDVIEW
 70
     1
  0
ENDSEC
  0
SECTION
  2
TABLES
  0
TABLE
  2
VPORT
 70
     1
  0
VPORT
  2
*ACTIVE
 70
     0
 10
0.0
 20
0.0
 11
1.0
 21
1.0
 12
735.0
 22
-515.2613636363636
 13
0.0
 23
0.0
 14
0.5
 24
0.5
 15
0.5
 25
0.5
 16
0.0
 26
0.0
 36
1.0
 17
0.0
 27
0.0
 37
0.0
 40
424.5227272727273
 41
1.6
 42
50.0
 43
0.0
 44
0.0
 50
0.0
 51
0.0
 71
     0
 72
   100
 73
     1
 74
     3
 75
     0
 76
     0
 77
     0
 78
     0
  0
ENDTAB
  0
TABLE
  2
LTYPE
 70
     2
  0
LTYPE
  2
CONTINUOUS
 70
     0
  3
Solid line
 72
    65
 73
     0
 40
0.0
  0
LTYPE
  2
CENTER
 70
     0
  3

 72
    65
 73
     0
 40
0.0
  0
ENDTAB
  0
TABLE
  2
LAYER
 70
     2
  0
LAYER
  2
0
 70
     0
 62
     7
  6
CONTINUOUS
  0
LAYER
  2
1
 70
     0
 62
     7
  6
CONTINUOUS
  0
ENDTAB
  0
TABLE
  2
STYLE
 70
     2
  0
STYLE
  2
STANDARD
 70
     0
 40
0.0
 41
1.0
 50
0.0
 71
     0
 42
0.2
  3
txt
  4

  0
STYLE
  2
ＭＳ_ゴシック
 70
     0
 40
0.0
 41
1.0
 50
0.0
 71
     0
 42
0.2
  3
ＭＳ ゴシック.shx
  4

  0
ENDTAB
  0
TABLE
  2
VIEW
 70
     0
  0
ENDTAB
  0
TABLE
  2
UCS
 70
     0
  0
ENDTAB
  0
ENDSEC
  0
SECTION
  2
BLOCKS
  0
ENDSEC
  0
SECTION
  2
ENTITIES
  0
LINE
  5
70
  8
1
  6
CONTINUOUS
 62
     7
 10
721.9146367047955
 20
-612.5000000000439
 30
0.0
 11
721.9146367032913
 21
-626.5000000000441
 31
0.0
  0
LINE
  5
71
  8
1
  6
CONTINUOUS
 62
     7
 10
724.5637858480828
 20
-616.1571974150891
 30
0.0
 11
724.5637858480789
 21
-616.194802710622
 31
0.0
  0
LINE
  5
72
  8
1
  6
CONTINUOUS
 62
     7
 10
724.56378584767
 20
-620.0000000003286
 30
0.0
 11
725.0927748775918
 21
-620.0000000003854
 31
0.0
  0
LINE
  5
73
  8
1
  6
CONTINUOUS
 62
     7
 10
725.092774877592
 20
-620.0000000003854
 30
0.0
 11
725.092774877506
 21
-620.8000000003855
 31
0.0
  0
ARC
  5
74
  8
1
  6
CONTINUOUS
 62
     7
 10
716.1000000000007
 20
-619.4999999994193
 30
0.0
 40
9.086253353280442
 50
338.668832508375
 51
351.7742774633679
  0
LINE
  5
75
  8
1
  6
CONTINUOUS
 62
     7
 10
724.5637858473686
 20
-622.8051972900353
 30
0.0
 11
724.5637858473647
 21
-622.8428025855682
 31
0.0
  0
ARC
  5
76
  8
1
  6
CONTINUOUS
 62
     7
 10
716.1000000000007
 20
-619.4999999994193
 30
0.0
 40
9.086253353280465
 50
8.225722524320759
 51
21.33116747931376
  0
LINE
  5
77
  8
1
  6
CONTINUOUS
 62
     7
 10
725.0927748777854
 20
-618.2000000003856
 30
0.0
 11
725.0927748776994
 21
-619.0000000003854
 31
0.0
  0
LINE
  5
78
  8
1
  6
CONTINUOUS
 62
     7
 10
725.0927748776992
 20
-619.0000000003854
 30
0.0
 11
724.5637858477774
 21
-619.0000000003286
 31
0.0
  0
LINE
  5
79
  8
1
  6
CONTINUOUS
 62
     7
 10
724.5637858477776
 20
-619.0000000003286
 30
0.0
 11
724.5637858476701
 21
-620.0000000003286
 31
0.0
  0
LINE
  5
7A
  8
1
  6
CONTINUOUS
 62
     7
 10
513.0853632952054
 20
-612.5000000000446
 30
0.0
 11
513.0853632967095
 21
-626.5000000000446
 31
0.0
  0
LINE
  5
7B
  8
1
  6
CONTINUOUS
 62
     7
 10
510.4362141519181
 20
-616.1571974150896
 30
0.0
 11
510.4362141519218
 21
-616.1948027106225
 31
0.0
  0
LINE
  5
7C
  8
1
  6
CONTINUOUS
 62
     7
 10
509.9072251223018
 20
-619.000000000386
 30
0.0
 11
510.4362141522236
 21
-619.0000000003291
 31
0.0
  0
LINE
  5
7D
  8
1
  6
CONTINUOUS
 62
     7
 10
509.9072251222157
 20
-618.200000000386
 30
0.0
 11
509.9072251223016
 21
-619.000000000386
 31
0.0
  0
ARC
  5
7E
  8
1
  6
CONTINUOUS
 62
     7
 10
518.9000000000001
 20
-619.4999999994199
 30
0.0
 40
9.086253353280465
 50
158.6688325206862
 51
171.7742774756792
  0
LINE
  5
7F
  8
1
  6
CONTINUOUS
 62
     7
 10
510.4362141526321
 20
-622.8051972900357
 30
0.0
 11
510.4362141526362
 21
-622.8428025855685
 31
0.0
  0
ARC
  5
80
  8
1
  6
CONTINUOUS
 62
     7
 10
518.9000000000001
 20
-619.4999999994199
 30
0.0
 40
9.086253353280425
 50
188.225722536632
 51
201.331167491625
  0
LINE
  5
81
  8
1
  6
CONTINUOUS
 62
     7
 10
509.907225122409
 20
-620.000000000386
 30
0.0
 11
509.907225122495
 21
-620.8000000003859
 31
0.0
  0
LINE
  5
82
  8
1
  6
CONTINUOUS
 62
     7
 10
510.436214152331
 20
-620.0000000003291
 30
0.0
 11
509.9072251224093
 21
-620.000000000386
 31
0.0
  0
LINE
  5
83
  8
1
  6
CONTINUOUS
 62
     7
 10
510.4362141522234
 20
-619.0000000003291
 30
0.0
 11
510.4362141523309
 21
-620.0000000003291
 31
0.0
  0
ARC
  5
84
  8
1
  6
CONTINUOUS
 62
     7
 10
722.5
 20
-666.499999997928
 30
0.0
 40
2.999999999999991
 50
250.5287793655096
 51
270.0
  0
ARC
  5
85
  8
1
  6
CONTINUOUS
 62
     7
 10
722.5
 20
-666.499999997928
 30
0.0
 40
1.000000000000001
 50
180.0
 51
270.0
  0
LINE
  5
86
  8
1
  6
CONTINUOUS
 62
     7
 10
789.5000000000001
 20
-667.499999997928
 30
0.0
 11
722.5
 21
-667.499999997928
 31
0.0
  0
LINE
  5
87
  8
1
  6
CONTINUOUS
 62
     7
 10
722.5
 20
-669.499999997928
 30
0.0
 11
789.5000000000001
 21
-669.499999997928
 31
0.0
  0
LINE
  5
88
  8
1
  6
CONTINUOUS
 62
     7
 10
789.5000000000001
 20
-667.4999999982467
 30
0.0
 11
794.5
 21
-667.4999999982467
 31
0.0
  0
LINE
  5
89
  8
1
  6
CONTINUOUS
 62
     7
 10
794.5
 20
-667.4999999982467
 30
0.0
 11
794.5
 21
-669.4999999982467
 31
0.0
  0
LINE
  5
8A
  8
1
  6
CONTINUOUS
 62
     7
 10
794.5
 20
-669.4999999982467
 30
0.0
 11
789.5000000000001
 21
-669.4999999982467
 31
0.0
  0
ARC
  5
8B
  8
1
  6
CONTINUOUS
 62
     7
 10
512.5
 20
-666.5000000020719
 30
0.0
 40
1.000000000000001
 50
270.0
 51
0.0
  0
ARC
  5
8C
  8
1
  6
CONTINUOUS
 62
     7
 10
512.5
 20
-666.5000000020719
 30
0.0
 40
3.000000000000003
 50
270.0
 51
289.4712206344904
  0
LINE
  5
8D
  8
1
  6
CONTINUOUS
 62
     7
 10
512.5
 20
-669.5000000020719
 30
0.0
 11
445.5000000000001
 21
-669.5000000020719
 31
0.0
  0
LINE
  5
8E
  8
1
  6
CONTINUOUS
 62
     7
 10
445.5000000000001
 20
-667.5000000020719
 30
0.0
 11
512.5
 21
-667.5000000020719
 31
0.0
  0
LINE
  5
8F
  8
1
  6
CONTINUOUS
 62
     7
 10
440.5000000000001
 20
-669.5000000017532
 30
0.0
 11
440.5000000000001
 21
-667.5000000017532
 31
0.0
  0
LINE
  5
90
  8
1
  6
CONTINUOUS
 62
     7
 10
440.5000000000001
 20
-667.5000000017532
 30
0.0
 11
445.5000000000001
 21
-667.5000000017532
 31
0.0
  0
LINE
  5
91
  8
1
  6
CONTINUOUS
 62
     7
 10
445.5000000000001
 20
-669.5000000017532
 30
0.0
 11
440.5000000000001
 21
-669.5000000017532
 31
0.0
  0
LINE
  5
92
  8
1
  6
CONTINUOUS
 62
     7
 10
657.5000000000001
 20
-688.5
 30
0.0
 11
657.5000000000001
 21
-663.5
 31
0.0
  0
LINE
  5
93
  8
1
  6
CONTINUOUS
 62
     7
 10
657.5000000000001
 20
-688.5
 30
0.0
 11
577.5000000000001
 21
-688.5
 31
0.0
  0
LINE
  5
94
  8
1
  6
CONTINUOUS
 62
     7
 10
577.5
 20
-663.5
 30
0.0
 11
577.5000000000001
 21
-688.5
 31
0.0
  0
LINE
  5
95
  8
1
  6
CONTINUOUS
 62
     7
 10
577.49
 20
-663.5
 30
0.0
 11
577.5
 21
-663.5
 31
0.0
  0
LINE
  5
96
  8
1
  6
CONTINUOUS
 62
     7
 10
577.49
 20
-688.5
 30
0.0
 11
577.49
 21
-663.5
 31
0.0
  0
LINE
  5
97
  8
1
  6
CONTINUOUS
 62
     7
 10
577.49
 20
-688.5
 30
0.0
 11
517.5000000000001
 21
-688.5
 31
0.0
  0
LINE
  5
98
  8
1
  6
CONTINUOUS
 62
     7
 10
717.5
 20
-688.5
 30
0.0
 11
657.51
 21
-688.5
 31
0.0
  0
LINE
  5
99
  8
1
  6
CONTINUOUS
 62
     7
 10
657.51
 20
-663.5
 30
0.0
 11
657.51
 21
-688.5
 31
0.0
  0
LINE
  5
9A
  8
1
  6
CONTINUOUS
 62
     7
 10
657.5000000000001
 20
-663.5
 30
0.0
 11
657.51
 21
-663.5
 31
0.0
  0
LINE
  5
9B
  8
1
  6
CONTINUOUS
 62
     7
 10
682.491664350565
 20
-592.0
 30
0.0
 11
682.501669907047
 21
-592.0
 31
0.0
  0
ARC
  5
9C
  8
1
  6
CONTINUOUS
 62
     7
 10
667.5000000000001
 20
-591.5
 30
0.0
 40
15.00000000000003
 50
181.9102131717099
 51
358.0897868282901
  0
LINE
  5
9D
  8
1
  6
CONTINUOUS
 62
     7
 10
652.4983300929531
 20
-592.0
 30
0.0
 11
652.5083356494351
 21
-592.0
 31
0.0
  0
ARC
  5
9E
  8
1
  6
CONTINUOUS
 62
     7
 10
667.5000000000001
 20
-591.5
 30
0.0
 40
15.00999999999997
 50
181.908940073424
 51
358.091059926576
  0
ARC
  5
9F
  8
1
  6
CONTINUOUS
 62
     7
 10
667.5000000000001
 20
-591.5
 30
0.0
 40
15.00000000000003
 50
91.91021317170991
 51
178.0897868282901
  0
LINE
  5
A0
  8
1
  6
CONTINUOUS
 62
     7
 10
667.0
 20
-576.4983300929529
 30
0.0
 11
667.0
 21
-576.508335649435
 31
0.0
  0
ARC
  5
A1
  8
1
  6
CONTINUOUS
 62
     7
 10
667.5000000000001
 20
-591.5
 30
0.0
 40
15.00999999999997
 50
91.90894007342399
 51
178.091059926576
  0
LINE
  5
A2
  8
1
  6
CONTINUOUS
 62
     7
 10
652.5083356494351
 20
-591.0
 30
0.0
 11
652.498330092953
 21
-591.0
 31
0.0
  0
ARC
  5
A3
  8
1
  6
CONTINUOUS
 62
     7
 10
567.5
 20
-595.0
 30
0.0
 40
18.49999999999996
 50
91.54872316724148
 51
178.4512768327585
  0
LINE
  5
A4
  8
1
  6
CONTINUOUS
 62
     7
 10
567.0
 20
-576.4967543387653
 30
0.0
 11
567.0
 21
-576.5067579910931
 31
0.0
  0
ARC
  5
A5
  8
1
  6
CONTINUOUS
 62
     7
 10
567.5
 20
-595.0
 30
0.0
 40
18.50999999999994
 50
91.5478862681831
 51
178.4521137318169
  0
LINE
  5
A6
  8
1
  6
CONTINUOUS
 62
     7
 10
549.0067579910931
 20
-594.5
 30
0.0
 11
548.9967543387654
 21
-594.5
 31
0.0
  0
LINE
  5
A7
  8
1
  6
CONTINUOUS
 62
     7
 10
586.0032456612347
 20
-594.5
 30
0.0
 11
585.993242008907
 21
-594.5
 31
0.0
  0
ARC
  5
A8
  8
1
  6
CONTINUOUS
 62
     7
 10
567.5
 20
-595.0
 30
0.0
 40
18.50999999999994
 50
1.547886268183106
 51
88.4521137318169
  0
LINE
  5
A9
  8
1
  6
CONTINUOUS
 62
     7
 10
568.0
 20
-576.5067579910931
 30
0.0
 11
568.0
 21
-576.4967543387653
 31
0.0
  0
ARC
  5
AA
  8
1
  6
CONTINUOUS
 62
     7
 10
567.5
 20
-595.0
 30
0.0
 40
18.50000000000007
 50
1.548723167241471
 51
88.4512768327585
  0
LINE
  5
AB
  8
1
  6
CONTINUOUS
 62
     7
 10
682.501669907047
 20
-591.0
 30
0.0
 11
682.491664350565
 21
-591.0
 31
0.0
  0
ARC
  5
AC
  8
1
  6
CONTINUOUS
 62
     7
 10
667.5000000000001
 20
-591.5
 30
0.0
 40
15.00999999999997
 50
1.908940073423992
 51
88.09105992657595
  0
LINE
  5
AD
  8
1
  6
CONTINUOUS
 62
     7
 10
668.0
 20
-576.508335649435
 30
0.0
 11
668.0
 21
-576.498330092953
 31
0.0
  0
ARC
  5
AE
  8
1
  6
CONTINUOUS
 62
     7
 10
667.5000000000001
 20
-591.5
 30
0.0
 40
14.99999999999992
 50
1.910213171709985
 51
88.08978682829002
  0
LINE
  5
AF
  8
1
  6
CONTINUOUS
 62
     7
 10
548.9967543387654
 20
-595.4999999999999
 30
0.0
 11
549.0067579910931
 21
-595.4999999999999
 31
0.0
  0
ARC
  5
B0
  8
1
  6
CONTINUOUS
 62
     7
 10
567.5
 20
-595.0
 30
0.0
 40
18.49999999999996
 50
181.5487231672414
 51
358.4512768327587
  0
LINE
  5
B1
  8
1
  6
CONTINUOUS
 62
     7
 10
585.993242008907
 20
-595.5
 30
0.0
 11
586.0032456612347
 21
-595.5
 31
0.0
  0
ARC
  5
B2
  8
1
  6
CONTINUOUS
 62
     7
 10
567.5
 20
-595.0
 30
0.0
 40
18.51000000000005
 50
181.5478862681829
 51
358.4521137318169
  0
LINE
  5
B3
  8
1
  6
CONTINUOUS
 62
     7
 10
515.5000000000001
 20
-688.5
 30
0.0
 11
515.5000000000001
 21
-685.5
 31
0.0
  0
LINE
  5
B4
  8
1
  6
CONTINUOUS
 62
     7
 10
515.5000000000001
 20
-685.5
 30
0.0
 11
513.5
 21
-685.5
 31
0.0
  0
LINE
  5
B5
  8
1
  6
CONTINUOUS
 62
     7
 10
513.5
 20
-685.5
 30
0.0
 11
513.5
 21
-563.5
 31
0.0
  0
LINE
  5
B6
  8
1
  6
CONTINUOUS
 62
     7
 10
513.5
 20
-563.5
 30
0.0
 11
515.5000000000001
 21
-563.5
 31
0.0
  0
LINE
  5
B7
  8
1
  6
CONTINUOUS
 62
     7
 10
517.5000000000001
 20
-688.5
 30
0.0
 11
515.5000000000001
 21
-688.5
 31
0.0
  0
LINE
  5
B8
  8
1
  6
CONTINUOUS
 62
     7
 10
719.5
 20
-685.5
 30
0.0
 11
719.5
 21
-688.5
 31
0.0
  0
LINE
  5
B9
  8
1
  6
CONTINUOUS
 62
     7
 10
719.5
 20
-688.5
 30
0.0
 11
717.5
 21
-688.5
 31
0.0
  0
LINE
  5
BA
  8
1
  6
CONTINUOUS
 62
     7
 10
719.5
 20
-563.5
 30
0.0
 11
721.5
 21
-563.5
 31
0.0
  0
LINE
  5
BB
  8
1
  6
CONTINUOUS
 62
     7
 10
721.5
 20
-563.5
 30
0.0
 11
721.5
 21
-685.5
 31
0.0
  0
LINE
  5
BC
  8
1
  6
CONTINUOUS
 62
     7
 10
721.5
 20
-685.5
 30
0.0
 11
719.5
 21
-685.5
 31
0.0
  0
LINE
  5
BD
  8
1
  6
CONTINUOUS
 62
     7
 10
515.5000000000001
 20
-563.5
 30
0.0
 11
516.0358983848623
 21
-563.5
 31
0.0
  0
ARC
  5
BE
  8
1
  6
CONTINUOUS
 62
     7
 10
519.5000000000001
 20
-565.5
 30
0.0
 40
3.999999999999999
 50
90.0
 51
150.0000000000001
  0
LINE
  5
BF
  8
1
  6
CONTINUOUS
 62
     7
 10
519.5000000000001
 20
-561.5
 30
0.0
 11
715.5
 21
-561.5
 31
0.0
  0
ARC
  5
C0
  8
1
  6
CONTINUOUS
 62
     7
 10
715.5
 20
-565.5
 30
0.0
 40
3.999999999999999
 50
29.99999999999988
 51
90.0
  0
LINE
  5
C1
  8
1
  6
CONTINUOUS
 62
     7
 10
718.9641016151378
 20
-563.5
 30
0.0
 11
719.5
 21
-563.5
 31
0.0
  0
LINE
  5
C2
  8
1
  6
CONTINUOUS
 62
     7
 10
721.4999999992488
 20
-626.4999999999995
 30
0.0
 11
721.9146367032913
 21
-626.500000000044
 31
0.0
  0
LINE
  5
C3
  8
1
  6
CONTINUOUS
 62
     7
 10
721.9146367047955
 20
-612.500000000044
 30
0.0
 11
721.5000000007528
 21
-612.4999999999994
 31
0.0
  0
ARC
  5
C4
  8
1
  6
CONTINUOUS
 62
     7
 10
716.1000000000007
 20
-619.4999999994193
 30
0.0
 40
9.099999999999978
 50
21.5517195516259
 51
50.28486276201797
  0
ARC
  5
C5
  8
1
  6
CONTINUOUS
 62
     7
 10
716.1000000000007
 20
-619.4999999994193
 30
0.0
 40
9.100000000000042
 50
309.715137225671
 51
338.4482804360629
  0
LINE
  5
C6
  8
1
  6
CONTINUOUS
 62
     7
 10
513.499999999248
 20
-612.5
 30
0.0
 11
513.0853632952054
 21
-612.5000000000447
 31
0.0
  0
LINE
  5
C7
  8
1
  6
CONTINUOUS
 62
     7
 10
513.0853632967095
 20
-626.5000000000445
 30
0.0
 11
513.5000000007522
 21
-626.4999999999999
 31
0.0
  0
ARC
  5
C8
  8
1
  6
CONTINUOUS
 62
     7
 10
518.9000000000001
 20
-619.4999999994199
 30
0.0
 40
9.100000000000025
 50
129.7151372379823
 51
158.4482804483739
  0
ARC
  5
C9
  8
1
  6
CONTINUOUS
 62
     7
 10
518.9000000000001
 20
-619.4999999994199
 30
0.0
 40
9.100000000000056
 50
201.5517195639373
 51
230.284862774329
  0
LINE
  5
CA
  8
1
  6
CONTINUOUS
 62
     7
 10
721.9146367040427
 20
-402.0
 30
0.0
 11
721.9146367040427
 21
-395.0
 31
0.0
  0
LINE
  5
CB
  8
1
  6
CONTINUOUS
 62
     7
 10
721.9146367040427
 20
-395.0
 30
0.0
 11
721.9146367040427
 21
-388.0000000000001
 31
0.0
  0
LINE
  5
CC
  8
1
  6
CONTINUOUS
 62
     7
 10
724.5637858477229
 20
-398.3428025852395
 30
0.0
 11
724.5637858477229
 21
-398.3051972897066
 31
0.0
  0
ARC
  5
CD
  8
1
  6
CONTINUOUS
 62
     7
 10
716.1000000000537
 20
-395.0
 30
0.0
 40
9.08625335328043
 50
8.225722530476393
 51
21.33116748546941
  0
LINE
  5
CE
  8
1
  6
CONTINUOUS
 62
     7
 10
725.0927748777844
 20
-394.5000000000001
 30
0.0
 11
725.0927748776985
 21
-393.7
 31
0.0
  0
LINE
  5
CF
  8
1
  6
CONTINUOUS
 62
     7
 10
724.5637858480779
 20
-394.5
 30
0.0
 11
725.0927748777842
 21
-394.5
 31
0.0
  0
LINE
  5
D0
  8
1
  6
CONTINUOUS
 62
     7
 10
724.5637858477229
 20
-395.5
 30
0.0
 11
724.5637858477229
 21
-394.5
 31
0.0
  0
LINE
  5
D1
  8
1
  6
CONTINUOUS
 62
     7
 10
725.0927748777842
 20
-395.5
 30
0.0
 11
724.5637858480779
 21
-395.5
 31
0.0
  0
LINE
  5
D2
  8
1
  6
CONTINUOUS
 62
     7
 10
725.0927748776985
 20
-396.3
 30
0.0
 11
725.0927748777844
 21
-395.5
 31
0.0
  0
ARC
  5
D3
  8
1
  6
CONTINUOUS
 62
     7
 10
716.1000000000537
 20
-395.0
 30
0.0
 40
9.086253353280432
 50
338.6688325145305
 51
351.7742774695237
  0
LINE
  5
D4
  8
1
  6
CONTINUOUS
 62
     7
 10
724.5637858477229
 20
-391.6948027102935
 30
0.0
 11
724.5637858477229
 21
-391.6571974147606
 31
0.0
  0
LINE
  5
D5
  8
1
  6
CONTINUOUS
 62
     7
 10
721.9146367040435
 20
-428.0000000000001
 30
0.0
 11
721.9146367040435
 21
-435.0000000000002
 31
0.0
  0
LINE
  5
D6
  8
1
  6
CONTINUOUS
 62
     7
 10
721.9146367040435
 20
-435.0000000000002
 30
0.0
 11
721.9146367040435
 21
-442.0000000000003
 31
0.0
  0
LINE
  5
D7
  8
1
  6
CONTINUOUS
 62
     7
 10
724.5637858477238
 20
-431.6571974147607
 30
0.0
 11
724.5637858477238
 21
-431.6948027102935
 31
0.0
  0
ARC
  5
D8
  8
1
  6
CONTINUOUS
 62
     7
 10
716.1000000000545
 20
-435.0000000000002
 30
0.0
 40
9.086253353280412
 50
8.225722530476332
 51
21.33116748546939
  0
LINE
  5
D9
  8
1
  6
CONTINUOUS
 62
     7
 10
725.0927748776994
 20
-433.7000000000002
 30
0.0
 11
725.0927748777854
 21
-434.5000000000002
 31
0.0
  0
LINE
  5
DA
  8
1
  6
CONTINUOUS
 62
     7
 10
725.0927748777851
 20
-434.5000000000002
 30
0.0
 11
724.5637858480787
 21
-434.5000000000002
 31
0.0
  0
LINE
  5
DB
  8
1
  6
CONTINUOUS
 62
     7
 10
724.5637858477238
 20
-434.5000000000002
 30
0.0
 11
724.5637858477238
 21
-435.5000000000002
 31
0.0
  0
LINE
  5
DC
  8
1
  6
CONTINUOUS
 62
     7
 10
724.5637858480787
 20
-435.5000000000002
 30
0.0
 11
725.0927748777851
 21
-435.5000000000002
 31
0.0
  0
LINE
  5
DD
  8
1
  6
CONTINUOUS
 62
     7
 10
725.0927748777854
 20
-435.5000000000002
 30
0.0
 11
725.0927748776994
 21
-436.3000000000002
 31
0.0
  0
ARC
  5
DE
  8
1
  6
CONTINUOUS
 62
     7
 10
716.1000000000545
 20
-435.0000000000002
 30
0.0
 40
9.086253353280437
 50
338.6688325145305
 51
351.7742774695236
  0
LINE
  5
DF
  8
1
  6
CONTINUOUS
 62
     7
 10
724.5637858477238
 20
-438.3051972897068
 30
0.0
 11
724.5637858477238
 21
-438.3428025852397
 31
0.0
  0
LINE
  5
E0
  8
1
  6
CONTINUOUS
 62
     7
 10
513.0853632959567
 20
-401.9999999999999
 30
0.0
 11
513.0853632959567
 21
-394.9999999999999
 31
0.0
  0
LINE
  5
E1
  8
1
  6
CONTINUOUS
 62
     7
 10
513.0853632959567
 20
-394.9999999999999
 30
0.0
 11
513.0853632959567
 21
-387.9999999999997
 31
0.0
  0
LINE
  5
E2
  8
1
  6
CONTINUOUS
 62
     7
 10
510.4362141522762
 20
-398.3428025852394
 30
0.0
 11
510.4362141522762
 21
-398.3051972897065
 31
0.0
  0
ARC
  5
E3
  8
1
  6
CONTINUOUS
 62
     7
 10
518.8999999999456
 20
-394.9999999999999
 30
0.0
 40
9.086253353280412
 50
188.2257225304763
 51
201.3311674854693
  0
LINE
  5
E4
  8
1
  6
CONTINUOUS
 62
     7
 10
509.9072251223007
 20
-396.2999999999998
 30
0.0
 11
509.9072251222149
 21
-395.4999999999999
 31
0.0
  0
LINE
  5
E5
  8
1
  6
CONTINUOUS
 62
     7
 10
509.907225122215
 20
-395.4999999999999
 30
0.0
 11
510.4362141519213
 21
-395.4999999999999
 31
0.0
  0
LINE
  5
E6
  8
1
  6
CONTINUOUS
 62
     7
 10
510.4362141522762
 20
-395.4999999999999
 30
0.0
 11
510.4362141522762
 21
-394.4999999999998
 31
0.0
  0
LINE
  5
E7
  8
1
  6
CONTINUOUS
 62
     7
 10
510.4362141519213
 20
-394.4999999999999
 30
0.0
 11
509.907225122215
 21
-394.4999999999999
 31
0.0
  0
LINE
  5
E8
  8
1
  6
CONTINUOUS
 62
     7
 10
509.9072251222149
 20
-394.4999999999999
 30
0.0
 11
509.9072251223007
 21
-393.6999999999999
 31
0.0
  0
ARC
  5
E9
  8
1
  6
CONTINUOUS
 62
     7
 10
518.8999999999456
 20
-394.9999999999999
 30
0.0
 40
9.086253353280437
 50
158.6688325145305
 51
171.7742774695236
  0
LINE
  5
EA
  8
1
  6
CONTINUOUS
 62
     7
 10
510.4362141522762
 20
-391.6948027102933
 30
0.0
 11
510.4362141522762
 21
-391.6571974147603
 31
0.0
  0
LINE
  5
EB
  8
1
  6
CONTINUOUS
 62
     7
 10
513.0853632959574
 20
-428.0
 30
0.0
 11
513.0853632959574
 21
-435.0
 31
0.0
  0
LINE
  5
EC
  8
1
  6
CONTINUOUS
 62
     7
 10
513.0853632959574
 20
-435.0
 30
0.0
 11
513.0853632959574
 21
-442.0
 31
0.0
  0
LINE
  5
ED
  8
1
  6
CONTINUOUS
 62
     7
 10
510.4362141522771
 20
-431.6571974147606
 30
0.0
 11
510.4362141522771
 21
-431.6948027102934
 31
0.0
  0
ARC
  5
EE
  8
1
  6
CONTINUOUS
 62
     7
 10
518.8999999999464
 20
-435.0
 30
0.0
 40
9.086253353280437
 50
188.2257225304764
 51
201.3311674854694
  0
LINE
  5
EF
  8
1
  6
CONTINUOUS
 62
     7
 10
509.9072251222157
 20
-435.5
 30
0.0
 11
509.9072251223016
 21
-436.3
 31
0.0
  0
LINE
  5
F0
  8
1
  6
CONTINUOUS
 62
     7
 10
510.4362141519222
 20
-435.5
 30
0.0
 11
509.9072251222157
 21
-435.5
 31
0.0
  0
LINE
  5
F1
  8
1
  6
CONTINUOUS
 62
     7
 10
510.4362141522771
 20
-434.5
 30
0.0
 11
510.4362141522771
 21
-435.5
 31
0.0
  0
LINE
  5
F2
  8
1
  6
CONTINUOUS
 62
     7
 10
509.9072251222157
 20
-434.5
 30
0.0
 11
510.4362141519222
 21
-434.5
 31
0.0
  0
LINE
  5
F3
  8
1
  6
CONTINUOUS
 62
     7
 10
509.9072251223016
 20
-433.7
 30
0.0
 11
509.9072251222157
 21
-434.5
 31
0.0
  0
ARC
  5
F4
  8
1
  6
CONTINUOUS
 62
     7
 10
518.8999999999464
 20
-435.0
 30
0.0
 40
9.086253353280412
 50
158.6688325145306
 51
171.7742774695237
  0
LINE
  5
F5
  8
1
  6
CONTINUOUS
 62
     7
 10
510.4362141522771
 20
-438.3051972897065
 30
0.0
 11
510.4362141522771
 21
-438.3428025852395
 31
0.0
  0
LINE
  5
F6
  8
1
  6
CONTINUOUS
 62
     7
 10
721.5
 20
-447.4999999945941
 30
0.0
 11
719.5
 21
-447.4999999945941
 31
0.0
  0
LINE
  5
F7
  8
1
  6
CONTINUOUS
 62
     7
 10
721.5
 20
-442.4999999942754
 30
0.0
 11
721.5
 21
-447.4999999945941
 31
0.0
  0
LINE
  5
F8
  8
1
  6
CONTINUOUS
 62
     7
 10
721.5
 20
-442.4999999942754
 30
0.0
 11
721.5
 21
-387.4999999942754
 31
0.0
  0
LINE
  5
F9
  8
1
  6
CONTINUOUS
 62
     7
 10
719.5
 20
-382.4999999945941
 30
0.0
 11
721.5
 21
-382.4999999945941
 31
0.0
  0
LINE
  5
FA
  8
1
  6
CONTINUOUS
 62
     7
 10
721.5
 20
-382.4999999945941
 30
0.0
 11
721.5
 21
-387.4999999942754
 31
0.0
  0
LINE
  5
FB
  8
1
  6
CONTINUOUS
 62
     7
 10
722.5
 20
-382.4999999982281
 30
0.0
 11
721.5
 21
-382.4999999982281
 31
0.0
  0
LINE
  5
FC
  8
1
  6
CONTINUOUS
 62
     7
 10
721.5
 20
-447.4999999982281
 30
0.0
 11
722.5
 21
-447.4999999982281
 31
0.0
  0
ARC
  5
FD
  8
1
  6
CONTINUOUS
 62
     7
 10
789.5000000000001
 20
-442.4999999982919
 30
0.0
 40
4.999999999999948
 50
270.0
 51
0.0
  0
ARC
  5
FE
  8
1
  6
CONTINUOUS
 62
     7
 10
789.5000000000001
 20
-387.4999999982919
 30
0.0
 40
4.999999999999893
 50
0.0
 51
90.0
  0
LINE
  5
FF
  8
1
  6
CONTINUOUS
 62
     7
 10
794.5
 20
-442.4999999982919
 30
0.0
 11
794.5
 21
-387.4999999982919
 31
0.0
  0
ARC
  5
100
  8
1
  6
CONTINUOUS
 62
     7
 10
786.0
 20
-434.9999999982919
 30
0.0
 40
3.500000000000003
 50
270.0
 51
90.00000000000011
  0
LINE
  5
101
  8
1
  6
CONTINUOUS
 62
     7
 10
786.0
 20
-431.4999999982919
 30
0.0
 11
728.0000000000001
 21
-431.4999999982919
 31
0.0
  0
ARC
  5
102
  8
1
  6
CONTINUOUS
 62
     7
 10
728.0000000000001
 20
-434.9999999982919
 30
0.0
 40
3.500000000000003
 50
90.00000000000021
 51
148.8640009833512
  0
ARC
  5
103
  8
1
  6
CONTINUOUS
 62
     7
 10
728.0000000000001
 20
-434.9999999982919
 30
0.0
 40
3.499999999999989
 50
211.1359990330986
 51
270.0
  0
LINE
  5
104
  8
1
  6
CONTINUOUS
 62
     7
 10
728.0000000000001
 20
-438.4999999982919
 30
0.0
 11
786.0
 21
-438.4999999982919
 31
0.0
  0
ARC
  5
105
  8
1
  6
CONTINUOUS
 62
     7
 10
787.25
 20
-394.9999999982918
 30
0.0
 40
2.25000000000003
 50
270.0
 51
90.0
  0
LINE
  5
106
  8
1
  6
CONTINUOUS
 62
     7
 10
787.25
 20
-392.7499999982919
 30
0.0
 11
726.75
 21
-392.7499999982919
 31
0.0
  0
ARC
  5
107
  8
1
  6
CONTINUOUS
 62
     7
 10
726.75
 20
-394.9999999982918
 30
0.0
 40
2.249999999999974
 50
90.0
 51
138.5564991609839
  0
ARC
  5
108
  8
1
  6
CONTINUOUS
 62
     7
 10
726.75
 20
-394.9999999982918
 30
0.0
 40
2.249999999999977
 50
221.4435008573959
 51
270.0
  0
LINE
  5
109
  8
1
  6
CONTINUOUS
 62
     7
 10
726.75
 20
-397.2499999982919
 30
0.0
 11
787.25
 21
-397.2499999982919
 31
0.0
  0
ARC
  5
10A
  8
1
  6
CONTINUOUS
 62
     7
 10
784.0
 20
-414.9999999982919
 30
0.0
 40
5.499999999999671
 50
270.0
 51
90.0
  0
LINE
  5
10B
  8
1
  6
CONTINUOUS
 62
     7
 10
784.0
 20
-409.4999999982919
 30
0.0
 11
730.0
 21
-409.4999999982919
 31
0.0
  0
ARC
  5
10C
  8
1
  6
CONTINUOUS
 62
     7
 10
730.0
 20
-414.9999999982919
 30
0.0
 40
5.500000000000004
 50
90.0
 51
270.0
  0
LINE
  5
10D
  8
1
  6
CONTINUOUS
 62
     7
 10
730.0
 20
-420.4999999982919
 30
0.0
 11
784.0
 21
-420.4999999982915
 31
0.0
  0
LINE
  5
10E
  8
1
  6
CONTINUOUS
 62
     7
 10
789.5000000000001
 20
-382.4999999982919
 30
0.0
 11
722.5
 21
-382.4999999982919
 31
0.0
  0
LINE
  5
10F
  8
1
  6
CONTINUOUS
 62
     7
 10
789.5000000000001
 20
-447.4999999982918
 30
0.0
 11
722.5
 21
-447.4999999982919
 31
0.0
  0
LINE
  5
110
  8
1
  6
CONTINUOUS
 62
     7
 10
513.5
 20
-382.5000000054059
 30
0.0
 11
515.5000000000001
 21
-382.5000000054059
 31
0.0
  0
LINE
  5
111
  8
1
  6
CONTINUOUS
 62
     7
 10
513.5
 20
-387.5000000057246
 30
0.0
 11
513.5
 21
-382.5000000054059
 31
0.0
  0
LINE
  5
112
  8
1
  6
CONTINUOUS
 62
     7
 10
513.5
 20
-387.5000000057246
 30
0.0
 11
513.5
 21
-442.5000000057246
 31
0.0
  0
LINE
  5
113
  8
1
  6
CONTINUOUS
 62
     7
 10
515.5000000000001
 20
-447.5000000054059
 30
0.0
 11
513.5
 21
-447.5000000054059
 31
0.0
  0
LINE
  5
114
  8
1
  6
CONTINUOUS
 62
     7
 10
513.5
 20
-447.5000000054059
 30
0.0
 11
513.5
 21
-442.5000000057246
 31
0.0
  0
LINE
  5
115
  8
1
  6
CONTINUOUS
 62
     7
 10
512.5
 20
-447.500000001772
 30
0.0
 11
513.5
 21
-447.5000000017719
 31
0.0
  0
LINE
  5
116
  8
1
  6
CONTINUOUS
 62
     7
 10
513.5
 20
-382.500000001772
 30
0.0
 11
512.5
 21
-382.500000001772
 31
0.0
  0
ARC
  5
117
  8
1
  6
CONTINUOUS
 62
     7
 10
445.5000000000001
 20
-387.5000000017082
 30
0.0
 40
5.000000000000004
 50
90.0
 51
180.0
  0
ARC
  5
118
  8
1
  6
CONTINUOUS
 62
     7
 10
445.5000000000001
 20
-442.5000000017082
 30
0.0
 40
5.000000000000004
 50
180.0
 51
270.0
  0
LINE
  5
119
  8
1
  6
CONTINUOUS
 62
     7
 10
440.5000000000001
 20
-387.5000000017082
 30
0.0
 11
440.5000000000001
 21
-442.5000000017082
 31
0.0
  0
ARC
  5
11A
  8
1
  6
CONTINUOUS
 62
     7
 10
449.0000000000001
 20
-395.0000000017082
 30
0.0
 40
3.500000000000003
 50
90.0
 51
270.0000000000001
  0
LINE
  5
11B
  8
1
  6
CONTINUOUS
 62
     7
 10
449.0000000000001
 20
-398.5000000017082
 30
0.0
 11
507.0
 21
-398.5000000017082
 31
0.0
  0
ARC
  5
11C
  8
1
  6
CONTINUOUS
 62
     7
 10
507.0
 20
-395.0000000017082
 30
0.0
 40
3.500000000000003
 50
270.0
 51
328.8640009833464
  0
ARC
  5
11D
  8
1
  6
CONTINUOUS
 62
     7
 10
507.0
 20
-395.0000000017082
 30
0.0
 40
3.500000000000037
 50
31.13599903310347
 51
90.00000000000001
  0
LINE
  5
11E
  8
1
  6
CONTINUOUS
 62
     7
 10
507.0
 20
-391.5000000017082
 30
0.0
 11
449.0000000000001
 21
-391.5000000017082
 31
0.0
  0
ARC
  5
11F
  8
1
  6
CONTINUOUS
 62
     7
 10
447.75
 20
-435.0000000017082
 30
0.0
 40
2.249999999999974
 50
90.0
 51
270.0
  0
LINE
  5
120
  8
1
  6
CONTINUOUS
 62
     7
 10
447.75
 20
-437.2500000017082
 30
0.0
 11
508.2500000000001
 21
-437.2500000017082
 31
0.0
  0
ARC
  5
121
  8
1
  6
CONTINUOUS
 62
     7
 10
508.2500000000001
 20
-435.0000000017082
 30
0.0
 40
2.25000000000003
 50
270.0
 51
318.5564991609787
  0
ARC
  5
122
  8
1
  6
CONTINUOUS
 62
     7
 10
508.2500000000001
 20
-435.0000000017082
 30
0.0
 40
2.249999999999967
 50
41.44350085740065
 51
90.0
  0
LINE
  5
123
  8
1
  6
CONTINUOUS
 62
     7
 10
508.2500000000001
 20
-432.7500000017082
 30
0.0
 11
447.75
 21
-432.7500000017082
 31
0.0
  0
ARC
  5
124
  8
1
  6
CONTINUOUS
 62
     7
 10
451.0000000000001
 20
-415.0000000017082
 30
0.0
 40
5.499999999999727
 50
90.0
 51
270.0
  0
LINE
  5
125
  8
1
  6
CONTINUOUS
 62
     7
 10
451.0000000000001
 20
-420.5000000017081
 30
0.0
 11
505.0000000000001
 21
-420.5000000017081
 31
0.0
  0
ARC
  5
126
  8
1
  6
CONTINUOUS
 62
     7
 10
505.0000000000001
 20
-415.0000000017082
 30
0.0
 40
5.499999999999949
 50
270.0
 51
90.0
  0
LINE
  5
127
  8
1
  6
CONTINUOUS
 62
     7
 10
505.0000000000001
 20
-409.5000000017082
 30
0.0
 11
451.0000000000001
 21
-409.5000000017085
 31
0.0
  0
LINE
  5
128
  8
1
  6
CONTINUOUS
 62
     7
 10
445.5000000000001
 20
-447.5000000017082
 30
0.0
 11
512.5
 21
-447.5000000017082
 31
0.0
  0
LINE
  5
129
  8
1
  6
CONTINUOUS
 62
     7
 10
445.5000000000001
 20
-382.5000000017082
 30
0.0
 11
512.5
 21
-382.5000000017082
 31
0.0
  0
ARC
  5
12A
  8
1
  6
CONTINUOUS
 62
     7
 10
617.5
 20
-415.0
 30
0.0
 40
6.010000000000012
 50
4.772219657642957
 51
85.22778034235724
  0
LINE
  5
12B
  8
1
  6
CONTINUOUS
 62
     7
 10
618.0
 20
-409.0108347827097
 30
0.0
 11
618.0
 21
-409.0208696284493
 31
0.0
  0
ARC
  5
12C
  8
1
  6
CONTINUOUS
 62
     7
 10
617.5
 20
-415.0
 30
0.0
 40
6.000000000000029
 50
4.780191847199206
 51
85.21980815280085
  0
LINE
  5
12D
  8
1
  6
CONTINUOUS
 62
     7
 10
623.4791303715508
 20
-414.5
 30
0.0
 11
623.4891652172904
 21
-414.5
 31
0.0
  0
ARC
  5
12E
  8
1
  6
CONTINUOUS
 62
     7
 10
617.5
 20
-415.0
 30
0.0
 40
6.010000000000017
 50
94.77221965764288
 51
265.2277803423571
  0
LINE
  5
12F
  8
1
  6
CONTINUOUS
 62
     7
 10
617.0
 20
-420.9891652172903
 30
0.0
 11
617.0000000000001
 21
-420.9791303715507
 31
0.0
  0
ARC
  5
130
  8
1
  6
CONTINUOUS
 62
     7
 10
617.5
 20
-415.0
 30
0.0
 40
5.999999999999975
 50
94.78019184719926
 51
265.2198081528008
  0
LINE
  5
131
  8
1
  6
CONTINUOUS
 62
     7
 10
617.0
 20
-409.0208696284493
 30
0.0
 11
617.0
 21
-409.0108347827097
 31
0.0
  0
ARC
  5
132
  8
1
  6
CONTINUOUS
 62
     7
 10
617.5
 20
-415.0
 30
0.0
 40
6.000000000000035
 50
274.7801918471989
 51
355.2198081528008
  0
LINE
  5
133
  8
1
  6
CONTINUOUS
 62
     7
 10
618.0
 20
-420.9791303715507
 30
0.0
 11
618.0000000000001
 21
-420.9891652172903
 31
0.0
  0
ARC
  5
134
  8
1
  6
CONTINUOUS
 62
     7
 10
617.5
 20
-415.0
 30
0.0
 40
6.009999999999962
 50
274.7722196576428
 51
355.227780342357
  0
LINE
  5
135
  8
1
  6
CONTINUOUS
 62
     7
 10
623.4891652172904
 20
-415.5
 30
0.0
 11
623.4791303715508
 21
-415.5
 31
0.0
  0
ARC
  5
136
  8
1
  6
CONTINUOUS
 62
     7
 10
517.5000000000001
 20
-513.0
 30
0.0
 40
3.999999999999999
 50
240.0000000000001
 51
270.0
  0
LINE
  5
137
  8
1
  6
CONTINUOUS
 62
     7
 10
515.5000000000001
 20
-516.4641016151378
 30
0.0
 11
516.0358983848623
 21
-516.4641016151378
 31
0.0
  0
LINE
  5
138
  8
1
  6
CONTINUOUS
 62
     7
 10
718.9641016151378
 20
-516.4641016151378
 30
0.0
 11
719.5
 21
-516.4641016151378
 31
0.0
  0
ARC
  5
139
  8
1
  6
CONTINUOUS
 62
     7
 10
717.5
 20
-513.0
 30
0.0
 40
3.999999999999999
 50
270.0
 51
299.9999999999998
  0
LINE
  5
13A
  8
1
  6
CONTINUOUS
 62
     7
 10
717.5
 20
-517.0
 30
0.0
 11
517.5000000000001
 21
-517.0
 31
0.0
  0
LINE
  5
13B
  8
1
  6
CONTINUOUS
 62
     7
 10
719.5
 20
-323.0
 30
0.0
 11
719.5
 21
-507.0
 31
0.0
  0
LINE
  5
13C
  8
1
  6
CONTINUOUS
 62
     7
 10
718.9641016151378
 20
-507.0
 30
0.0
 11
718.9641016151378
 21
-516.4641016151378
 31
0.0
  0
LINE
  5
13D
  8
1
  6
CONTINUOUS
 62
     7
 10
718.9641016151378
 20
-313.5358983848622
 30
0.0
 11
718.9641016151378
 21
-323.0
 31
0.0
  0
LINE
  5
13E
  8
1
  6
CONTINUOUS
 62
     7
 10
516.0358983848623
 20
-516.4641016151378
 30
0.0
 11
516.0358983848623
 21
-507.0
 31
0.0
  0
LINE
  5
13F
  8
1
  6
CONTINUOUS
 62
     7
 10
515.5000000000001
 20
-507.0
 30
0.0
 11
515.5000000000001
 21
-323.0
 31
0.0
  0
LINE
  5
140
  8
1
  6
CONTINUOUS
 62
     7
 10
516.0358983848623
 20
-323.0
 30
0.0
 11
516.0358983848623
 21
-313.5358983848623
 31
0.0
  0
LINE
  5
141
  8
1
  6
CONTINUOUS
 62
     7
 10
516.0358983848623
 20
-313.5358983848623
 30
0.0
 11
515.5000000000001
 21
-313.5358983848623
 31
0.0
  0
ARC
  5
142
  8
1
  6
CONTINUOUS
 62
     7
 10
517.5000000000001
 20
-317.0
 30
0.0
 40
3.999999999999999
 50
90.0
 51
120.0000000000003
  0
LINE
  5
143
  8
1
  6
CONTINUOUS
 62
     7
 10
517.5000000000001
 20
-313.0
 30
0.0
 11
717.5
 21
-313.0
 31
0.0
  0
ARC
  5
144
  8
1
  6
CONTINUOUS
 62
     7
 10
717.5
 20
-317.0
 30
0.0
 40
3.999999999999999
 50
59.99999999999971
 51
90.0
  0
LINE
  5
145
  8
1
  6
CONTINUOUS
 62
     7
 10
719.5
 20
-313.5358983848623
 30
0.0
 11
718.9641016151378
 21
-313.5358983848622
 31
0.0
  0
LINE
  5
146
  8
1
  6
CONTINUOUS
 62
     7
 10
513.5
 20
-507.0
 30
0.0
 11
516.0358983848623
 21
-507.0
 31
0.0
  0
ARC
  5
147
  8
1
  6
CONTINUOUS
 62
     7
 10
517.5000000000001
 20
-513.0
 30
0.0
 40
4.000000000000004
 50
180.0
 51
240.0
  0
LINE
  5
148
  8
1
  6
CONTINUOUS
 62
     7
 10
513.5
 20
-513.0
 30
0.0
 11
513.5
 21
-507.0
 31
0.0
  0
LINE
  5
149
  8
1
  6
CONTINUOUS
 62
     7
 10
721.5
 20
-513.0
 30
0.0
 11
721.5
 21
-507.0
 31
0.0
  0
LINE
  5
14A
  8
1
  6
CONTINUOUS
 62
     7
 10
721.5
 20
-507.0
 30
0.0
 11
718.9641016151378
 21
-507.0
 31
0.0
  0
ARC
  5
14B
  8
1
  6
CONTINUOUS
 62
     7
 10
717.5
 20
-513.0
 30
0.0
 40
4.000000000000016
 50
300.0
 51
0.0
  0
ARC
  5
14C
  8
1
  6
CONTINUOUS
 62
     7
 10
517.5000000000001
 20
-317.0
 30
0.0
 40
3.999999999999967
 50
120.0
 51
180.0
  0
LINE
  5
14D
  8
1
  6
CONTINUOUS
 62
     7
 10
513.5
 20
-323.0
 30
0.0
 11
516.0358983848623
 21
-323.0
 31
0.0
  0
LINE
  5
14E
  8
1
  6
CONTINUOUS
 62
     7
 10
513.5
 20
-317.0
 30
0.0
 11
513.5
 21
-323.0
 31
0.0
  0
LINE
  5
14F
  8
1
  6
CONTINUOUS
 62
     7
 10
721.5
 20
-323.0
 30
0.0
 11
718.9641016151378
 21
-323.0
 31
0.0
  0
LINE
  5
150
  8
1
  6
CONTINUOUS
 62
     7
 10
721.5
 20
-317.0
 30
0.0
 11
721.5
 21
-323.0
 31
0.0
  0
ARC
  5
151
  8
1
  6
CONTINUOUS
 62
     7
 10
717.5
 20
-317.0
 30
0.0
 40
4.000000000000004
 50
0.0
 51
60.00000000000001
  0
LINE
  5
152
  8
1
  6
CONTINUOUS
 62
     7
 10
721.5
 20
-401.9999999999999
 30
0.0
 11
721.9146367040427
 21
-401.9999999999999
 31
0.0
  0
LINE
  5
153
  8
1
  6
CONTINUOUS
 62
     7
 10
721.9146367040427
 20
-388.0000000000001
 30
0.0
 11
721.5
 21
-388.0000000000001
 31
0.0
  0
ARC
  5
154
  8
1
  6
CONTINUOUS
 62
     7
 10
716.0999999999999
 20
-395.0
 30
0.0
 40
9.099999999999989
 50
309.7151372318268
 51
338.4482804422183
  0
ARC
  5
155
  8
1
  6
CONTINUOUS
 62
     7
 10
716.0999999999999
 20
-395.0
 30
0.0
 40
9.099999999999966
 50
21.55171955778169
 51
50.28486276817332
  0
LINE
  5
156
  8
1
  6
CONTINUOUS
 62
     7
 10
721.5000000000008
 20
-442.0000000000002
 30
0.0
 11
721.9146367040435
 21
-442.0000000000002
 31
0.0
  0
LINE
  5
157
  8
1
  6
CONTINUOUS
 62
     7
 10
721.9146367040435
 20
-428.0000000000002
 30
0.0
 11
721.5000000000008
 21
-428.0000000000002
 31
0.0
  0
ARC
  5
158
  8
1
  6
CONTINUOUS
 62
     7
 10
716.1000000000007
 20
-435.0000000000002
 30
0.0
 40
9.099999999999966
 50
21.55171955778154
 51
50.28486276817355
  0
ARC
  5
159
  8
1
  6
CONTINUOUS
 62
     7
 10
716.1000000000007
 20
-435.0000000000002
 30
0.0
 40
9.100000000000033
 50
309.7151372318264
 51
338.4482804422184
  0
LINE
  5
15A
  8
1
  6
CONTINUOUS
 62
     7
 10
513.4999999999993
 20
-387.9999999999999
 30
0.0
 11
513.0853632959567
 21
-387.9999999999999
 31
0.0
  0
LINE
  5
15B
  8
1
  6
CONTINUOUS
 62
     7
 10
513.0853632959567
 20
-401.9999999999999
 30
0.0
 11
513.4999999999993
 21
-401.9999999999999
 31
0.0
  0
ARC
  5
15C
  8
1
  6
CONTINUOUS
 62
     7
 10
518.8999999999993
 20
-394.9999999999999
 30
0.0
 40
9.099999999999966
 50
201.5517195577816
 51
230.2848627681736
  0
ARC
  5
15D
  8
1
  6
CONTINUOUS
 62
     7
 10
518.8999999999993
 20
-394.9999999999999
 30
0.0
 40
9.100000000000033
 50
129.7151372318265
 51
158.4482804422184
  0
LINE
  5
15E
  8
1
  6
CONTINUOUS
 62
     7
 10
513.5
 20
-428.0000000000001
 30
0.0
 11
513.0853632959574
 21
-428.0000000000001
 31
0.0
  0
LINE
  5
15F
  8
1
  6
CONTINUOUS
 62
     7
 10
513.0853632959574
 20
-441.9999999999999
 30
0.0
 11
513.5
 21
-441.9999999999999
 31
0.0
  0
ARC
  5
160
  8
1
  6
CONTINUOUS
 62
     7
 10
518.9000000000001
 20
-435.0
 30
0.0
 40
9.099999999999989
 50
129.7151372318267
 51
158.4482804422183
  0
ARC
  5
161
  8
1
  6
CONTINUOUS
 62
     7
 10
518.9000000000001
 20
-435.0
 30
0.0
 40
9.099999999999987
 50
201.5517195577817
 51
230.2848627681733
  0
CIRCLE
  5
162
  8
1
  6
CONTINUOUS
 62
     7
 10
957.4999999999998
 20
-619.5000000000446
 30
0.0
 40
6.999999999999895
  0
LINE
  5
163
  8
1
  6
CONTINUOUS
 62
     7
 10
958.7999999999998
 20
-618.9999999994197
 30
0.0
 11
960.8051972897063
 21
-618.9999999994197
 31
0.0
  0
LINE
  5
164
  8
1
  6
CONTINUOUS
 62
     7
 10
957.9999999999999
 20
-618.200000000386
 30
0.0
 11
958.0006730427552
 21
-618.2327458997582
 31
0.0
  0
LINE
  5
165
  8
1
  6
CONTINUOUS
 62
     7
 10
958.0006730427552
 20
-618.2327458997582
 30
0.0
 11
958.0026898599596
 21
-618.2654921097557
 31
0.0
  0
LINE
  5
166
  8
1
  6
CONTINUOUS
 62
     7
 10
958.0026898599596
 20
-618.2654921097557
 30
0.0
 11
958.0060469850193
 21
-618.2981554650333
 31
0.0
  0
LINE
  5
167
  8
1
  6
CONTINUOUS
 62
     7
 10
958.0060469850193
 20
-618.2981554650333
 30
0.0
 11
958.0107409513414
 21
-618.3306528002463
 31
0.0
  0
LINE
  5
168
  8
1
  6
CONTINUOUS
 62
     7
 10
958.0107409513414
 20
-618.3306528002463
 30
0.0
 11
958.0169677913
 21
-618.3638772926423
 31
0.0
  0
LINE
  5
169
  8
1
  6
CONTINUOUS
 62
     7
 10
958.0169677913
 20
-618.3638772926423
 30
0.0
 11
958.0246062345985
 21
-618.3968654103202
 31
0.0
  0
LINE
  5
16A
  8
1
  6
CONTINUOUS
 62
     7
 10
958.0246062345985
 20
-618.3968654103202
 30
0.0
 11
958.0336366770123
 21
-618.4295266238422
 31
0.0
  0
LINE
  5
16B
  8
1
  6
CONTINUOUS
 62
     7
 10
958.0336366770123
 20
-618.4295266238422
 30
0.0
 11
958.044039514317
 21
-618.4617704037705
 31
0.0
  0
LINE
  5
16C
  8
1
  6
CONTINUOUS
 62
     7
 10
958.044039514317
 20
-618.4617704037705
 30
0.0
 11
958.0554769009717
 21
-618.4927130356357
 31
0.0
  0
LINE
  5
16D
  8
1
  6
CONTINUOUS
 62
     7
 10
958.0554769009717
 20
-618.4927130356357
 30
0.0
 11
958.0681997153029
 21
-618.5232034369317
 31
0.0
  0
LINE
  5
16E
  8
1
  6
CONTINUOUS
 62
     7
 10
958.0681997153029
 20
-618.5232034369317
 30
0.0
 11
958.0821749863064
 21
-618.5531611822017
 31
0.0
  0
LINE
  5
16F
  8
1
  6
CONTINUOUS
 62
     7
 10
958.0821749863064
 20
-618.5531611822017
 30
0.0
 11
958.0973697429778
 21
-618.5825058459889
 31
0.0
  0
LINE
  5
170
  8
1
  6
CONTINUOUS
 62
     7
 10
958.0973697429778
 20
-618.5825058459889
 30
0.0
 11
958.1142817504398
 21
-618.6120502264095
 31
0.0
  0
LINE
  5
171
  8
1
  6
CONTINUOUS
 62
     7
 10
958.1142817504398
 20
-618.6120502264095
 30
0.0
 11
958.1324602060262
 21
-618.6408872502648
 31
0.0
  0
LINE
  5
172
  8
1
  6
CONTINUOUS
 62
     7
 10
958.1324602060262
 20
-618.6408872502648
 30
0.0
 11
958.1518533960198
 21
-618.6689359122385
 31
0.0
  0
LINE
  5
173
  8
1
  6
CONTINUOUS
 62
     7
 10
958.1518533960198
 20
-618.6689359122385
 30
0.0
 11
958.1724096067039
 21
-618.696115207014
 31
0.0
  0
LINE
  5
174
  8
1
  6
CONTINUOUS
 62
     7
 10
958.1724096067039
 20
-618.696115207014
 30
0.0
 11
958.1932359675773
 21
-618.7213760962869
 31
0.0
  0
LINE
  5
175
  8
1
  6
CONTINUOUS
 62
     7
 10
958.1932359675773
 20
-618.7213760962869
 30
0.0
 11
958.2151003632981
 21
-618.7457880850048
 31
0.0
  0
LINE
  5
176
  8
1
  6
CONTINUOUS
 62
     7
 10
958.2151003632981
 20
-618.7457880850048
 30
0.0
 11
958.2379445378164
 21
-618.7692884003203
 31
0.0
  0
LINE
  5
177
  8
1
  6
CONTINUOUS
 62
     7
 10
958.2379445378164
 20
-618.7692884003203
 30
0.0
 11
958.2617102350828
 21
-618.7918142693857
 31
0.0
  0
LINE
  5
178
  8
1
  6
CONTINUOUS
 62
     7
 10
958.2617102350828
 20
-618.7918142693857
 30
0.0
 11
958.2871166736992
 21
-618.8139591208702
 31
0.0
  0
LINE
  5
179
  8
1
  6
CONTINUOUS
 62
     7
 10
958.2871166736992
 20
-618.8139591208702
 30
0.0
 11
958.3134534587521
 21
-618.8350305199237
 31
0.0
  0
LINE
  5
17A
  8
1
  6
CONTINUOUS
 62
     7
 10
958.3134534587521
 20
-618.8350305199237
 30
0.0
 11
958.3406460390391
 21
-618.8549725529497
 31
0.0
  0
LINE
  5
17B
  8
1
  6
CONTINUOUS
 62
     7
 10
958.3406460390391
 20
-618.8549725529497
 30
0.0
 11
958.3686198633587
 21
-618.8737293063523
 31
0.0
  0
LINE
  5
17C
  8
1
  6
CONTINUOUS
 62
     7
 10
958.3686198633587
 20
-618.8737293063523
 30
0.0
 11
958.3963889722311
 21
-618.8907198663966
 31
0.0
  0
LINE
  5
17D
  8
1
  6
CONTINUOUS
 62
     7
 10
958.3963889722311
 20
-618.8907198663966
 30
0.0
 11
958.4248388486262
 21
-618.9065738668315
 31
0.0
  0
LINE
  5
17E
  8
1
  6
CONTINUOUS
 62
     7
 10
958.4248388486262
 20
-618.9065738668315
 30
0.0
 11
958.4538949440238
 21
-618.9212538265114
 31
0.0
  0
LINE
  5
17F
  8
1
  6
CONTINUOUS
 62
     7
 10
958.4538949440238
 20
-618.9212538265114
 30
0.0
 11
958.4834827099038
 21
-618.9347222642898
 31
0.0
  0
LINE
  5
180
  8
1
  6
CONTINUOUS
 62
     7
 10
958.4834827099038
 20
-618.9347222642898
 30
0.0
 11
958.5144455944699
 21
-618.9472978675315
 31
0.0
  0
LINE
  5
181
  8
1
  6
CONTINUOUS
 62
     7
 10
958.5144455944699
 20
-618.9472978675315
 30
0.0
 11
958.5459144583192
 21
-618.9585725993443
 31
0.0
  0
LINE
  5
182
  8
1
  6
CONTINUOUS
 62
     7
 10
958.5459144583192
 20
-618.9585725993443
 30
0.0
 11
958.5778036917031
 21
-618.9685207974362
 31
0.0
  0
LINE
  5
183
  8
1
  6
CONTINUOUS
 62
     7
 10
958.5778036917031
 20
-618.9685207974362
 30
0.0
 11
958.6100276848723
 21
-618.9771167995153
 31
0.0
  0
LINE
  5
184
  8
1
  6
CONTINUOUS
 62
     7
 10
958.6100276848723
 20
-618.9771167995153
 30
0.0
 11
958.6475236125538
 21
-618.9853261991884
 31
0.0
  0
LINE
  5
185
  8
1
  6
CONTINUOUS
 62
     7
 10
958.6475236125538
 20
-618.9853261991884
 30
0.0
 11
958.6854015421064
 21
-618.9917299263523
 31
0.0
  0
LINE
  5
186
  8
1
  6
CONTINUOUS
 62
     7
 10
958.6854015421064
 20
-618.9917299263523
 30
0.0
 11
958.723528739331
 21
-618.9963172737667
 31
0.0
  0
LINE
  5
187
  8
1
  6
CONTINUOUS
 62
     7
 10
958.723528739331
 20
-618.9963172737667
 30
0.0
 11
958.7617724700283
 21
-618.9990775341914
 31
0.0
  0
LINE
  5
188
  8
1
  6
CONTINUOUS
 62
     7
 10
958.7617724700283
 20
-618.9990775341914
 30
0.0
 11
958.7999999999998
 21
-619.000000000386
 31
0.0
  0
LINE
  5
189
  8
1
  6
CONTINUOUS
 62
     7
 10
957.9999999999999
 20
-616.1948027106226
 30
0.0
 11
957.9999999999999
 21
-618.200000000386
 31
0.0
  0
ARC
  5
18A
  8
1
  6
CONTINUOUS
 62
     7
 10
957.4999999999998
 20
-619.5000000003291
 30
0.0
 40
3.342802585239462
 50
81.39769674404431
 51
98.60230325595559
  0
LINE
  5
18B
  8
1
  6
CONTINUOUS
 62
     7
 10
956.9999999999999
 20
-618.200000000386
 30
0.0
 11
956.9999999999999
 21
-616.1948027106228
 31
0.0
  0
LINE
  5
18C
  8
1
  6
CONTINUOUS
 62
     7
 10
956.1999999999999
 20
-619.000000000386
 30
0.0
 11
956.2327458993718
 21
-618.9993269576311
 31
0.0
  0
LINE
  5
18D
  8
1
  6
CONTINUOUS
 62
     7
 10
956.2327458993718
 20
-618.9993269576311
 30
0.0
 11
956.2654921093687
 21
-618.9973101404272
 31
0.0
  0
LINE
  5
18E
  8
1
  6
CONTINUOUS
 62
     7
 10
956.2654921093687
 20
-618.9973101404272
 30
0.0
 11
956.2981554646457
 21
-618.993953015368
 31
0.0
  0
LINE
  5
18F
  8
1
  6
CONTINUOUS
 62
     7
 10
956.2981554646457
 20
-618.993953015368
 30
0.0
 11
956.3306527998583
 21
-618.9892590490463
 31
0.0
  0
LINE
  5
190
  8
1
  6
CONTINUOUS
 62
     7
 10
956.3306527998583
 20
-618.9892590490463
 30
0.0
 11
956.363877292254
 21
-618.9830322090883
 31
0.0
  0
LINE
  5
191
  8
1
  6
CONTINUOUS
 62
     7
 10
956.363877292254
 20
-618.9830322090883
 30
0.0
 11
956.3968654099315
 21
-618.97539376579
 31
0.0
  0
LINE
  5
192
  8
1
  6
CONTINUOUS
 62
     7
 10
956.3968654099315
 20
-618.97539376579
 30
0.0
 11
956.4295266234531
 21
-618.9663633233765
 31
0.0
  0
LINE
  5
193
  8
1
  6
CONTINUOUS
 62
     7
 10
956.4295266234531
 20
-618.9663633233765
 30
0.0
 11
956.461770403381
 21
-618.9559604860722
 31
0.0
  0
LINE
  5
194
  8
1
  6
CONTINUOUS
 62
     7
 10
956.461770403381
 20
-618.9559604860722
 30
0.0
 11
956.4927130352459
 21
-618.9445230994178
 31
0.0
  0
LINE
  5
195
  8
1
  6
CONTINUOUS
 62
     7
 10
956.4927130352459
 20
-618.9445230994178
 30
0.0
 11
956.5232034365416
 21
-618.9318002850869
 31
0.0
  0
LINE
  5
196
  8
1
  6
CONTINUOUS
 62
     7
 10
956.5232034365416
 20
-618.9318002850869
 30
0.0
 11
956.5531611818114
 21
-618.9178250140836
 31
0.0
  0
LINE
  5
197
  8
1
  6
CONTINUOUS
 62
     7
 10
956.5531611818114
 20
-618.9178250140836
 30
0.0
 11
956.5825058455983
 21
-618.9026302574125
 31
0.0
  0
LINE
  5
198
  8
1
  6
CONTINUOUS
 62
     7
 10
956.5825058455983
 20
-618.9026302574125
 30
0.0
 11
956.6120502260187
 21
-618.8857182499506
 31
0.0
  0
LINE
  5
199
  8
1
  6
CONTINUOUS
 62
     7
 10
956.6120502260187
 20
-618.8857182499506
 30
0.0
 11
956.6408872498739
 21
-618.8675397943645
 31
0.0
  0
LINE
  5
19A
  8
1
  6
CONTINUOUS
 62
     7
 10
956.6408872498739
 20
-618.8675397943645
 30
0.0
 11
956.6689359118474
 21
-618.8481466043709
 31
0.0
  0
LINE
  5
19B
  8
1
  6
CONTINUOUS
 62
     7
 10
956.6689359118474
 20
-618.8481466043709
 30
0.0
 11
956.6961152066228
 21
-618.8275903936869
 31
0.0
  0
LINE
  5
19C
  8
1
  6
CONTINUOUS
 62
     7
 10
956.6961152066228
 20
-618.8275903936869
 30
0.0
 11
956.721376095896
 21
-618.8067640328135
 31
0.0
  0
LINE
  5
19D
  8
1
  6
CONTINUOUS
 62
     7
 10
956.721376095896
 20
-618.8067640328135
 30
0.0
 11
956.7457880846138
 21
-618.7848996370928
 31
0.0
  0
LINE
  5
19E
  8
1
  6
CONTINUOUS
 62
     7
 10
956.7457880846138
 20
-618.7848996370928
 30
0.0
 11
956.769288399929
 21
-618.7620554625746
 31
0.0
  0
LINE
  5
19F
  8
1
  6
CONTINUOUS
 62
     7
 10
956.769288399929
 20
-618.7620554625746
 30
0.0
 11
956.7918142689944
 21
-618.7382897653081
 31
0.0
  0
LINE
  5
1A0
  8
1
  6
CONTINUOUS
 62
     7
 10
956.7918142689944
 20
-618.7382897653081
 30
0.0
 11
956.8139591204791
 21
-618.7128833266917
 31
0.0
  0
LINE
  5
1A1
  8
1
  6
CONTINUOUS
 62
     7
 10
956.8139591204791
 20
-618.7128833266917
 30
0.0
 11
956.8350305195326
 21
-618.6865465416389
 31
0.0
  0
LINE
  5
1A2
  8
1
  6
CONTINUOUS
 62
     7
 10
956.8350305195326
 20
-618.6865465416389
 30
0.0
 11
956.8549725525588
 21
-618.6593539613516
 31
0.0
  0
LINE
  5
1A3
  8
1
  6
CONTINUOUS
 62
     7
 10
956.8549725525588
 20
-618.6593539613516
 30
0.0
 11
956.8737293059614
 21
-618.6313801370319
 31
0.0
  0
LINE
  5
1A4
  8
1
  6
CONTINUOUS
 62
     7
 10
956.8737293059614
 20
-618.6313801370319
 30
0.0
 11
956.890719866006
 21
-618.6036110281593
 31
0.0
  0
LINE
  5
1A5
  8
1
  6
CONTINUOUS
 62
     7
 10
956.890719866006
 20
-618.6036110281593
 30
0.0
 11
956.906573866441
 21
-618.5751611517641
 31
0.0
  0
LINE
  5
1A6
  8
1
  6
CONTINUOUS
 62
     7
 10
956.906573866441
 20
-618.5751611517641
 30
0.0
 11
956.9212538261211
 21
-618.5461050563662
 31
0.0
  0
LINE
  5
1A7
  8
1
  6
CONTINUOUS
 62
     7
 10
956.9212538261211
 20
-618.5461050563662
 30
0.0
 11
956.9347222638997
 21
-618.5165172904858
 31
0.0
  0
LINE
  5
1A8
  8
1
  6
CONTINUOUS
 62
     7
 10
956.9347222638997
 20
-618.5165172904858
 30
0.0
 11
956.9472978671419
 21
-618.4855544059195
 31
0.0
  0
LINE
  5
1A9
  8
1
  6
CONTINUOUS
 62
     7
 10
956.9472978671419
 20
-618.4855544059195
 30
0.0
 11
956.9585725989549
 21
-618.4540855420698
 31
0.0
  0
LINE
  5
1AA
  8
1
  6
CONTINUOUS
 62
     7
 10
956.9585725989549
 20
-618.4540855420698
 30
0.0
 11
956.9685207970471
 21
-618.4221963086858
 31
0.0
  0
LINE
  5
1AB
  8
1
  6
CONTINUOUS
 62
     7
 10
956.9685207970471
 20
-618.4221963086858
 30
0.0
 11
956.9771167991267
 21
-618.389972315516
 31
0.0
  0
LINE
  5
1AC
  8
1
  6
CONTINUOUS
 62
     7
 10
956.9771167991267
 20
-618.389972315516
 30
0.0
 11
956.9853261988002
 21
-618.352476387834
 31
0.0
  0
LINE
  5
1AD
  8
1
  6
CONTINUOUS
 62
     7
 10
956.9853261988002
 20
-618.352476387834
 30
0.0
 11
956.9917299259647
 21
-618.314598458281
 31
0.0
  0
LINE
  5
1AE
  8
1
  6
CONTINUOUS
 62
     7
 10
956.9917299259647
 20
-618.314598458281
 30
0.0
 11
956.9963172733795
 21
-618.276471261056
 31
0.0
  0
LINE
  5
1AF
  8
1
  6
CONTINUOUS
 62
     7
 10
956.9963172733795
 20
-618.276471261056
 30
0.0
 11
956.9990775338049
 21
-618.2382275303579
 31
0.0
  0
LINE
  5
1B0
  8
1
  6
CONTINUOUS
 62
     7
 10
956.9990775338049
 20
-618.2382275303579
 30
0.0
 11
956.9999999999999
 21
-618.200000000386
 31
0.0
  0
LINE
  5
1B1
  8
1
  6
CONTINUOUS
 62
     7
 10
954.1948027102933
 20
-618.9999999994197
 30
0.0
 11
956.1999999999999
 21
-618.9999999994197
 31
0.0
  0
ARC
  5
1B2
  8
1
  6
CONTINUOUS
 62
     7
 10
957.4999999999998
 20
-619.5000000003291
 30
0.0
 40
3.342802585239368
 50
171.3976967440445
 51
188.6023032559557
  0
LINE
  5
1B3
  8
1
  6
CONTINUOUS
 62
     7
 10
956.1999999999999
 20
-619.9999999994197
 30
0.0
 11
954.1948027102935
 21
-619.9999999994197
 31
0.0
  0
LINE
  5
1B4
  8
1
  6
CONTINUOUS
 62
     7
 10
956.9999999999999
 20
-620.8000000003859
 30
0.0
 11
956.9993269572443
 21
-620.7672541010146
 31
0.0
  0
LINE
  5
1B5
  8
1
  6
CONTINUOUS
 62
     7
 10
956.9993269572443
 20
-620.7672541010146
 30
0.0
 11
956.9973101400402
 21
-620.7345078910182
 31
0.0
  0
LINE
  5
1B6
  8
1
  6
CONTINUOUS
 62
     7
 10
956.9973101400402
 20
-620.7345078910182
 30
0.0
 11
956.9939530149804
 21
-620.7018445357415
 31
0.0
  0
LINE
  5
1B7
  8
1
  6
CONTINUOUS
 62
     7
 10
956.9939530149804
 20
-620.7018445357415
 30
0.0
 11
956.9892590486584
 21
-620.6693472005294
 31
0.0
  0
LINE
  5
1B8
  8
1
  6
CONTINUOUS
 62
     7
 10
956.9892590486584
 20
-620.6693472005294
 30
0.0
 11
956.9830322086998
 21
-620.6361227081342
 31
0.0
  0
LINE
  5
1B9
  8
1
  6
CONTINUOUS
 62
     7
 10
956.9830322086998
 20
-620.6361227081342
 30
0.0
 11
956.9753937654012
 21
-620.603134590457
 31
0.0
  0
LINE
  5
1BA
  8
1
  6
CONTINUOUS
 62
     7
 10
956.9753937654012
 20
-620.603134590457
 30
0.0
 11
956.9663633229873
 21
-620.5704733769359
 31
0.0
  0
LINE
  5
1BB
  8
1
  6
CONTINUOUS
 62
     7
 10
956.9663633229873
 20
-620.5704733769359
 30
0.0
 11
956.9559604856826
 21
-620.5382295970082
 31
0.0
  0
LINE
  5
1BC
  8
1
  6
CONTINUOUS
 62
     7
 10
956.9559604856826
 20
-620.5382295970082
 30
0.0
 11
956.9445230990281
 21
-620.5072869651435
 31
0.0
  0
LINE
  5
1BD
  8
1
  6
CONTINUOUS
 62
     7
 10
956.9445230990281
 20
-620.5072869651435
 30
0.0
 11
956.9318002846967
 21
-620.4767965638481
 31
0.0
  0
LINE
  5
1BE
  8
1
  6
CONTINUOUS
 62
     7
 10
956.9318002846967
 20
-620.4767965638481
 30
0.0
 11
956.9178250136933
 21
-620.4468388185786
 31
0.0
  0
LINE
  5
1BF
  8
1
  6
CONTINUOUS
 62
     7
 10
956.9178250136933
 20
-620.4468388185786
 30
0.0
 11
956.902630257022
 21
-620.4174941547919
 31
0.0
  0
LINE
  5
1C0
  8
1
  6
CONTINUOUS
 62
     7
 10
956.902630257022
 20
-620.4174941547919
 30
0.0
 11
956.88571824956
 21
-620.3879497743717
 31
0.0
  0
LINE
  5
1C1
  8
1
  6
CONTINUOUS
 62
     7
 10
956.88571824956
 20
-620.3879497743717
 30
0.0
 11
956.8675397939736
 21
-620.3591127505168
 31
0.0
  0
LINE
  5
1C2
  8
1
  6
CONTINUOUS
 62
     7
 10
956.8675397939736
 20
-620.3591127505168
 30
0.0
 11
956.84814660398
 21
-620.3310640885433
 31
0.0
  0
LINE
  5
1C3
  8
1
  6
CONTINUOUS
 62
     7
 10
956.84814660398
 20
-620.3310640885433
 30
0.0
 11
956.8275903932958
 21
-620.3038847937679
 31
0.0
  0
LINE
  5
1C4
  8
1
  6
CONTINUOUS
 62
     7
 10
956.8275903932958
 20
-620.3038847937679
 30
0.0
 11
956.8067640324223
 21
-620.2786239044951
 31
0.0
  0
LINE
  5
1C5
  8
1
  6
CONTINUOUS
 62
     7
 10
956.8067640324223
 20
-620.2786239044951
 30
0.0
 11
956.7848996367017
 21
-620.2542119157773
 31
0.0
  0
LINE
  5
1C6
  8
1
  6
CONTINUOUS
 62
     7
 10
956.7848996367017
 20
-620.2542119157773
 30
0.0
 11
956.7620554621832
 21
-620.230711600462
 31
0.0
  0
LINE
  5
1C7
  8
1
  6
CONTINUOUS
 62
     7
 10
956.7620554621832
 20
-620.230711600462
 30
0.0
 11
956.7382897649168
 21
-620.2081857313965
 31
0.0
  0
LINE
  5
1C8
  8
1
  6
CONTINUOUS
 62
     7
 10
956.7382897649168
 20
-620.2081857313965
 30
0.0
 11
956.7128833263006
 21
-620.186040879912
 31
0.0
  0
LINE
  5
1C9
  8
1
  6
CONTINUOUS
 62
     7
 10
956.7128833263006
 20
-620.186040879912
 30
0.0
 11
956.6865465412477
 21
-620.1649694808582
 31
0.0
  0
LINE
  5
1CA
  8
1
  6
CONTINUOUS
 62
     7
 10
956.6865465412477
 20
-620.1649694808582
 30
0.0
 11
956.6593539609606
 21
-620.1450274478319
 31
0.0
  0
LINE
  5
1CB
  8
1
  6
CONTINUOUS
 62
     7
 10
956.6593539609606
 20
-620.1450274478319
 30
0.0
 11
956.631380136641
 21
-620.1262706944292
 31
0.0
  0
LINE
  5
1CC
  8
1
  6
CONTINUOUS
 62
     7
 10
956.631380136641
 20
-620.1262706944292
 30
0.0
 11
956.6036110277687
 21
-620.1092801343846
 31
0.0
  0
LINE
  5
1CD
  8
1
  6
CONTINUOUS
 62
     7
 10
956.6036110277687
 20
-620.1092801343846
 30
0.0
 11
956.5751611513735
 21
-620.0934261339492
 31
0.0
  0
LINE
  5
1CE
  8
1
  6
CONTINUOUS
 62
     7
 10
956.5751611513735
 20
-620.0934261339492
 30
0.0
 11
956.546105055976
 21
-620.0787461742689
 31
0.0
  0
LINE
  5
1CF
  8
1
  6
CONTINUOUS
 62
     7
 10
956.546105055976
 20
-620.0787461742689
 30
0.0
 11
956.516517290096
 21
-620.0652777364899
 31
0.0
  0
LINE
  5
1D0
  8
1
  6
CONTINUOUS
 62
     7
 10
956.516517290096
 20
-620.0652777364899
 30
0.0
 11
956.4855544055299
 21
-620.0527021332476
 31
0.0
  0
LINE
  5
1D1
  8
1
  6
CONTINUOUS
 62
     7
 10
956.4855544055299
 20
-620.0527021332476
 30
0.0
 11
956.4540855416806
 21
-620.0414274014342
 31
0.0
  0
LINE
  5
1D2
  8
1
  6
CONTINUOUS
 62
     7
 10
956.4540855416806
 20
-620.0414274014342
 30
0.0
 11
956.4221963082966
 21
-620.0314792033416
 31
0.0
  0
LINE
  5
1D3
  8
1
  6
CONTINUOUS
 62
     7
 10
956.4221963082966
 20
-620.0314792033416
 30
0.0
 11
956.3899723151275
 21
-620.0228832012617
 31
0.0
  0
LINE
  5
1D4
  8
1
  6
CONTINUOUS
 62
     7
 10
956.3899723151275
 20
-620.0228832012617
 30
0.0
 11
956.3524763874458
 21
-620.0146738015878
 31
0.0
  0
LINE
  5
1D5
  8
1
  6
CONTINUOUS
 62
     7
 10
956.3524763874458
 20
-620.0146738015878
 30
0.0
 11
956.3145984578933
 21
-620.008270074423
 31
0.0
  0
LINE
  5
1D6
  8
1
  6
CONTINUOUS
 62
     7
 10
956.3145984578933
 20
-620.008270074423
 30
0.0
 11
956.2764712606688
 21
-620.0036827270075
 31
0.0
  0
LINE
  5
1D7
  8
1
  6
CONTINUOUS
 62
     7
 10
956.2764712606688
 20
-620.0036827270075
 30
0.0
 11
956.2382275299713
 21
-620.0009224665816
 31
0.0
  0
LINE
  5
1D8
  8
1
  6
CONTINUOUS
 62
     7
 10
956.2382275299713
 20
-620.0009224665816
 30
0.0
 11
956.1999999999999
 21
-620.000000000386
 31
0.0
  0
LINE
  5
1D9
  8
1
  6
CONTINUOUS
 62
     7
 10
956.9999999999999
 20
-622.8051972900356
 30
0.0
 11
956.9999999999999
 21
-620.8000000003859
 31
0.0
  0
ARC
  5
1DA
  8
1
  6
CONTINUOUS
 62
     7
 10
957.4999999999998
 20
-619.5000000003291
 30
0.0
 40
3.342802585239494
 50
261.3976967440444
 51
278.6023032559556
  0
LINE
  5
1DB
  8
1
  6
CONTINUOUS
 62
     7
 10
957.9999999999999
 20
-620.8000000003859
 30
0.0
 11
957.9999999999999
 21
-622.8051972900356
 31
0.0
  0
LINE
  5
1DC
  8
1
  6
CONTINUOUS
 62
     7
 10
958.7999999999998
 20
-620.000000000386
 30
0.0
 11
958.767254100628
 21
-620.000673043142
 31
0.0
  0
LINE
  5
1DD
  8
1
  6
CONTINUOUS
 62
     7
 10
958.767254100628
 20
-620.000673043142
 30
0.0
 11
958.7345078906311
 21
-620.0026898603467
 31
0.0
  0
LINE
  5
1DE
  8
1
  6
CONTINUOUS
 62
     7
 10
958.7345078906311
 20
-620.0026898603467
 30
0.0
 11
958.7018445353539
 21
-620.0060469854069
 31
0.0
  0
LINE
  5
1DF
  8
1
  6
CONTINUOUS
 62
     7
 10
958.7018445353539
 20
-620.0060469854069
 30
0.0
 11
958.6693472001415
 21
-620.0107409517294
 31
0.0
  0
LINE
  5
1E0
  8
1
  6
CONTINUOUS
 62
     7
 10
958.6693472001415
 20
-620.0107409517294
 30
0.0
 11
958.6361227077458
 21
-620.0169677916883
 31
0.0
  0
LINE
  5
1E1
  8
1
  6
CONTINUOUS
 62
     7
 10
958.6361227077458
 20
-620.0169677916883
 30
0.0
 11
958.6031345900683
 21
-620.0246062349872
 31
0.0
  0
LINE
  5
1E2
  8
1
  6
CONTINUOUS
 62
     7
 10
958.6031345900683
 20
-620.0246062349872
 30
0.0
 11
958.5704733765467
 21
-620.0336366774015
 31
0.0
  0
LINE
  5
1E3
  8
1
  6
CONTINUOUS
 62
     7
 10
958.5704733765467
 20
-620.0336366774015
 30
0.0
 11
958.5382295966187
 21
-620.0440395147067
 31
0.0
  0
LINE
  5
1E4
  8
1
  6
CONTINUOUS
 62
     7
 10
958.5382295966187
 20
-620.0440395147067
 30
0.0
 11
958.5072869647537
 21
-620.0554769013615
 31
0.0
  0
LINE
  5
1E5
  8
1
  6
CONTINUOUS
 62
     7
 10
958.5072869647537
 20
-620.0554769013615
 30
0.0
 11
958.4767965634582
 21
-620.068199715693
 31
0.0
  0
LINE
  5
1E6
  8
1
  6
CONTINUOUS
 62
     7
 10
958.4767965634582
 20
-620.068199715693
 30
0.0
 11
958.4468388181883
 21
-620.0821749866967
 31
0.0
  0
LINE
  5
1E7
  8
1
  6
CONTINUOUS
 62
     7
 10
958.4468388181883
 20
-620.0821749866967
 30
0.0
 11
958.4174941544014
 21
-620.0973697433683
 31
0.0
  0
LINE
  5
1E8
  8
1
  6
CONTINUOUS
 62
     7
 10
958.4174941544014
 20
-620.0973697433683
 30
0.0
 11
958.3879497739811
 21
-620.1142817508305
 31
0.0
  0
LINE
  5
1E9
  8
1
  6
CONTINUOUS
 62
     7
 10
958.3879497739811
 20
-620.1142817508305
 30
0.0
 11
958.3591127501259
 21
-620.1324602064171
 31
0.0
  0
LINE
  5
1EA
  8
1
  6
CONTINUOUS
 62
     7
 10
958.3591127501259
 20
-620.1324602064171
 30
0.0
 11
958.3310640881524
 21
-620.1518533964108
 31
0.0
  0
LINE
  5
1EB
  8
1
  6
CONTINUOUS
 62
     7
 10
958.3310640881524
 20
-620.1518533964108
 30
0.0
 11
958.3038847933769
 21
-620.1724096070951
 31
0.0
  0
LINE
  5
1EC
  8
1
  6
CONTINUOUS
 62
     7
 10
958.3038847933769
 20
-620.1724096070951
 30
0.0
 11
958.2786239041038
 21
-620.1932359679686
 31
0.0
  0
LINE
  5
1ED
  8
1
  6
CONTINUOUS
 62
     7
 10
958.2786239041038
 20
-620.1932359679686
 30
0.0
 11
958.254211915386
 21
-620.2151003636893
 31
0.0
  0
LINE
  5
1EE
  8
1
  6
CONTINUOUS
 62
     7
 10
958.254211915386
 20
-620.2151003636893
 30
0.0
 11
958.2307116000708
 21
-620.2379445382077
 31
0.0
  0
LINE
  5
1EF
  8
1
  6
CONTINUOUS
 62
     7
 10
958.2307116000708
 20
-620.2379445382077
 30
0.0
 11
958.2081857310052
 21
-620.2617102354741
 31
0.0
  0
LINE
  5
1F0
  8
1
  6
CONTINUOUS
 62
     7
 10
958.2081857310052
 20
-620.2617102354741
 30
0.0
 11
958.1860408795206
 21
-620.2871166740903
 31
0.0
  0
LINE
  5
1F1
  8
1
  6
CONTINUOUS
 62
     7
 10
958.1860408795206
 20
-620.2871166740903
 30
0.0
 11
958.1649694804672
 21
-620.313453459143
 31
0.0
  0
LINE
  5
1F2
  8
1
  6
CONTINUOUS
 62
     7
 10
958.1649694804672
 20
-620.313453459143
 30
0.0
 11
958.145027447441
 21
-620.34064603943
 31
0.0
  0
LINE
  5
1F3
  8
1
  6
CONTINUOUS
 62
     7
 10
958.145027447441
 20
-620.34064603943
 30
0.0
 11
958.1262706940383
 21
-620.3686198637496
 31
0.0
  0
LINE
  5
1F4
  8
1
  6
CONTINUOUS
 62
     7
 10
958.1262706940383
 20
-620.3686198637496
 30
0.0
 11
958.1092801339938
 21
-620.3963889726218
 31
0.0
  0
LINE
  5
1F5
  8
1
  6
CONTINUOUS
 62
     7
 10
958.1092801339938
 20
-620.3963889726218
 30
0.0
 11
958.0934261335585
 21
-620.4248388490166
 31
0.0
  0
LINE
  5
1F6
  8
1
  6
CONTINUOUS
 62
     7
 10
958.0934261335585
 20
-620.4248388490166
 30
0.0
 11
958.0787461738787
 21
-620.4538949444141
 31
0.0
  0
LINE
  5
1F7
  8
1
  6
CONTINUOUS
 62
     7
 10
958.0787461738787
 20
-620.4538949444141
 30
0.0
 11
958.0652777360998
 21
-620.4834827102939
 31
0.0
  0
LINE
  5
1F8
  8
1
  6
CONTINUOUS
 62
     7
 10
958.0652777360998
 20
-620.4834827102939
 30
0.0
 11
958.0527021328579
 21
-620.5144455948597
 31
0.0
  0
LINE
  5
1F9
  8
1
  6
CONTINUOUS
 62
     7
 10
958.0527021328579
 20
-620.5144455948597
 30
0.0
 11
958.0414274010449
 21
-620.5459144587087
 31
0.0
  0
LINE
  5
1FA
  8
1
  6
CONTINUOUS
 62
     7
 10
958.0414274010449
 20
-620.5459144587087
 30
0.0
 11
958.0314792029527
 21
-620.5778036920922
 31
0.0
  0
LINE
  5
1FB
  8
1
  6
CONTINUOUS
 62
     7
 10
958.0314792029527
 20
-620.5778036920922
 30
0.0
 11
958.022883200873
 21
-620.6100276852611
 31
0.0
  0
LINE
  5
1FC
  8
1
  6
CONTINUOUS
 62
     7
 10
958.022883200873
 20
-620.6100276852611
 30
0.0
 11
958.0146738011996
 21
-620.647523612942
 31
0.0
  0
LINE
  5
1FD
  8
1
  6
CONTINUOUS
 62
     7
 10
958.0146738011996
 20
-620.647523612942
 30
0.0
 11
958.0082700740351
 21
-620.6854015424942
 31
0.0
  0
LINE
  5
1FE
  8
1
  6
CONTINUOUS
 62
     7
 10
958.0082700740351
 20
-620.6854015424942
 30
0.0
 11
958.0036827266202
 21
-620.7235287397182
 31
0.0
  0
LINE
  5
1FF
  8
1
  6
CONTINUOUS
 62
     7
 10
958.0036827266202
 20
-620.7235287397182
 30
0.0
 11
958.0009224661949
 21
-620.761772470415
 31
0.0
  0
LINE
  5
200
  8
1
  6
CONTINUOUS
 62
     7
 10
958.0009224661949
 20
-620.761772470415
 30
0.0
 11
957.9999999999999
 21
-620.8000000003859
 31
0.0
  0
LINE
  5
201
  8
1
  6
CONTINUOUS
 62
     7
 10
960.8051972897063
 20
-619.9999999994197
 30
0.0
 11
958.7999999999998
 21
-619.9999999994197
 31
0.0
  0
ARC
  5
202
  8
1
  6
CONTINUOUS
 62
     7
 10
957.4999999999998
 20
-619.5000000003291
 30
0.0
 40
3.342802585239571
 50
351.3976967440442
 51
8.602303255955405
  0
CIRCLE
  5
203
  8
1
  6
CONTINUOUS
 62
     7
 10
917.4999999999998
 20
-619.500000000044
 30
0.0
 40
7.000000000000117
  0
LINE
  5
204
  8
1
  6
CONTINUOUS
 62
     7
 10
914.1948027102933
 20
-619.9999999994193
 30
0.0
 11
916.1999999999998
 21
-619.9999999994193
 31
0.0
  0
LINE
  5
205
  8
1
  6
CONTINUOUS
 62
     7
 10
916.1999999999998
 20
-620.0000000003854
 30
0.0
 11
916.2327458993715
 21
-620.0006730431414
 31
0.0
  0
LINE
  5
206
  8
1
  6
CONTINUOUS
 62
     7
 10
916.2327458993715
 20
-620.0006730431414
 30
0.0
 11
916.2654921093684
 21
-620.0026898603461
 31
0.0
  0
LINE
  5
207
  8
1
  6
CONTINUOUS
 62
     7
 10
916.2654921093684
 20
-620.0026898603461
 30
0.0
 11
916.2981554646457
 21
-620.0060469854064
 31
0.0
  0
LINE
  5
208
  8
1
  6
CONTINUOUS
 62
     7
 10
916.2981554646457
 20
-620.0060469854064
 30
0.0
 11
916.3306527998583
 21
-620.010740951729
 31
0.0
  0
LINE
  5
209
  8
1
  6
CONTINUOUS
 62
     7
 10
916.3306527998583
 20
-620.010740951729
 30
0.0
 11
916.3638772922537
 21
-620.0169677916878
 31
0.0
  0
LINE
  5
20A
  8
1
  6
CONTINUOUS
 62
     7
 10
916.3638772922537
 20
-620.0169677916878
 30
0.0
 11
916.3968654099314
 21
-620.0246062349868
 31
0.0
  0
LINE
  5
20B
  8
1
  6
CONTINUOUS
 62
     7
 10
916.3968654099314
 20
-620.0246062349868
 30
0.0
 11
916.429526623453
 21
-620.0336366774011
 31
0.0
  0
LINE
  5
20C
  8
1
  6
CONTINUOUS
 62
     7
 10
916.429526623453
 20
-620.0336366774011
 30
0.0
 11
916.4617704033809
 21
-620.0440395147061
 31
0.0
  0
LINE
  5
20D
  8
1
  6
CONTINUOUS
 62
     7
 10
916.4617704033809
 20
-620.0440395147061
 30
0.0
 11
916.4927130352459
 21
-620.055476901361
 31
0.0
  0
LINE
  5
20E
  8
1
  6
CONTINUOUS
 62
     7
 10
916.4927130352459
 20
-620.055476901361
 30
0.0
 11
916.5232034365416
 21
-620.0681997156925
 31
0.0
  0
LINE
  5
20F
  8
1
  6
CONTINUOUS
 62
     7
 10
916.5232034365416
 20
-620.0681997156925
 30
0.0
 11
916.5531611818112
 21
-620.0821749866963
 31
0.0
  0
LINE
  5
210
  8
1
  6
CONTINUOUS
 62
     7
 10
916.5531611818112
 20
-620.0821749866963
 30
0.0
 11
916.5825058455981
 21
-620.0973697433677
 31
0.0
  0
LINE
  5
211
  8
1
  6
CONTINUOUS
 62
     7
 10
916.5825058455981
 20
-620.0973697433677
 30
0.0
 11
916.6120502260186
 21
-620.1142817508301
 31
0.0
  0
LINE
  5
212
  8
1
  6
CONTINUOUS
 62
     7
 10
916.6120502260186
 20
-620.1142817508301
 30
0.0
 11
916.6408872498738
 21
-620.1324602064167
 31
0.0
  0
LINE
  5
213
  8
1
  6
CONTINUOUS
 62
     7
 10
916.6408872498738
 20
-620.1324602064167
 30
0.0
 11
916.6689359118473
 21
-620.1518533964104
 31
0.0
  0
LINE
  5
214
  8
1
  6
CONTINUOUS
 62
     7
 10
916.6689359118473
 20
-620.1518533964104
 30
0.0
 11
916.6961152066227
 21
-620.1724096070946
 31
0.0
  0
LINE
  5
215
  8
1
  6
CONTINUOUS
 62
     7
 10
916.6961152066227
 20
-620.1724096070946
 30
0.0
 11
916.7213760958956
 21
-620.193235967968
 31
0.0
  0
LINE
  5
216
  8
1
  6
CONTINUOUS
 62
     7
 10
916.7213760958956
 20
-620.193235967968
 30
0.0
 11
916.7457880846134
 21
-620.2151003636889
 31
0.0
  0
LINE
  5
217
  8
1
  6
CONTINUOUS
 62
     7
 10
916.7457880846134
 20
-620.2151003636889
 30
0.0
 11
916.769288399929
 21
-620.2379445382072
 31
0.0
  0
LINE
  5
218
  8
1
  6
CONTINUOUS
 62
     7
 10
916.769288399929
 20
-620.2379445382072
 30
0.0
 11
916.7918142689944
 21
-620.2617102354736
 31
0.0
  0
LINE
  5
219
  8
1
  6
CONTINUOUS
 62
     7
 10
916.7918142689944
 20
-620.2617102354736
 30
0.0
 11
916.8139591204789
 21
-620.2871166740898
 31
0.0
  0
LINE
  5
21A
  8
1
  6
CONTINUOUS
 62
     7
 10
916.8139591204789
 20
-620.2871166740898
 30
0.0
 11
916.8350305195324
 21
-620.3134534591426
 31
0.0
  0
LINE
  5
21B
  8
1
  6
CONTINUOUS
 62
     7
 10
916.8350305195324
 20
-620.3134534591426
 30
0.0
 11
916.8549725525586
 21
-620.3406460394297
 31
0.0
  0
LINE
  5
21C
  8
1
  6
CONTINUOUS
 62
     7
 10
916.8549725525586
 20
-620.3406460394297
 30
0.0
 11
916.8737293059613
 21
-620.368619863749
 31
0.0
  0
LINE
  5
21D
  8
1
  6
CONTINUOUS
 62
     7
 10
916.8737293059613
 20
-620.368619863749
 30
0.0
 11
916.8907198660056
 21
-620.3963889726213
 31
0.0
  0
LINE
  5
21E
  8
1
  6
CONTINUOUS
 62
     7
 10
916.8907198660056
 20
-620.3963889726213
 30
0.0
 11
916.906573866441
 21
-620.424838849016
 31
0.0
  0
LINE
  5
21F
  8
1
  6
CONTINUOUS
 62
     7
 10
916.906573866441
 20
-620.424838849016
 30
0.0
 11
916.9212538261211
 21
-620.4538949444135
 31
0.0
  0
LINE
  5
220
  8
1
  6
CONTINUOUS
 62
     7
 10
916.9212538261211
 20
-620.4538949444135
 30
0.0
 11
916.9347222638997
 21
-620.4834827102934
 31
0.0
  0
LINE
  5
221
  8
1
  6
CONTINUOUS
 62
     7
 10
916.9347222638997
 20
-620.4834827102934
 30
0.0
 11
916.9472978671416
 21
-620.5144455948591
 31
0.0
  0
LINE
  5
222
  8
1
  6
CONTINUOUS
 62
     7
 10
916.9472978671416
 20
-620.5144455948591
 30
0.0
 11
916.9585725989547
 21
-620.5459144587082
 31
0.0
  0
LINE
  5
223
  8
1
  6
CONTINUOUS
 62
     7
 10
916.9585725989547
 20
-620.5459144587082
 30
0.0
 11
916.9685207970471
 21
-620.5778036920917
 31
0.0
  0
LINE
  5
224
  8
1
  6
CONTINUOUS
 62
     7
 10
916.9685207970471
 20
-620.5778036920917
 30
0.0
 11
916.9771167991265
 21
-620.6100276852607
 31
0.0
  0
LINE
  5
225
  8
1
  6
CONTINUOUS
 62
     7
 10
916.9771167991265
 20
-620.6100276852607
 30
0.0
 11
916.9853261988001
 21
-620.6475236129417
 31
0.0
  0
LINE
  5
226
  8
1
  6
CONTINUOUS
 62
     7
 10
916.9853261988001
 20
-620.6475236129417
 30
0.0
 11
916.9917299259645
 21
-620.6854015424937
 31
0.0
  0
LINE
  5
227
  8
1
  6
CONTINUOUS
 62
     7
 10
916.9917299259645
 20
-620.6854015424937
 30
0.0
 11
916.9963172733793
 21
-620.7235287397177
 31
0.0
  0
LINE
  5
228
  8
1
  6
CONTINUOUS
 62
     7
 10
916.9963172733793
 20
-620.7235287397177
 30
0.0
 11
916.9990775338046
 21
-620.7617724704146
 31
0.0
  0
LINE
  5
229
  8
1
  6
CONTINUOUS
 62
     7
 10
916.9990775338046
 20
-620.7617724704146
 30
0.0
 11
916.9999999999998
 21
-620.8000000003855
 31
0.0
  0
LINE
  5
22A
  8
1
  6
CONTINUOUS
 62
     7
 10
916.9999999999998
 20
-620.8000000003855
 30
0.0
 11
916.9999999999998
 21
-622.8051972900352
 31
0.0
  0
ARC
  5
22B
  8
1
  6
CONTINUOUS
 62
     7
 10
917.4999999999998
 20
-619.5000000003287
 30
0.0
 40
3.342802585239478
 50
261.3976967440444
 51
278.6023032559556
  0
LINE
  5
22C
  8
1
  6
CONTINUOUS
 62
     7
 10
917.9999999999997
 20
-622.8051972900352
 30
0.0
 11
917.9999999999997
 21
-620.8000000003855
 31
0.0
  0
LINE
  5
22D
  8
1
  6
CONTINUOUS
 62
     7
 10
917.9999999999997
 20
-620.8000000003855
 30
0.0
 11
918.0006730427552
 21
-620.7672541010141
 31
0.0
  0
LINE
  5
22E
  8
1
  6
CONTINUOUS
 62
     7
 10
918.0006730427552
 20
-620.7672541010141
 30
0.0
 11
918.0026898599594
 21
-620.7345078910176
 31
0.0
  0
LINE
  5
22F
  8
1
  6
CONTINUOUS
 62
     7
 10
918.0026898599594
 20
-620.7345078910176
 30
0.0
 11
918.0060469850192
 21
-620.701844535741
 31
0.0
  0
LINE
  5
230
  8
1
  6
CONTINUOUS
 62
     7
 10
918.0060469850192
 20
-620.701844535741
 30
0.0
 11
918.0107409513414
 21
-620.6693472005289
 31
0.0
  0
LINE
  5
231
  8
1
  6
CONTINUOUS
 62
     7
 10
918.0107409513414
 20
-620.6693472005289
 30
0.0
 11
918.0169677912997
 21
-620.6361227081337
 31
0.0
  0
LINE
  5
232
  8
1
  6
CONTINUOUS
 62
     7
 10
918.0169677912997
 20
-620.6361227081337
 30
0.0
 11
918.0246062345983
 21
-620.6031345904565
 31
0.0
  0
LINE
  5
233
  8
1
  6
CONTINUOUS
 62
     7
 10
918.0246062345983
 20
-620.6031345904565
 30
0.0
 11
918.0336366770123
 21
-620.5704733769353
 31
0.0
  0
LINE
  5
234
  8
1
  6
CONTINUOUS
 62
     7
 10
918.0336366770123
 20
-620.5704733769353
 30
0.0
 11
918.044039514317
 21
-620.5382295970077
 31
0.0
  0
LINE
  5
235
  8
1
  6
CONTINUOUS
 62
     7
 10
918.044039514317
 20
-620.5382295970077
 30
0.0
 11
918.0554769009715
 21
-620.5072869651431
 31
0.0
  0
LINE
  5
236
  8
1
  6
CONTINUOUS
 62
     7
 10
918.0554769009715
 20
-620.5072869651431
 30
0.0
 11
918.0681997153029
 21
-620.4767965638476
 31
0.0
  0
LINE
  5
237
  8
1
  6
CONTINUOUS
 62
     7
 10
918.0681997153029
 20
-620.4767965638476
 30
0.0
 11
918.0821749863063
 21
-620.4468388185782
 31
0.0
  0
LINE
  5
238
  8
1
  6
CONTINUOUS
 62
     7
 10
918.0821749863063
 20
-620.4468388185782
 30
0.0
 11
918.0973697429775
 21
-620.4174941547914
 31
0.0
  0
LINE
  5
239
  8
1
  6
CONTINUOUS
 62
     7
 10
918.0973697429775
 20
-620.4174941547914
 30
0.0
 11
918.1142817504398
 21
-620.3879497743712
 31
0.0
  0
LINE
  5
23A
  8
1
  6
CONTINUOUS
 62
     7
 10
918.1142817504398
 20
-620.3879497743712
 30
0.0
 11
918.132460206026
 21
-620.3591127505163
 31
0.0
  0
LINE
  5
23B
  8
1
  6
CONTINUOUS
 62
     7
 10
918.132460206026
 20
-620.3591127505163
 30
0.0
 11
918.1518533960198
 21
-620.3310640885429
 31
0.0
  0
LINE
  5
23C
  8
1
  6
CONTINUOUS
 62
     7
 10
918.1518533960198
 20
-620.3310640885429
 30
0.0
 11
918.1724096067037
 21
-620.3038847937675
 31
0.0
  0
LINE
  5
23D
  8
1
  6
CONTINUOUS
 62
     7
 10
918.1724096067037
 20
-620.3038847937675
 30
0.0
 11
918.1932359675773
 21
-620.2786239044946
 31
0.0
  0
LINE
  5
23E
  8
1
  6
CONTINUOUS
 62
     7
 10
918.1932359675773
 20
-620.2786239044946
 30
0.0
 11
918.215100363298
 21
-620.2542119157768
 31
0.0
  0
LINE
  5
23F
  8
1
  6
CONTINUOUS
 62
     7
 10
918.215100363298
 20
-620.2542119157768
 30
0.0
 11
918.2379445378164
 21
-620.2307116004614
 31
0.0
  0
LINE
  5
240
  8
1
  6
CONTINUOUS
 62
     7
 10
918.2379445378164
 20
-620.2307116004614
 30
0.0
 11
918.2617102350828
 21
-620.208185731396
 31
0.0
  0
LINE
  5
241
  8
1
  6
CONTINUOUS
 62
     7
 10
918.2617102350828
 20
-620.208185731396
 30
0.0
 11
918.2871166736991
 21
-620.1860408799114
 31
0.0
  0
LINE
  5
242
  8
1
  6
CONTINUOUS
 62
     7
 10
918.2871166736991
 20
-620.1860408799114
 30
0.0
 11
918.3134534587518
 21
-620.1649694808577
 31
0.0
  0
LINE
  5
243
  8
1
  6
CONTINUOUS
 62
     7
 10
918.3134534587518
 20
-620.1649694808577
 30
0.0
 11
918.3406460390389
 21
-620.1450274478314
 31
0.0
  0
LINE
  5
244
  8
1
  6
CONTINUOUS
 62
     7
 10
918.3406460390389
 20
-620.1450274478314
 30
0.0
 11
918.3686198633586
 21
-620.1262706944286
 31
0.0
  0
LINE
  5
245
  8
1
  6
CONTINUOUS
 62
     7
 10
918.3686198633586
 20
-620.1262706944286
 30
0.0
 11
918.3963889722311
 21
-620.109280134384
 31
0.0
  0
LINE
  5
246
  8
1
  6
CONTINUOUS
 62
     7
 10
918.3963889722311
 20
-620.109280134384
 30
0.0
 11
918.424838848626
 21
-620.0934261339486
 31
0.0
  0
LINE
  5
247
  8
1
  6
CONTINUOUS
 62
     7
 10
918.424838848626
 20
-620.0934261339486
 30
0.0
 11
918.4538949440237
 21
-620.0787461742683
 31
0.0
  0
LINE
  5
248
  8
1
  6
CONTINUOUS
 62
     7
 10
918.4538949440237
 20
-620.0787461742683
 30
0.0
 11
918.4834827099038
 21
-620.0652777364894
 31
0.0
  0
LINE
  5
249
  8
1
  6
CONTINUOUS
 62
     7
 10
918.4834827099038
 20
-620.0652777364894
 30
0.0
 11
918.5144455944697
 21
-620.0527021332472
 31
0.0
  0
LINE
  5
24A
  8
1
  6
CONTINUOUS
 62
     7
 10
918.5144455944697
 20
-620.0527021332472
 30
0.0
 11
918.5459144583192
 21
-620.0414274014339
 31
0.0
  0
LINE
  5
24B
  8
1
  6
CONTINUOUS
 62
     7
 10
918.5459144583192
 20
-620.0414274014339
 30
0.0
 11
918.5778036917029
 21
-620.0314792033412
 31
0.0
  0
LINE
  5
24C
  8
1
  6
CONTINUOUS
 62
     7
 10
918.5778036917029
 20
-620.0314792033412
 30
0.0
 11
918.6100276848723
 21
-620.0228832012613
 31
0.0
  0
LINE
  5
24D
  8
1
  6
CONTINUOUS
 62
     7
 10
918.6100276848723
 20
-620.0228832012613
 30
0.0
 11
918.6475236125538
 21
-620.0146738015873
 31
0.0
  0
LINE
  5
24E
  8
1
  6
CONTINUOUS
 62
     7
 10
918.6475236125538
 20
-620.0146738015873
 30
0.0
 11
918.6854015421063
 21
-620.0082700744224
 31
0.0
  0
LINE
  5
24F
  8
1
  6
CONTINUOUS
 62
     7
 10
918.6854015421063
 20
-620.0082700744224
 30
0.0
 11
918.7235287393308
 21
-620.0036827270069
 31
0.0
  0
LINE
  5
250
  8
1
  6
CONTINUOUS
 62
     7
 10
918.7235287393308
 20
-620.0036827270069
 30
0.0
 11
918.7617724700283
 21
-620.0009224665812
 31
0.0
  0
LINE
  5
251
  8
1
  6
CONTINUOUS
 62
     7
 10
918.7617724700283
 20
-620.0009224665812
 30
0.0
 11
918.7999999999997
 21
-620.0000000003854
 31
0.0
  0
LINE
  5
252
  8
1
  6
CONTINUOUS
 62
     7
 10
918.7999999999997
 20
-619.9999999994193
 30
0.0
 11
920.8051972897063
 21
-619.9999999994193
 31
0.0
  0
ARC
  5
253
  8
1
  6
CONTINUOUS
 62
     7
 10
917.4999999999998
 20
-619.5000000003287
 30
0.0
 40
3.342802585239462
 50
351.3976967440444
 51
8.602303255955633
  0
LINE
  5
254
  8
1
  6
CONTINUOUS
 62
     7
 10
920.8051972897063
 20
-618.9999999994193
 30
0.0
 11
918.7999999999997
 21
-618.9999999994193
 31
0.0
  0
LINE
  5
255
  8
1
  6
CONTINUOUS
 62
     7
 10
918.7999999999997
 20
-619.0000000003854
 30
0.0
 11
918.7672541006278
 21
-618.9993269576305
 31
0.0
  0
LINE
  5
256
  8
1
  6
CONTINUOUS
 62
     7
 10
918.7672541006278
 20
-618.9993269576305
 30
0.0
 11
918.734507890631
 21
-618.9973101404267
 31
0.0
  0
LINE
  5
257
  8
1
  6
CONTINUOUS
 62
     7
 10
918.734507890631
 20
-618.9973101404267
 30
0.0
 11
918.7018445353539
 21
-618.9939530153674
 31
0.0
  0
LINE
  5
258
  8
1
  6
CONTINUOUS
 62
     7
 10
918.7018445353539
 20
-618.9939530153674
 30
0.0
 11
918.6693472001413
 21
-618.9892590490458
 31
0.0
  0
LINE
  5
259
  8
1
  6
CONTINUOUS
 62
     7
 10
918.6693472001413
 20
-618.9892590490458
 30
0.0
 11
918.6361227077456
 21
-618.9830322090877
 31
0.0
  0
LINE
  5
25A
  8
1
  6
CONTINUOUS
 62
     7
 10
918.6361227077456
 20
-618.9830322090877
 30
0.0
 11
918.6031345900682
 21
-618.9753937657896
 31
0.0
  0
LINE
  5
25B
  8
1
  6
CONTINUOUS
 62
     7
 10
918.6031345900682
 20
-618.9753937657896
 30
0.0
 11
918.5704733765465
 21
-618.966363323376
 31
0.0
  0
LINE
  5
25C
  8
1
  6
CONTINUOUS
 62
     7
 10
918.5704733765465
 20
-618.966363323376
 30
0.0
 11
918.5382295966185
 21
-618.9559604860716
 31
0.0
  0
LINE
  5
25D
  8
1
  6
CONTINUOUS
 62
     7
 10
918.5382295966185
 20
-618.9559604860716
 30
0.0
 11
918.5072869647537
 21
-618.9445230994172
 31
0.0
  0
LINE
  5
25E
  8
1
  6
CONTINUOUS
 62
     7
 10
918.5072869647537
 20
-618.9445230994172
 30
0.0
 11
918.4767965634579
 21
-618.9318002850863
 31
0.0
  0
LINE
  5
25F
  8
1
  6
CONTINUOUS
 62
     7
 10
918.4767965634579
 20
-618.9318002850863
 30
0.0
 11
918.4468388181882
 21
-618.9178250140831
 31
0.0
  0
LINE
  5
260
  8
1
  6
CONTINUOUS
 62
     7
 10
918.4468388181882
 20
-618.9178250140831
 30
0.0
 11
918.4174941544013
 21
-618.902630257412
 31
0.0
  0
LINE
  5
261
  8
1
  6
CONTINUOUS
 62
     7
 10
918.4174941544013
 20
-618.902630257412
 30
0.0
 11
918.3879497739808
 21
-618.8857182499501
 31
0.0
  0
LINE
  5
262
  8
1
  6
CONTINUOUS
 62
     7
 10
918.3879497739808
 20
-618.8857182499501
 30
0.0
 11
918.3591127501257
 21
-618.8675397943639
 31
0.0
  0
LINE
  5
263
  8
1
  6
CONTINUOUS
 62
     7
 10
918.3591127501257
 20
-618.8675397943639
 30
0.0
 11
918.3310640881522
 21
-618.8481466043704
 31
0.0
  0
LINE
  5
264
  8
1
  6
CONTINUOUS
 62
     7
 10
918.3310640881522
 20
-618.8481466043704
 30
0.0
 11
918.3038847933766
 21
-618.8275903936864
 31
0.0
  0
LINE
  5
265
  8
1
  6
CONTINUOUS
 62
     7
 10
918.3038847933766
 20
-618.8275903936864
 30
0.0
 11
918.2786239041038
 21
-618.8067640328131
 31
0.0
  0
LINE
  5
266
  8
1
  6
CONTINUOUS
 62
     7
 10
918.2786239041038
 20
-618.8067640328131
 30
0.0
 11
918.2542119153859
 21
-618.7848996370924
 31
0.0
  0
LINE
  5
267
  8
1
  6
CONTINUOUS
 62
     7
 10
918.2542119153859
 20
-618.7848996370924
 30
0.0
 11
918.2307116000705
 21
-618.762055462574
 31
0.0
  0
LINE
  5
268
  8
1
  6
CONTINUOUS
 62
     7
 10
918.2307116000705
 20
-618.762055462574
 30
0.0
 11
918.2081857310052
 21
-618.7382897653076
 31
0.0
  0
LINE
  5
269
  8
1
  6
CONTINUOUS
 62
     7
 10
918.2081857310052
 20
-618.7382897653076
 30
0.0
 11
918.1860408795205
 21
-618.7128833266912
 31
0.0
  0
LINE
  5
26A
  8
1
  6
CONTINUOUS
 62
     7
 10
918.1860408795205
 20
-618.7128833266912
 30
0.0
 11
918.164969480467
 21
-618.6865465416383
 31
0.0
  0
LINE
  5
26B
  8
1
  6
CONTINUOUS
 62
     7
 10
918.164969480467
 20
-618.6865465416383
 30
0.0
 11
918.1450274474408
 21
-618.659353961351
 31
0.0
  0
LINE
  5
26C
  8
1
  6
CONTINUOUS
 62
     7
 10
918.1450274474408
 20
-618.659353961351
 30
0.0
 11
918.1262706940381
 21
-618.6313801370313
 31
0.0
  0
LINE
  5
26D
  8
1
  6
CONTINUOUS
 62
     7
 10
918.1262706940381
 20
-618.6313801370313
 30
0.0
 11
918.1092801339937
 21
-618.6036110281588
 31
0.0
  0
LINE
  5
26E
  8
1
  6
CONTINUOUS
 62
     7
 10
918.1092801339937
 20
-618.6036110281588
 30
0.0
 11
918.0934261335585
 21
-618.5751611517636
 31
0.0
  0
LINE
  5
26F
  8
1
  6
CONTINUOUS
 62
     7
 10
918.0934261335585
 20
-618.5751611517636
 30
0.0
 11
918.0787461738784
 21
-618.5461050563657
 31
0.0
  0
LINE
  5
270
  8
1
  6
CONTINUOUS
 62
     7
 10
918.0787461738784
 20
-618.5461050563657
 30
0.0
 11
918.0652777360998
 21
-618.5165172904854
 31
0.0
  0
LINE
  5
271
  8
1
  6
CONTINUOUS
 62
     7
 10
918.0652777360998
 20
-618.5165172904854
 30
0.0
 11
918.0527021328578
 21
-618.4855544059191
 31
0.0
  0
LINE
  5
272
  8
1
  6
CONTINUOUS
 62
     7
 10
918.0527021328578
 20
-618.4855544059191
 30
0.0
 11
918.0414274010448
 21
-618.4540855420694
 31
0.0
  0
LINE
  5
273
  8
1
  6
CONTINUOUS
 62
     7
 10
918.0414274010448
 20
-618.4540855420694
 30
0.0
 11
918.0314792029525
 21
-618.4221963086852
 31
0.0
  0
LINE
  5
274
  8
1
  6
CONTINUOUS
 62
     7
 10
918.0314792029525
 20
-618.4221963086852
 30
0.0
 11
918.0228832008729
 21
-618.3899723155155
 31
0.0
  0
LINE
  5
275
  8
1
  6
CONTINUOUS
 62
     7
 10
918.0228832008729
 20
-618.3899723155155
 30
0.0
 11
918.0146738011994
 21
-618.3524763878336
 31
0.0
  0
LINE
  5
276
  8
1
  6
CONTINUOUS
 62
     7
 10
918.0146738011994
 20
-618.3524763878336
 30
0.0
 11
918.0082700740351
 21
-618.3145984582807
 31
0.0
  0
LINE
  5
277
  8
1
  6
CONTINUOUS
 62
     7
 10
918.0082700740351
 20
-618.3145984582807
 30
0.0
 11
918.00368272662
 21
-618.2764712610556
 31
0.0
  0
LINE
  5
278
  8
1
  6
CONTINUOUS
 62
     7
 10
918.00368272662
 20
-618.2764712610556
 30
0.0
 11
918.0009224661949
 21
-618.2382275303574
 31
0.0
  0
LINE
  5
279
  8
1
  6
CONTINUOUS
 62
     7
 10
918.0009224661949
 20
-618.2382275303574
 30
0.0
 11
917.9999999999997
 21
-618.2000000003854
 31
0.0
  0
LINE
  5
27A
  8
1
  6
CONTINUOUS
 62
     7
 10
917.9999999999997
 20
-618.2000000003856
 30
0.0
 11
917.9999999999997
 21
-616.1948027106221
 31
0.0
  0
ARC
  5
27B
  8
1
  6
CONTINUOUS
 62
     7
 10
917.4999999999998
 20
-619.5000000003287
 30
0.0
 40
3.342802585239462
 50
81.3976967440444
 51
98.6023032559557
  0
LINE
  5
27C
  8
1
  6
CONTINUOUS
 62
     7
 10
916.9999999999998
 20
-616.1948027106221
 30
0.0
 11
916.9999999999998
 21
-618.2000000003856
 31
0.0
  0
LINE
  5
27D
  8
1
  6
CONTINUOUS
 62
     7
 10
916.1999999999998
 20
-618.9999999994193
 30
0.0
 11
914.1948027102933
 21
-618.9999999994193
 31
0.0
  0
ARC
  5
27E
  8
1
  6
CONTINUOUS
 62
     7
 10
917.4999999999998
 20
-619.5000000003287
 30
0.0
 40
3.342802585239478
 50
171.3976967440446
 51
188.6023032559556
  0
LINE
  5
27F
  8
1
  6
CONTINUOUS
 62
     7
 10
916.9999999999997
 20
-618.2000000003856
 30
0.0
 11
916.9993269572443
 21
-618.2327458997578
 31
0.0
  0
LINE
  5
280
  8
1
  6
CONTINUOUS
 62
     7
 10
916.9993269572443
 20
-618.2327458997578
 30
0.0
 11
916.99731014004
 21
-618.2654921097552
 31
0.0
  0
LINE
  5
281
  8
1
  6
CONTINUOUS
 62
     7
 10
916.99731014004
 20
-618.2654921097552
 30
0.0
 11
916.9939530149803
 21
-618.2981554650329
 31
0.0
  0
LINE
  5
282
  8
1
  6
CONTINUOUS
 62
     7
 10
916.9939530149803
 20
-618.2981554650329
 30
0.0
 11
916.9892590486581
 21
-618.3306528002457
 31
0.0
  0
LINE
  5
283
  8
1
  6
CONTINUOUS
 62
     7
 10
916.9892590486581
 20
-618.3306528002457
 30
0.0
 11
916.9830322086997
 21
-618.3638772926419
 31
0.0
  0
LINE
  5
284
  8
1
  6
CONTINUOUS
 62
     7
 10
916.9830322086997
 20
-618.3638772926419
 30
0.0
 11
916.9753937654011
 21
-618.3968654103197
 31
0.0
  0
LINE
  5
285
  8
1
  6
CONTINUOUS
 62
     7
 10
916.9753937654011
 20
-618.3968654103197
 30
0.0
 11
916.9663633229871
 21
-618.4295266238418
 31
0.0
  0
LINE
  5
286
  8
1
  6
CONTINUOUS
 62
     7
 10
916.9663633229871
 20
-618.4295266238418
 30
0.0
 11
916.9559604856825
 21
-618.4617704037701
 31
0.0
  0
LINE
  5
287
  8
1
  6
CONTINUOUS
 62
     7
 10
916.9559604856825
 20
-618.4617704037701
 30
0.0
 11
916.944523099028
 21
-618.4927130356352
 31
0.0
  0
LINE
  5
288
  8
1
  6
CONTINUOUS
 62
     7
 10
916.944523099028
 20
-618.4927130356352
 30
0.0
 11
916.9318002846967
 21
-618.5232034369312
 31
0.0
  0
LINE
  5
289
  8
1
  6
CONTINUOUS
 62
     7
 10
916.9318002846967
 20
-618.5232034369312
 30
0.0
 11
916.9178250136932
 21
-618.5531611822013
 31
0.0
  0
LINE
  5
28A
  8
1
  6
CONTINUOUS
 62
     7
 10
916.9178250136932
 20
-618.5531611822013
 30
0.0
 11
916.9026302570219
 21
-618.5825058459884
 31
0.0
  0
LINE
  5
28B
  8
1
  6
CONTINUOUS
 62
     7
 10
916.9026302570219
 20
-618.5825058459884
 30
0.0
 11
916.8857182495598
 21
-618.612050226409
 31
0.0
  0
LINE
  5
28C
  8
1
  6
CONTINUOUS
 62
     7
 10
916.8857182495598
 20
-618.612050226409
 30
0.0
 11
916.8675397939734
 21
-618.6408872502642
 31
0.0
  0
LINE
  5
28D
  8
1
  6
CONTINUOUS
 62
     7
 10
916.8675397939734
 20
-618.6408872502642
 30
0.0
 11
916.8481466039797
 21
-618.6689359122379
 31
0.0
  0
LINE
  5
28E
  8
1
  6
CONTINUOUS
 62
     7
 10
916.8481466039797
 20
-618.6689359122379
 30
0.0
 11
916.8275903932957
 21
-618.6961152070135
 31
0.0
  0
LINE
  5
28F
  8
1
  6
CONTINUOUS
 62
     7
 10
916.8275903932957
 20
-618.6961152070135
 30
0.0
 11
916.8067640324222
 21
-618.7213760962863
 31
0.0
  0
LINE
  5
290
  8
1
  6
CONTINUOUS
 62
     7
 10
916.8067640324222
 20
-618.7213760962863
 30
0.0
 11
916.7848996367015
 21
-618.7457880850044
 31
0.0
  0
LINE
  5
291
  8
1
  6
CONTINUOUS
 62
     7
 10
916.7848996367015
 20
-618.7457880850044
 30
0.0
 11
916.7620554621831
 21
-618.7692884003197
 31
0.0
  0
LINE
  5
292
  8
1
  6
CONTINUOUS
 62
     7
 10
916.7620554621831
 20
-618.7692884003197
 30
0.0
 11
916.7382897649168
 21
-618.7918142693852
 31
0.0
  0
LINE
  5
293
  8
1
  6
CONTINUOUS
 62
     7
 10
916.7382897649168
 20
-618.7918142693852
 30
0.0
 11
916.7128833263004
 21
-618.8139591208696
 31
0.0
  0
LINE
  5
294
  8
1
  6
CONTINUOUS
 62
     7
 10
916.7128833263004
 20
-618.8139591208696
 30
0.0
 11
916.6865465412477
 21
-618.8350305199232
 31
0.0
  0
LINE
  5
295
  8
1
  6
CONTINUOUS
 62
     7
 10
916.6865465412477
 20
-618.8350305199232
 30
0.0
 11
916.6593539609604
 21
-618.8549725529493
 31
0.0
  0
LINE
  5
296
  8
1
  6
CONTINUOUS
 62
     7
 10
916.6593539609604
 20
-618.8549725529493
 30
0.0
 11
916.6313801366409
 21
-618.8737293063517
 31
0.0
  0
LINE
  5
297
  8
1
  6
CONTINUOUS
 62
     7
 10
916.6313801366409
 20
-618.8737293063517
 30
0.0
 11
916.6036110277685
 21
-618.890719866396
 31
0.0
  0
LINE
  5
298
  8
1
  6
CONTINUOUS
 62
     7
 10
916.6036110277685
 20
-618.890719866396
 30
0.0
 11
916.5751611513733
 21
-618.9065738668311
 31
0.0
  0
LINE
  5
299
  8
1
  6
CONTINUOUS
 62
     7
 10
916.5751611513733
 20
-618.9065738668311
 30
0.0
 11
916.5461050559759
 21
-618.9212538265109
 31
0.0
  0
LINE
  5
29A
  8
1
  6
CONTINUOUS
 62
     7
 10
916.5461050559759
 20
-618.9212538265109
 30
0.0
 11
916.5165172900957
 21
-618.9347222642893
 31
0.0
  0
LINE
  5
29B
  8
1
  6
CONTINUOUS
 62
     7
 10
916.5165172900957
 20
-618.9347222642893
 30
0.0
 11
916.4855544055297
 21
-618.947297867531
 31
0.0
  0
LINE
  5
29C
  8
1
  6
CONTINUOUS
 62
     7
 10
916.4855544055297
 20
-618.947297867531
 30
0.0
 11
916.4540855416802
 21
-618.9585725993437
 31
0.0
  0
LINE
  5
29D
  8
1
  6
CONTINUOUS
 62
     7
 10
916.4540855416802
 20
-618.9585725993437
 30
0.0
 11
916.4221963082965
 21
-618.9685207974356
 31
0.0
  0
LINE
  5
29E
  8
1
  6
CONTINUOUS
 62
     7
 10
916.4221963082965
 20
-618.9685207974356
 30
0.0
 11
916.3899723151271
 21
-618.9771167995149
 31
0.0
  0
LINE
  5
29F
  8
1
  6
CONTINUOUS
 62
     7
 10
916.3899723151271
 20
-618.9771167995149
 30
0.0
 11
916.3524763874458
 21
-618.985326199188
 31
0.0
  0
LINE
  5
2A0
  8
1
  6
CONTINUOUS
 62
     7
 10
916.3524763874458
 20
-618.985326199188
 30
0.0
 11
916.3145984578932
 21
-618.9917299263518
 31
0.0
  0
LINE
  5
2A1
  8
1
  6
CONTINUOUS
 62
     7
 10
916.3145984578932
 20
-618.9917299263518
 30
0.0
 11
916.2764712606687
 21
-618.9963172737662
 31
0.0
  0
LINE
  5
2A2
  8
1
  6
CONTINUOUS
 62
     7
 10
916.2764712606687
 20
-618.9963172737662
 30
0.0
 11
916.2382275299711
 21
-618.9990775341909
 31
0.0
  0
LINE
  5
2A3
  8
1
  6
CONTINUOUS
 62
     7
 10
916.2382275299711
 20
-618.9990775341909
 30
0.0
 11
916.1999999999998
 21
-619.0000000003854
 31
0.0
  0
LINE
  5
2A4
  8
1
  6
CONTINUOUS
 62
     7
 10
905.0000000015805
 20
-669.499999997928
 30
0.0
 11
905.000000001708
 21
-667.499999997928
 31
0.0
  0
LINE
  5
2A5
  8
1
  6
CONTINUOUS
 62
     7
 10
905.000000001708
 20
-667.499999997928
 30
0.0
 11
910.0000000017081
 21
-667.4999999982467
 31
0.0
  0
LINE
  5
2A6
  8
1
  6
CONTINUOUS
 62
     7
 10
910.0000000015805
 20
-669.4999999982467
 30
0.0
 11
905.0000000015805
 21
-669.499999997928
 31
0.0
  0
LINE
  5
2A7
  8
1
  6
CONTINUOUS
 62
     7
 10
965.000000001708
 20
-667.5000000017532
 30
0.0
 11
970.0000000017081
 21
-667.5000000020719
 31
0.0
  0
LINE
  5
2A8
  8
1
  6
CONTINUOUS
 62
     7
 10
970.0000000017081
 20
-667.5000000020719
 30
0.0
 11
970.0000000015805
 21
-669.5000000020719
 31
0.0
  0
LINE
  5
2A9
  8
1
  6
CONTINUOUS
 62
     7
 10
970.0000000015805
 20
-669.5000000020719
 30
0.0
 11
965.0000000015806
 21
-669.5000000017532
 31
0.0
  0
LINE
  5
2AA
  8
1
  6
CONTINUOUS
 62
     7
 10
910.0000000015805
 20
-669.4999999982467
 30
0.0
 11
965.0000000015806
 21
-669.5000000017532
 31
0.0
  0
LINE
  5
2AB
  8
1
  6
CONTINUOUS
 62
     7
 10
910.0000000017081
 20
-667.4999999982467
 30
0.0
 11
965.000000001708
 21
-667.5000000017532
 31
0.0
  0
LINE
  5
2AC
  8
1
  6
CONTINUOUS
 62
     7
 10
970.0000000017081
 20
-667.5000000020719
 30
0.0
 11
970.0000000017719
 21
-666.5000000020719
 31
0.0
  0
LINE
  5
2AD
  8
1
  6
CONTINUOUS
 62
     7
 10
905.0000000017718
 20
-666.499999997928
 30
0.0
 11
905.000000001708
 21
-667.499999997928
 31
0.0
  0
ARC
  5
2AE
  8
1
  6
CONTINUOUS
 62
     7
 10
965.0000000054057
 20
-609.5000000017532
 30
0.0
 40
5.000000000000115
 50
359.9999999963472
 51
89.99999999634723
  0
ARC
  5
2AF
  8
1
  6
CONTINUOUS
 62
     7
 10
910.0000000054058
 20
-609.4999999982467
 30
0.0
 40
5.000000000000004
 50
89.99999999634723
 51
179.9999999963473
  0
LINE
  5
2B0
  8
1
  6
CONTINUOUS
 62
     7
 10
910.0000000057246
 20
-604.4999999982467
 30
0.0
 11
965.0000000057246
 21
-604.5000000017532
 31
0.0
  0
ARC
  5
2B1
  8
1
  6
CONTINUOUS
 62
     7
 10
917.5000000023297
 20
-657.749999998725
 30
0.0
 40
3.750000000000031
 50
179.9999999963472
 51
359.9999999963472
  0
LINE
  5
2B2
  8
1
  6
CONTINUOUS
 62
     7
 10
921.2500000023297
 20
-657.749999998964
 30
0.0
 11
921.2500000043914
 21
-625.4107952060263
 31
0.0
  0
ARC
  5
2B3
  8
1
  6
CONTINUOUS
 62
     7
 10
917.5000000050392
 20
-615.2499999987249
 30
0.0
 40
3.750000000000022
 50
31.96571864800649
 51
148.0342812161163
  0
LINE
  5
2B4
  8
1
  6
CONTINUOUS
 62
     7
 10
913.7500000043914
 20
-625.4107952115987
 30
0.0
 11
913.7500000023297
 21
-657.7499999984858
 31
0.0
  0
ARC
  5
2B5
  8
1
  6
CONTINUOUS
 62
     7
 10
957.500000005039
 20
-615.250000001275
 30
0.0
 40
3.75000000000003
 50
31.96571871537276
 51
148.034281148754
  0
LINE
  5
2B6
  8
1
  6
CONTINUOUS
 62
     7
 10
953.7500000043915
 20
-625.4107952115991
 30
0.0
 11
953.7500000023296
 21
-657.750000001036
 31
0.0
  0
ARC
  5
2B7
  8
1
  6
CONTINUOUS
 62
     7
 10
957.5000000023297
 20
-657.750000001275
 30
0.0
 40
3.750000000000142
 50
179.9999999963472
 51
359.9999999963472
  0
LINE
  5
2B8
  8
1
  6
CONTINUOUS
 62
     7
 10
961.2500000023296
 20
-657.7500000015142
 30
0.0
 11
961.2500000043913
 21
-625.4107952060268
 31
0.0
  0
LINE
  5
2B9
  8
1
  6
CONTINUOUS
 62
     7
 10
970.0000000017719
 20
-666.5000000020719
 30
0.0
 11
970.0000000054058
 21
-609.5000000020719
 31
0.0
  0
LINE
  5
2BA
  8
1
  6
CONTINUOUS
 62
     7
 10
905.0000000017718
 20
-666.499999997928
 30
0.0
 11
905.0000000054058
 21
-609.4999999979281
 31
0.0
  0
LINE
  5
2BB
  8
1
  6
CONTINUOUS
 62
     7
 10
1038.964101615138
 20
-688.5
 30
0.0
 11
1038.964101615138
 21
-685.5
 31
0.0
  0
LINE
  5
2BC
  8
1
  6
CONTINUOUS
 62
     7
 10
1038.964101615138
 20
-685.5
 30
0.0
 11
1035.5
 21
-685.5
 31
0.0
  0
LINE
  5
2BD
  8
1
  6
CONTINUOUS
 62
     7
 10
1035.5
 20
-563.5
 30
0.0
 11
1038.964101615138
 21
-563.5
 31
0.0
  0
ARC
  5
2BE
  8
1
  6
CONTINUOUS
 62
     7
 10
1035.5
 20
-565.5
 30
0.0
 40
3.999999999999999
 50
0.0
 51
29.99999999999988
  0
LINE
  5
2BF
  8
1
  6
CONTINUOUS
 62
     7
 10
1039.5
 20
-565.5
 30
0.0
 11
1039.5
 21
-688.5
 31
0.0
  0
LINE
  5
2C0
  8
1
  6
CONTINUOUS
 62
     7
 10
1039.5
 20
-688.5
 30
0.0
 11
1038.964101615138
 21
-688.5
 31
0.0
  0
LINE
  5
2C1
  8
1
  6
CONTINUOUS
 62
     7
 10
1029.5
 20
-563.5
 30
0.0
 11
1029.5
 21
-685.5
 31
0.0
  0
LINE
  5
2C2
  8
1
  6
CONTINUOUS
 62
     7
 10
1035.5
 20
-563.5
 30
0.0
 11
1029.5
 21
-563.5
 31
0.0
  0
LINE
  5
2C3
  8
1
  6
CONTINUOUS
 62
     7
 10
1029.5
 20
-685.5
 30
0.0
 11
1035.5
 21
-685.5
 31
0.0
  0
LINE
  5
2C4
  8
1
  6
CONTINUOUS
 62
     7
 10
845.4999999999999
 20
-563.5
 30
0.0
 11
845.4999999999999
 21
-685.5
 31
0.0
  0
LINE
  5
2C5
  8
1
  6
CONTINUOUS
 62
     7
 10
839.4999999999999
 20
-563.5
 30
0.0
 11
845.4999999999999
 21
-563.5
 31
0.0
  0
LINE
  5
2C6
  8
1
  6
CONTINUOUS
 62
     7
 10
845.4999999999999
 20
-685.5
 30
0.0
 11
839.4999999999999
 21
-685.5
 31
0.0
  0
LINE
  5
2C7
  8
1
  6
CONTINUOUS
 62
     7
 10
836.0358983848621
 20
-685.5
 30
0.0
 11
836.0358983848621
 21
-688.5
 31
0.0
  0
LINE
  5
2C8
  8
1
  6
CONTINUOUS
 62
     7
 10
836.0358983848621
 20
-688.5
 30
0.0
 11
835.4999999999999
 21
-688.5
 31
0.0
  0
LINE
  5
2C9
  8
1
  6
CONTINUOUS
 62
     7
 10
835.4999999999999
 20
-688.5
 30
0.0
 11
835.4999999999999
 21
-565.5
 31
0.0
  0
ARC
  5
2CA
  8
1
  6
CONTINUOUS
 62
     7
 10
839.4999999999999
 20
-565.5
 30
0.0
 40
3.999999999999999
 50
150.0000000000001
 51
180.0
  0
LINE
  5
2CB
  8
1
  6
CONTINUOUS
 62
     7
 10
836.0358983848621
 20
-563.5
 30
0.0
 11
839.4999999999999
 21
-563.5
 31
0.0
  0
LINE
  5
2CC
  8
1
  6
CONTINUOUS
 62
     7
 10
839.4999999999999
 20
-685.5
 30
0.0
 11
836.0358983848621
 21
-685.5
 31
0.0
  0
LINE
  5
2CD
  8
1
  6
CONTINUOUS
 62
     7
 10
1038.964101615138
 20
-688.5
 30
0.0
 11
836.0358983848621
 21
-688.5
 31
0.0
  0
ARC
  5
2CE
  8
1
  6
CONTINUOUS
 62
     7
 10
839.4999999999999
 20
-565.5
 30
0.0
 40
3.999999999999999
 50
90.0
 51
150.0000000000001
  0
LINE
  5
2CF
  8
1
  6
CONTINUOUS
 62
     7
 10
839.4999999999999
 20
-561.5
 30
0.0
 11
1035.5
 21
-561.5
 31
0.0
  0
ARC
  5
2D0
  8
1
  6
CONTINUOUS
 62
     7
 10
1035.5
 20
-565.5
 30
0.0
 40
3.999999999999999
 50
29.99999999999991
 51
90.00000000000001
  0
TEXT
  5
2D1
  8
1
  6
CONTINUOUS
 62
     7
 10
719.7100162560962
 20
-728.0681818181818
 30
0.0
 40
5.0
  1
ＸＰＬ－ＤＬ１００
  0
LINE
  5
2D2
  8
0
  6
CENTER
 62
     1
 10
908.4999999999997
 20
-619.500000000044
 30
0.0
 11
926.4999999999999
 21
-619.500000000044
 31
0.0
  0
LINE
  5
2D4
  8
0
  6
CENTER
 62
     1
 10
917.4999999999998
 20
-628.5000000000441
 30
0.0
 11
917.4999999999998
 21
-610.5000000000439
 31
0.0
  0
LINE
  5
2D5
  8
0
  6
CENTER
 62
     1
 10
957.4999999999998
 20
-628.5000000000445
 30
0.0
 11
957.4999999999998
 21
-610.5000000000447
 31
0.0
  0
LINE
  5
2D6
  8
0
  6
CENTER
 62
     1
 10
948.4999999999999
 20
-619.5000000000446
 30
0.0
 11
966.4999999999997
 21
-619.5000000000446
 31
0.0
  0
LINE
  5
2D7
  8
0
  6
CENTER
 62
     1
 10
617.5
 20
-698.5
 30
0.0
 11
617.5
 21
-551.5
 31
0.0
  0
LINE
  5
2D8
  8
0
  6
CENTER
 62
     1
 10
937.5
 20
-698.5
 30
0.0
 11
937.5
 21
-551.5
 31
0.0
  0
LINE
  5
2D9
  8
0
  6
CENTER
 62
     1
 10
617.5
 20
-527.0
 30
0.0
 11
617.5
 21
-303.0
 31
0.0
  0
LINE
  5
2DA
  8
0
  6
CENTER
 62
     1
 10
430.5000000000001
 20
-415.0
 30
0.0
 11
804.5
 21
-415.0
 31
0.0
  0
ENDSEC
  0
EOF
