  0
SECTION
  2
HEADER
  9
$ACADVER
  1
AC1006
  9
$DWGCODEPAGE
  3
ansi_932
  9
$INSBASE
 10
0.0
 20
0.0
 30
0.0
  9
$EXTMIN
 10
-324.5000000000001
 20
98.22727272727273
  9
$EXTMAX
 10
-184.5000000000001
 20
230.5
  9
$LIMMIN
 10
0.0
 20
0.0
  9
$LIMMAX
 10
12.0
 20
9.0
  9
$ORTHOMODE
 70
     0
  9
$REGENMODE
 70
     1
  9
$FILLMODE
 70
     1
  9
$QTEXTMODE
 70
     0
  9
$MIRRTEXT
 70
     1
  9
$DRAGMODE
 70
     2
  9
$LTSCALE
 40
1.0
  9
$OSMODE
 70
    37
  9
$ATTMODE
 70
     1
  9
$TEXTSIZE
 40
0.2
  9
$TRACEWID
 40
0.05
  9
$TEXTSTYLE
  7
STANDARD
  9
$CLAYER
  8
0
  9
$CELTYPE
  6
BYLAYER
  9
$CECOLOR
 62
   256
  9
$DIMSCALE
 40
1.0
  9
$DIMASZ
 40
3.0
  9
$DIMEXO
 40
0.0625
  9
$DIMDLI
 40
0.38
  9
$DIMRND
 40
0.0
  9
$DIMDLE
 40
0.0
  9
$DIMEXE
 40
1.5
  9
$DIMTP
 40
0.0
  9
$DIMTM
 40
0.0
  9
$DIMTXT
 40
3.0
  9
$DIMCEN
 40
0.09
  9
$DIMTSZ
 40
0.0
  9
$DIMTOL
 70
     0
  9
$DIMLIM
 70
     0
  9
$DIMTIH
 70
     1
  9
$DIMTOH
 70
     1
  9
$DIMSE1
 70
     0
  9
$DIMSE2
 70
     0
  9
$DIMTAD
 70
     1
  9
$DIMZIN
 70
     0
  9
$DIMBLK
  1

  9
$DIMASO
 70
     1
  9
$DIMSHO
 70
     1
  9
$DIMPOST
  1

  9
$DIMAPOST
  1

  9
$DIMALT
 70
     0
  9
$DIMALTD
 70
     2
  9
$DIMALTF
 40
25.4
  9
$DIMLFAC
 40
1.0
  9
$DIMTOFL
 70
     0
  9
$DIMTVP
 40
0.0
  9
$DIMTIX
 70
     0
  9
$DIMSOXD
 70
     0
  9
$DIMSAH
 70
     0
  9
$DIMBLK1
  1

  9
$DIMBLK2
  1

  9
$LUNITS
 70
     2
  9
$LUPREC
 70
     4
  9
$SKETCHINC
 40
0.1
  9
$FILLETRAD
 40
0.5
  9
$AUNITS
 70
     0
  9
$AUPREC
 70
     0
  9
$MENU
  1
.
  9
$ELEVATION
 40
0.0
  9
$THICKNESS
 40
0.0
  9
$LIMCHECK
 70
     0
  9
$CHAMFERA
 40
0.0
  9
$CHAMFERB
 40
0.0
  9
$SKPOLY
 70
     0
  9
$TDCREATE
 40
2459731.453327824
  9
$TDUPDATE
 40
2459731.453328345
  9
$TDINDWG
 40
0.0000000116
  9
$TDUSRTIMER
 40
0.0000000116
  9
$USRTIMER
 70
     1
  9
$ANGBASE
 50
0.0
  9
$ANGDIR
 70
     0
  9
$PDMODE
 70
     0
  9
$PDSIZE
 40
0.0
  9
$PLINEWID
 40
0.0
  9
$COORDS
 70
     1
  9
$SPLFRAME
 70
     0
  9
$SPLINETYPE
 70
     6
  9
$SPLINESEGS
 70
     8
  9
$ATTDIA
 70
     0
  9
$ATTREQ
 70
     1
  9
$HANDLING
 70
     1
  9
$HANDSEED
  5
468
  9
$SURFTAB1
 70
     6
  9
$SURFTAB2
 70
     6
  9
$SURFTYPE
 70
     6
  9
$SURFU
 70
     6
  9
$SURFV
 70
     6
  9
$UCSNAME
  2

  9
$UCSORG
 10
0.0
 20
0.0
 30
0.0
  9
$UCSXDIR
 10
1.0
 20
0.0
 30
0.0
  9
$UCSYDIR
 10
0.0
 20
1.0
 30
0.0
  9
$USERI1
 70
     0
  9
$USERI2
 70
     0
  9
$USERI3
 70
     0
  9
$USERI4
 70
     0
  9
$USERI5
 70
     0
  9
$USERR1
 40
0.0
  9
$USERR2
 40
0.0
  9
$USERR3
 40
0.0
  9
$USERR4
 40
0.0
  9
$USERR5
 40
0.0
  9
$WORLDVIEW
 70
     1
  0
ENDSEC
  0
SECTION
  2
TABLES
  0
TABLE
  2
VPORT
 70
     1
  0
VPORT
  2
*ACTIVE
 70
     0
 10
0.0
 20
0.0
 11
1.0
 21
1.0
 12
-254.5000000000001
 22
164.3636363636364
 13
0.0
 23
0.0
 14
0.5
 24
0.5
 15
0.5
 25
0.5
 16
0.0
 26
0.0
 36
1.0
 17
0.0
 27
0.0
 37
0.0
 40
132.2727272727273
 41
1.6
 42
50.0
 43
0.0
 44
0.0
 50
0.0
 51
0.0
 71
     0
 72
   100
 73
     1
 74
     3
 75
     0
 76
     0
 77
     0
 78
     0
  0
ENDTAB
  0
TABLE
  2
LTYPE
 70
     2
  0
LTYPE
  2
CONTINUOUS
 70
     0
  3
Solid line
 72
    65
 73
     0
 40
0.0
  0
LTYPE
  2
PHANTOM
 70
     0
  3

 72
    65
 73
     0
 40
0.0
  0
ENDTAB
  0
TABLE
  2
LAYER
 70
     1
  0
LAYER
  2
0
 70
     0
 62
     7
  6
CONTINUOUS
  0
ENDTAB
  0
TABLE
  2
STYLE
 70
     2
  0
STYLE
  2
STANDARD
 70
     0
 40
0.0
 41
1.0
 50
0.0
 71
     0
 42
0.2
  3
txt
  4

  0
STYLE
  2
ＭＳ_ゴシック
 70
     0
 40
0.0
 41
1.0
 50
0.0
 71
     0
 42
0.2
  3
ＭＳ ゴシック.shx
  4

  0
ENDTAB
  0
TABLE
  2
VIEW
 70
     0
  0
ENDTAB
  0
TABLE
  2
UCS
 70
     0
  0
ENDTAB
  0
ENDSEC
  0
SECTION
  2
BLOCKS
  0
BLOCK
  8
0
  2
D_FRAME_VIEW_1636
 70
     0
 10
0.0
 20
0.0
 30
0.0
  0
LINE
  5
70
  8
0
  6
CONTINUOUS
 62
     7
 10
-303.4769921521503
 20
219.682581102887
 30
0.0
 11
-301.8131586560024
 21
216.8007369522238
 31
0.0
  0
ARC
  5
71
  8
0
  6
CONTINUOUS
 62
     9
 10
-295.0000000000001
 20
205.0
 30
0.0
 40
16.95398430430059
 50
60.0
 51
120.0
  0
LINE
  5
72
  8
0
  6
CONTINUOUS
 62
     7
 10
-288.1868413439976
 20
216.8007369522238
 30
0.0
 11
-286.5230078478497
 21
219.682581102887
 31
0.0
  0
LINE
  5
73
  8
0
  6
CONTINUOUS
 62
     7
 10
-303.4769921521503
 20
190.317418897113
 30
0.0
 11
-301.8131586560024
 21
193.1992630477762
 31
0.0
  0
ARC
  5
74
  8
0
  6
CONTINUOUS
 62
     9
 10
-295.0000000000001
 20
205.0
 30
0.0
 40
16.95398430430062
 50
180.0
 51
240.0
  0
LINE
  5
75
  8
0
  6
CONTINUOUS
 62
     7
 10
-308.6263173120048
 20
205.0
 30
0.0
 11
-311.9539843043007
 21
205.0
 31
0.0
  0
ARC
  5
76
  8
0
  6
CONTINUOUS
 62
     9
 10
-295.0000000000001
 20
205.0
 30
0.0
 40
16.95398430430062
 50
300.0
 51
0.0000000000000568
  0
LINE
  5
77
  8
0
  6
CONTINUOUS
 62
     7
 10
-278.0460156956994
 20
205.0
 30
0.0
 11
-281.3736826879953
 21
205.0
 31
0.0
  0
LINE
  5
78
  8
0
  6
CONTINUOUS
 62
     7
 10
-288.1868413439977
 20
193.1992630477762
 30
0.0
 11
-286.5230078478497
 21
190.317418897113
 31
0.0
  0
LINE
  5
79
  8
0
  6
CONTINUOUS
 62
     7
 10
-297.7500000000001
 20
209.7631397208145
 30
0.0
 11
-301.8131586560024
 21
216.8007369522238
 31
0.0
  0
LINE
  5
7A
  8
0
  6
CONTINUOUS
 62
     7
 10
-288.1868413439976
 20
216.8007369522238
 30
0.0
 11
-292.25
 21
209.7631397208145
 31
0.0
  0
LINE
  5
7B
  8
0
  6
CONTINUOUS
 62
     7
 10
-308.6263173120048
 20
205.0
 30
0.0
 11
-300.5000000000001
 21
205.0
 31
0.0
  0
LINE
  5
7C
  8
0
  6
CONTINUOUS
 62
     7
 10
-297.7500000000001
 20
200.2368602791856
 30
0.0
 11
-301.8131586560024
 21
193.1992630477762
 31
0.0
  0
LINE
  5
7D
  8
0
  6
CONTINUOUS
 62
     7
 10
-289.5
 20
205.0
 30
0.0
 11
-281.3736826879953
 21
205.0
 31
0.0
  0
LINE
  5
7E
  8
0
  6
CONTINUOUS
 62
     7
 10
-288.1868413439977
 20
193.1992630477762
 30
0.0
 11
-292.25
 21
200.2368602791856
 31
0.0
  0
LINE
  5
7F
  8
0
  6
CONTINUOUS
 62
     7
 10
-286.5021817169477
 20
219.7186530197344
 30
0.0
 11
-286.0706645641247
 21
219.4660626527615
 31
0.0
  0
LINE
  5
80
  8
0
  6
CONTINUOUS
 62
     7
 10
-303.9293354358755
 20
219.4660626527614
 30
0.0
 11
-303.4978182830524
 21
219.7186530197344
 31
0.0
  0
ARC
  5
81
  8
0
  6
CONTINUOUS
 62
     7
 10
-295.0000000000001
 20
205.0
 30
0.0
 40
16.99999999999999
 50
121.6854130402229
 51
133.3145869597774
  0
LINE
  5
82
  8
0
  6
CONTINUOUS
 62
     7
 10
-307.0177298664747
 20
217.0177298664747
 30
0.0
 11
-306.6620614501047
 21
217.3691682312912
 31
0.0
  0
LINE
  5
83
  8
0
  6
CONTINUOUS
 62
     7
 10
-307.0096270159469
 20
217.0096270159468
 30
0.0
 11
-307.0177298664747
 21
217.0177298664747
 31
0.0
  0
ARC
  5
84
  8
0
  6
CONTINUOUS
 62
     9
 10
-295.0000000000001
 20
205.0
 30
0.0
 40
16.98417740499428
 50
135.0000000000001
 51
165.0
  0
LINE
  5
85
  8
0
  6
CONTINUOUS
 62
     7
 10
-311.4165242934234
 20
209.3987944269487
 30
0.0
 11
-311.4054555937593
 21
209.3958285778125
 31
0.0
  0
LINE
  5
86
  8
0
  6
CONTINUOUS
 62
     7
 10
-311.543044637034
 20
208.9150573606402
 30
0.0
 11
-311.4165242934234
 21
209.3987944269487
 31
0.0
  0
ARC
  5
87
  8
0
  6
CONTINUOUS
 62
     7
 10
-295.0000000000001
 20
205.0
 30
0.0
 40
16.99999999999998
 50
166.6854130402228
 51
178.3145869597776
  0
LINE
  5
88
  8
0
  6
CONTINUOUS
 62
     7
 10
-311.9956365661047
 20
204.9999999999999
 30
0.0
 11
-311.9926454679664
 21
205.4999999999999
 31
0.0
  0
LINE
  5
89
  8
0
  6
CONTINUOUS
 62
     7
 10
-303.063310032091
 20
190.0339373472386
 30
0.0
 11
-303.4978182830523
 21
190.2813469802657
 31
0.0
  0
ARC
  5
8A
  8
0
  6
CONTINUOUS
 62
     7
 10
-295.0000000000001
 20
205.0
 30
0.0
 40
16.99999999999999
 50
241.6854130402228
 51
253.3145869597775
  0
LINE
  5
8B
  8
0
  6
CONTINUOUS
 62
     7
 10
-299.3987944269487
 20
188.5834757065767
 30
0.0
 11
-299.8809831869293
 21
188.7157744080686
 31
0.0
  0
LINE
  5
8C
  8
0
  6
CONTINUOUS
 62
     7
 10
-299.3958285778124
 20
188.5945444062408
 30
0.0
 11
-299.3987944269487
 21
188.5834757065767
 31
0.0
  0
ARC
  5
8D
  8
0
  6
CONTINUOUS
 62
     9
 10
-295.0000000000001
 20
205.0
 30
0.0
 40
16.98417740499428
 50
255.0000000000001
 51
285.0
  0
LINE
  5
8E
  8
0
  6
CONTINUOUS
 62
     7
 10
-290.6012055730513
 20
188.5834757065767
 30
0.0
 11
-290.6041714221876
 21
188.5945444062408
 31
0.0
  0
LINE
  5
8F
  8
0
  6
CONTINUOUS
 62
     7
 10
-290.1190168130707
 20
188.7157744080686
 30
0.0
 11
-290.6012055730513
 21
188.5834757065767
 31
0.0
  0
ARC
  5
90
  8
0
  6
CONTINUOUS
 62
     7
 10
-295.0000000000001
 20
205.0
 30
0.0
 40
16.99999999999999
 50
286.6854130402228
 51
298.3145869597777
  0
LINE
  5
91
  8
0
  6
CONTINUOUS
 62
     7
 10
-286.5021817169477
 20
190.2813469802657
 30
0.0
 11
-286.936689967909
 21
190.0339373472386
 31
0.0
  0
LINE
  5
92
  8
0
  6
CONTINUOUS
 62
     7
 10
-278.0073545320336
 20
205.5000000000001
 30
0.0
 11
-278.0043634338954
 21
205.0000000000001
 31
0.0
  0
ARC
  5
93
  8
0
  6
CONTINUOUS
 62
     7
 10
-295.0000000000001
 20
205.0
 30
0.0
 40
17.00000000000001
 50
1.685413040222784
 51
13.31458695977744
  0
LINE
  5
94
  8
0
  6
CONTINUOUS
 62
     7
 10
-278.5834757065767
 20
209.3987944269487
 30
0.0
 11
-278.4569553629661
 21
208.9150573606402
 31
0.0
  0
LINE
  5
95
  8
0
  6
CONTINUOUS
 62
     7
 10
-278.5945444062408
 20
209.3958285778125
 30
0.0
 11
-278.5834757065767
 21
209.3987944269487
 31
0.0
  0
ARC
  5
96
  8
0
  6
CONTINUOUS
 62
     9
 10
-295.0000000000001
 20
205.0
 30
0.0
 40
16.98417740499432
 50
15.00000000000006
 51
45.0
  0
LINE
  5
97
  8
0
  6
CONTINUOUS
 62
     7
 10
-282.9822701335254
 20
217.0177298664747
 30
0.0
 11
-282.9903729840532
 21
217.0096270159468
 31
0.0
  0
LINE
  5
98
  8
0
  6
CONTINUOUS
 62
     7
 10
-283.3379385498954
 20
217.3691682312913
 30
0.0
 11
-282.9822701335254
 21
217.0177298664747
 31
0.0
  0
ARC
  5
99
  8
0
  6
CONTINUOUS
 62
     7
 10
-295.0000000000001
 20
205.0
 30
0.0
 40
16.99999999999999
 50
46.68541304022295
 51
58.31458695977756
  0
LINE
  5
9A
  8
0
  6
CONTINUOUS
 62
     7
 10
-303.4978182830524
 20
219.7186530197344
 30
0.0
 11
-303.4769921521503
 21
219.682581102887
 31
0.0
  0
LINE
  5
9B
  8
0
  6
CONTINUOUS
 62
     7
 10
-311.9539843043007
 20
205.0
 30
0.0
 11
-311.9956365661047
 21
204.9999999999999
 31
0.0
  0
LINE
  5
9C
  8
0
  6
CONTINUOUS
 62
     7
 10
-278.0043634338954
 20
205.0000000000001
 30
0.0
 11
-278.0460156956994
 21
205.0
 31
0.0
  0
LINE
  5
9D
  8
0
  6
CONTINUOUS
 62
     7
 10
-286.5230078478497
 20
190.317418897113
 30
0.0
 11
-286.5021817169477
 21
190.2813469802657
 31
0.0
  0
LINE
  5
9E
  8
0
  6
CONTINUOUS
 62
     7
 10
-303.4978182830523
 20
190.2813469802657
 30
0.0
 11
-303.4769921521503
 21
190.317418897113
 31
0.0
  0
LINE
  5
9F
  8
0
  6
CONTINUOUS
 62
     7
 10
-286.5230078478497
 20
219.682581102887
 30
0.0
 11
-286.5021817169477
 21
219.7186530197344
 31
0.0
  0
ARC
  5
A0
  8
0
  6
CONTINUOUS
 62
     7
 10
-295.0000000000001
 20
205.0
 30
0.0
 40
11.00000000000002
 50
135.0
 51
165.0
  0
LINE
  5
A1
  8
0
  6
CONTINUOUS
 62
     7
 10
-309.9566220235692
 20
209.0076147927129
 30
0.0
 11
-305.6251840891798
 21
207.8470094961277
 31
0.0
  0
LINE
  5
A2
  8
0
  6
CONTINUOUS
 62
     7
 10
-302.778174593052
 20
212.778174593052
 30
0.0
 11
-305.9490072308563
 21
215.9490072308563
 31
0.0
  0
ARC
  5
A3
  8
0
  6
CONTINUOUS
 62
     7
 10
-295.0000000000001
 20
205.0
 30
0.0
 40
11.00000000000001
 50
255.0
 51
285.0
  0
LINE
  5
A4
  8
0
  6
CONTINUOUS
 62
     7
 10
-290.9923852072871
 20
190.0433779764308
 30
0.0
 11
-292.1529905038723
 21
194.3748159108202
 31
0.0
  0
LINE
  5
A5
  8
0
  6
CONTINUOUS
 62
     7
 10
-297.8470094961277
 20
194.3748159108202
 30
0.0
 11
-299.0076147927129
 21
190.0433779764308
 31
0.0
  0
LINE
  5
A6
  8
0
  6
CONTINUOUS
 62
     7
 10
-299.3958285778124
 20
188.5945444062408
 30
0.0
 11
-299.0076147927129
 21
190.0433779764308
 31
0.0
  0
LINE
  5
A7
  8
0
  6
CONTINUOUS
 62
     7
 10
-290.9923852072872
 20
190.0433779764308
 30
0.0
 11
-290.6041714221876
 21
188.5945444062408
 31
0.0
  0
LINE
  5
A8
  8
0
  6
CONTINUOUS
 62
     7
 10
-278.5945444062408
 20
209.3958285778125
 30
0.0
 11
-280.0433779764309
 21
209.0076147927129
 31
0.0
  0
LINE
  5
A9
  8
0
  6
CONTINUOUS
 62
     7
 10
-284.0509927691438
 20
215.9490072308563
 30
0.0
 11
-282.9903729840532
 21
217.0096270159468
 31
0.0
  0
LINE
  5
AA
  8
0
  6
CONTINUOUS
 62
     7
 10
-307.0096270159469
 20
217.0096270159468
 30
0.0
 11
-305.9490072308563
 21
215.9490072308563
 31
0.0
  0
LINE
  5
AB
  8
0
  6
CONTINUOUS
 62
     7
 10
-309.9566220235692
 20
209.0076147927129
 30
0.0
 11
-311.4054555937593
 21
209.3958285778125
 31
0.0
  0
ARC
  5
AC
  8
0
  6
CONTINUOUS
 62
     7
 10
-295.0000000000001
 20
205.0
 30
0.0
 40
11.0
 50
15.0
 51
45.0
  0
LINE
  5
AD
  8
0
  6
CONTINUOUS
 62
     7
 10
-284.3748159108202
 20
207.8470094961277
 30
0.0
 11
-280.0433779764309
 21
209.0076147927129
 31
0.0
  0
LINE
  5
AE
  8
0
  6
CONTINUOUS
 62
     7
 10
-284.0509927691438
 20
215.9490072308563
 30
0.0
 11
-287.221825406948
 21
212.778174593052
 31
0.0
  0
ARC
  5
AF
  8
0
  6
CONTINUOUS
 62
     7
 10
-295.0000000000001
 20
205.0
 30
0.0
 40
3.500000000000003
 50
300.0000000000009
 51
0.0000000000009095
  0
LINE
  5
B0
  8
0
  6
CONTINUOUS
 62
     7
 10
-289.5
 20
205.0000000000001
 30
0.0
 11
-291.5000000000001
 21
205.0000000000001
 31
0.0
  0
LINE
  5
B1
  8
0
  6
CONTINUOUS
 62
     7
 10
-293.25
 20
201.9689110867545
 30
0.0
 11
-292.2499999999999
 21
200.2368602791856
 31
0.0
  0
ARC
  5
B2
  8
0
  6
CONTINUOUS
 62
     7
 10
-295.0000000000001
 20
205.0
 30
0.0
 40
3.499999999999979
 50
60.00000000000092
 51
120.0000000000009
  0
LINE
  5
B3
  8
0
  6
CONTINUOUS
 62
     7
 10
-297.7500000000001
 20
209.7631397208145
 30
0.0
 11
-296.7500000000001
 21
208.0310889132455
 31
0.0
  0
LINE
  5
B4
  8
0
  6
CONTINUOUS
 62
     7
 10
-293.2500000000001
 20
208.0310889132456
 30
0.0
 11
-292.2500000000001
 21
209.7631397208145
 31
0.0
  0
ARC
  5
B5
  8
0
  6
CONTINUOUS
 62
     7
 10
-295.0000000000001
 20
205.0
 30
0.0
 40
3.5
 50
180.0000000000009
 51
240.0000000000009
  0
LINE
  5
B6
  8
0
  6
CONTINUOUS
 62
     7
 10
-298.5000000000001
 20
204.9999999999999
 30
0.0
 11
-300.5000000000001
 21
204.9999999999999
 31
0.0
  0
LINE
  5
B7
  8
0
  6
CONTINUOUS
 62
     7
 10
-297.75
 20
200.2368602791855
 30
0.0
 11
-296.75
 21
201.9689110867545
 31
0.0
  0
LINE
  5
B8
  8
0
  6
CONTINUOUS
 62
     7
 10
-280.0043634338954
 20
205.0000000000001
 30
0.0
 11
-280.0083356494351
 21
205.5000000000001
 31
0.0
  0
LINE
  5
B9
  8
0
  6
CONTINUOUS
 62
     7
 10
-309.4846726408452
 20
208.8811563367436
 30
0.0
 11
-309.6102452978191
 21
208.3971653385662
 31
0.0
  0
LINE
  5
BA
  8
0
  6
CONTINUOUS
 62
     7
 10
-284.3964836958985
 20
215.6035163041016
 30
0.0
 11
-284.7528458670362
 21
215.9542609141504
 31
0.0
  0
LINE
  5
BB
  8
0
  6
CONTINUOUS
 62
     7
 10
-302.4978182830524
 20
217.9866022121655
 30
0.0
 11
-302.9288448771748
 21
217.7331621725988
 31
0.0
  0
LINE
  5
BC
  8
0
  6
CONTINUOUS
 62
     7
 10
-302.4978182830523
 20
192.0133977878345
 30
0.0
 11
-302.0628194733903
 21
191.7668378274012
 31
0.0
  0
LINE
  5
BD
  8
0
  6
CONTINUOUS
 62
     7
 10
-291.1188436632564
 20
190.5153273591548
 30
0.0
 11
-290.6369088351448
 21
190.6485737472835
 31
0.0
  0
LINE
  5
BE
  8
0
  6
CONTINUOUS
 62
     7
 10
-309.991664350565
 20
205.4999999999999
 30
0.0
 11
-309.9956365661047
 21
204.9999999999999
 31
0.0
  0
LINE
  5
BF
  8
0
  6
CONTINUOUS
 62
     7
 10
-287.9371805266097
 20
191.7668378274013
 30
0.0
 11
-287.5021817169477
 21
192.0133977878345
 31
0.0
  0
LINE
  5
C0
  8
0
  6
CONTINUOUS
 62
     7
 10
-287.0711551228254
 20
217.7331621725988
 30
0.0
 11
-287.5021817169477
 21
217.9866022121655
 31
0.0
  0
LINE
  5
C1
  8
0
  6
CONTINUOUS
 62
     7
 10
-280.3897547021809
 20
208.3971653385662
 30
0.0
 11
-280.5153273591549
 21
208.8811563367437
 31
0.0
  0
LINE
  5
C2
  8
0
  6
CONTINUOUS
 62
     7
 10
-299.3630911648552
 20
190.6485737472835
 30
0.0
 11
-298.8811563367437
 21
190.5153273591548
 31
0.0
  0
LINE
  5
C3
  8
0
  6
CONTINUOUS
 62
     7
 10
-305.2471541329639
 20
215.9542609141504
 30
0.0
 11
-305.6035163041016
 21
215.6035163041015
 31
0.0
  0
ARC
  5
C4
  8
0
  6
CONTINUOUS
 62
     7
 10
-295.0000000000001
 20
205.0
 30
0.0
 40
14.99999999999999
 50
286.91021317171
 51
298.0897868282904
  0
ARC
  5
C5
  8
0
  6
CONTINUOUS
 62
     7
 10
-295.0000000000001
 20
205.0
 30
0.0
 40
15.0
 50
241.91021317171
 51
253.08978682829
  0
ARC
  5
C6
  8
0
  6
CONTINUOUS
 62
     7
 10
-295.0000000000001
 20
205.0
 30
0.0
 40
14.99999999999998
 50
166.9102131717099
 51
178.0897868282903
  0
ARC
  5
C7
  8
0
  6
CONTINUOUS
 62
     7
 10
-295.0000000000001
 20
205.0
 30
0.0
 40
15.0
 50
1.910213171710041
 51
13.08978682829019
  0
ARC
  5
C8
  8
0
  6
CONTINUOUS
 62
     7
 10
-295.0000000000001
 20
205.0
 30
0.0
 40
14.99999999999998
 50
46.9102131717102
 51
58.08978682829023
  0
ARC
  5
C9
  8
0
  6
CONTINUOUS
 62
     7
 10
-295.0000000000001
 20
205.0
 30
0.0
 40
15.00000000000001
 50
121.9102131717102
 51
133.08978682829
  0
LINE
  5
CA
  8
0
  6
CONTINUOUS
 62
     7
 10
-268.0000000000001
 20
179.5000000000001
 30
0.0
 11
-322.0000000000001
 21
179.5000000000001
 31
0.0
  0
ARC
  5
CB
  8
0
  6
CONTINUOUS
 62
     7
 10
-268.0000000000001
 20
182.0000000000001
 30
0.0
 40
2.500000000000002
 50
270.0
 51
0.0
  0
LINE
  5
CC
  8
0
  6
CONTINUOUS
 62
     7
 10
-265.5000000000001
 20
228.0
 30
0.0
 11
-265.5000000000001
 21
182.0000000000001
 31
0.0
  0
ARC
  5
CD
  8
0
  6
CONTINUOUS
 62
     7
 10
-322.0000000000001
 20
182.0000000000001
 30
0.0
 40
2.499999999999974
 50
180.0
 51
270.0
  0
LINE
  5
CE
  8
0
  6
CONTINUOUS
 62
     7
 10
-324.5000000000001
 20
182.0000000000001
 30
0.0
 11
-324.5000000000001
 21
228.0
 31
0.0
  0
ARC
  5
CF
  8
0
  6
CONTINUOUS
 62
     7
 10
-322.0000000000001
 20
228.0
 30
0.0
 40
2.500000000000002
 50
90.0
 51
180.0
  0
ARC
  5
D0
  8
0
  6
CONTINUOUS
 62
     7
 10
-268.0000000000001
 20
228.0
 30
0.0
 40
2.500000000000002
 50
0.0
 51
90.0
  0
LINE
  5
D1
  8
0
  6
CONTINUOUS
 62
     7
 10
-322.0000000000001
 20
230.5
 30
0.0
 11
-268.0000000000001
 21
230.5
 31
0.0
  0
ARC
  5
D2
  8
0
  6
CONTINUOUS
 62
     7
 10
-294.1473440598963
 20
205.7546069481865
 30
0.0
 40
10.87885897511863
 50
125.8865497227387
 51
183.9774887938496
  0
ARC
  5
D3
  8
0
  6
CONTINUOUS
 62
     7
 10
-295.0000000000001
 20
205.0
 30
0.0
 40
11.49999999999998
 50
45.00000000000006
 51
60.0
  0
ARC
  5
D4
  8
0
  6
CONTINUOUS
 62
     7
 10
-295.0000000000001
 20
205.0
 30
0.0
 40
11.49999999999999
 50
0.0
 51
15.0
  0
ARC
  5
D5
  8
0
  6
CONTINUOUS
 62
     7
 10
-295.0000000000001
 20
205.0
 30
0.0
 40
11.49999999999998
 50
285.0000000000002
 51
300.0
  0
ARC
  5
D6
  8
0
  6
CONTINUOUS
 62
     7
 10
-295.0000000000001
 20
205.0
 30
0.0
 40
11.50000000000001
 50
240.0
 51
255.0
  0
ARC
  5
D7
  8
0
  6
CONTINUOUS
 62
     7
 10
-295.0000000000001
 20
205.0
 30
0.0
 40
11.59999999999999
 50
240.0
 51
255.0
  0
ARC
  5
D8
  8
0
  6
CONTINUOUS
 62
     7
 10
-295.0000000000001
 20
205.0
 30
0.0
 40
11.6
 50
285.0000000000002
 51
300.0000000000001
  0
ARC
  5
D9
  8
0
  6
CONTINUOUS
 62
     7
 10
-295.0000000000001
 20
205.0
 30
0.0
 40
11.6
 50
0.0000000000000097
 51
15.00000000000003
  0
ARC
  5
DA
  8
0
  6
CONTINUOUS
 62
     7
 10
-295.0000000000001
 20
205.0
 30
0.0
 40
11.60000000000001
 50
45.00000000000008
 51
59.99999999999996
  0
ARC
  5
DB
  8
0
  6
CONTINUOUS
 62
     7
 10
-294.1378513100497
 20
205.7453844845891
 30
0.0
 40
13.98442021081865
 50
168.8670335609759
 51
183.2396447810743
  0
ARC
  5
DC
  8
0
  6
CONTINUOUS
 62
     7
 10
-294.1378513100497
 20
205.7453844845891
 30
0.0
 40
13.98442021081865
 50
124.5909550211373
 51
139.6623245615688
  0
ARC
  5
DD
  8
0
  6
CONTINUOUS
 62
     7
 10
-295.0000000000001
 20
205.0
 30
0.0
 40
9.99999999999999
 50
240.0
 51
300.0
  0
ARC
  5
DE
  8
0
  6
CONTINUOUS
 62
     7
 10
-295.0000000000001
 20
205.0
 30
0.0
 40
10.00000000000001
 50
0.0000000000000077
 51
59.99999999999999
  0
ARC
  5
DF
  8
0
  6
CONTINUOUS
 62
     7
 10
-294.1473440598963
 20
205.7546069481865
 30
0.0
 40
12.37885897511863
 50
169.3994610698825
 51
183.4948791275674
  0
ARC
  5
E0
  8
0
  6
CONTINUOUS
 62
     7
 10
-294.1473440598963
 20
205.7546069481865
 30
0.0
 40
12.37885897511866
 50
125.1711724698659
 51
140.2677596492503
  0
ARC
  5
E1
  8
0
  6
CONTINUOUS
 62
     7
 10
-294.1378513100497
 20
205.7453844845891
 30
0.0
 40
12.48442021081864
 50
125.1439635539482
 51
140.2239748964826
  0
ARC
  5
E2
  8
0
  6
CONTINUOUS
 62
     7
 10
-294.1378513100497
 20
205.7453844845891
 30
0.0
 40
12.48442021081865
 50
169.3324963831845
 51
183.4228901601485
  0
ARC
  5
E3
  8
0
  6
CONTINUOUS
 62
     7
 10
-295.0000000000001
 20
205.0
 30
0.0
 40
13.10000000000001
 50
45.0
 51
60.0
  0
ARC
  5
E4
  8
0
  6
CONTINUOUS
 62
     7
 10
-295.0000000000001
 20
205.0
 30
0.0
 40
13.09999999999997
 50
0.0
 51
15.00000000000006
  0
ARC
  5
E5
  8
0
  6
CONTINUOUS
 62
     7
 10
-295.0000000000001
 20
205.0
 30
0.0
 40
13.10000000000001
 50
285.0
 51
300.0
  0
ARC
  5
E6
  8
0
  6
CONTINUOUS
 62
     7
 10
-295.0000000000001
 20
205.0
 30
0.0
 40
13.1
 50
240.0
 51
255.0
  0
ARC
  5
E7
  8
0
  6
CONTINUOUS
 62
     7
 10
-295.0000000000001
 20
205.0
 30
0.0
 40
9.7399393398354
 50
0.0
 51
60.0
  0
ARC
  5
E8
  8
0
  6
CONTINUOUS
 62
     7
 10
-295.0000000000001
 20
205.0
 30
0.0
 40
9.7399393398354
 50
240.0
 51
300.0
  0
ARC
  5
E9
  8
0
  6
CONTINUOUS
 62
     7
 10
-295.0000000000001
 20
205.0
 30
0.0
 40
9.739939339835413
 50
120.0
 51
180.0
  0
LINE
  5
EA
  8
0
  6
CONTINUOUS
 62
     7
 10
-285.4560810810811
 20
207.9855672273626
 30
0.0
 11
-285.5733684986806
 21
207.9947957046753
 31
0.0
  0
LINE
  5
EB
  8
0
  6
CONTINUOUS
 62
     7
 10
-285.4293845884419
 20
207.4793559159329
 30
0.0
 11
-285.5733684986806
 21
207.9947957046753
 31
0.0
  0
ARC
  5
EC
  8
0
  6
CONTINUOUS
 62
     7
 10
-295.0000000000001
 20
205.0
 30
0.0
 40
9.886550718720125
 50
0.0
 51
14.52371362720294
  0
ARC
  5
ED
  8
0
  6
CONTINUOUS
 62
     7
 10
-295.0000000000001
 20
205.0
 30
0.0
 40
7.513147419264772
 50
0.0
 51
59.99999999999994
  0
ARC
  5
EE
  8
0
  6
CONTINUOUS
 62
     7
 10
-295.0000000000001
 20
205.0
 30
0.0
 40
7.513147419264772
 50
240.0
 51
300.0
  0
ARC
  5
EF
  8
0
  6
CONTINUOUS
 62
     7
 10
-295.0000000000001
 20
205.0
 30
0.0
 40
7.513147419264731
 50
120.0
 51
180.0
  0
ENDBLK
  8
0
  0
BLOCK
  8
0
  2
D_FRAME_VIEW_1750
 70
     0
 10
0.0
 20
0.0
 30
0.0
  0
LINE
  5
F5
  8
0
  6
CONTINUOUS
 62
     7
 10
-233.5
 20
123.5426034110533
 30
0.0
 11
-233.0
 21
123.5426034110533
 31
0.0
  0
ARC
  5
F6
  8
0
  6
CONTINUOUS
 62
     7
 10
-233.5
 20
121.5426034110533
 30
0.0
 40
1.999999999999988
 50
90.0000000000002
 51
180.0
  0
LINE
  5
F7
  8
0
  6
CONTINUOUS
 62
     7
 10
-226.0000000000001
 20
114.0426034110533
 30
0.0
 11
-226.0000000000001
 21
118.8426034110533
 31
0.0
  0
LINE
  5
F8
  8
0
  6
CONTINUOUS
 62
     7
 10
-226.0000000000001
 20
114.0426034110533
 30
0.0
 11
-232.9999999999999
 21
114.0426034110533
 31
0.0
  0
LINE
  5
F9
  8
0
  6
CONTINUOUS
 62
     7
 10
-187.0
 20
114.0426034110533
 30
0.0
 11
-194.0000000000001
 21
114.0426034110533
 31
0.0
  0
LINE
  5
FA
  8
0
  6
CONTINUOUS
 62
     7
 10
-194.0000000000001
 20
118.8426034110533
 30
0.0
 11
-194.0000000000001
 21
114.0426034110533
 31
0.0
  0
ARC
  5
FB
  8
0
  6
CONTINUOUS
 62
     7
 10
-195.0000000000001
 20
118.8426034110533
 30
0.0
 40
1.000000000000001
 50
0.0
 51
90.0
  0
ARC
  5
FC
  8
0
  6
CONTINUOUS
 62
     7
 10
-195.0000000000001
 20
118.8426034110533
 30
0.0
 40
1.000000000000001
 50
90.0
 51
180.0
  0
LINE
  5
FD
  8
0
  6
CONTINUOUS
 62
     7
 10
-196.0000000000001
 20
114.2426034110533
 30
0.0
 11
-196.0000000000001
 21
118.8426034110533
 31
0.0
  0
LINE
  5
FE
  8
0
  6
CONTINUOUS
 62
     7
 10
-204.0000000000001
 20
114.2426034110533
 30
0.0
 11
-196.0000000000001
 21
114.2426034110533
 31
0.0
  0
LINE
  5
FF
  8
0
  6
CONTINUOUS
 62
     7
 10
-204.0000000000001
 20
118.8426034110533
 30
0.0
 11
-204.0000000000001
 21
114.2426034110533
 31
0.0
  0
ARC
  5
100
  8
0
  6
CONTINUOUS
 62
     7
 10
-205.0000000000001
 20
118.8426034110533
 30
0.0
 40
1.000000000000001
 50
0.0
 51
90.00000000000011
  0
LINE
  5
101
  8
0
  6
CONTINUOUS
 62
     7
 10
-215.0000000000001
 20
119.8426034110533
 30
0.0
 11
-205.0000000000001
 21
119.8426034110533
 31
0.0
  0
ARC
  5
102
  8
0
  6
CONTINUOUS
 62
     7
 10
-215.0000000000001
 20
118.8426034110533
 30
0.0
 40
1.000000000000001
 50
90.0
 51
180.0
  0
LINE
  5
103
  8
0
  6
CONTINUOUS
 62
     7
 10
-216.0000000000001
 20
114.2426034110533
 30
0.0
 11
-216.0000000000001
 21
118.8426034110533
 31
0.0
  0
LINE
  5
104
  8
0
  6
CONTINUOUS
 62
     7
 10
-224.0000000000001
 20
114.2426034110533
 30
0.0
 11
-216.0000000000001
 21
114.2426034110533
 31
0.0
  0
LINE
  5
105
  8
0
  6
CONTINUOUS
 62
     7
 10
-224.0000000000001
 20
118.8426034110533
 30
0.0
 11
-224.0000000000001
 21
114.2426034110533
 31
0.0
  0
ARC
  5
106
  8
0
  6
CONTINUOUS
 62
     7
 10
-225.0000000000001
 20
118.8426034110533
 30
0.0
 40
1.000000000000001
 50
0.0
 51
90.0
  0
ARC
  5
107
  8
0
  6
CONTINUOUS
 62
     7
 10
-225.0000000000001
 20
118.8426034110533
 30
0.0
 40
1.000000000000001
 50
90.0
 51
180.0
  0
LINE
  5
108
  8
0
  6
CONTINUOUS
 62
     7
 10
-233.0
 20
123.5426034110533
 30
0.0
 11
-224.5000000000001
 21
123.5426034110533
 31
0.0
  0
LINE
  5
109
  8
0
  6
CONTINUOUS
 62
     7
 10
-224.5000000000001
 20
123.5426034110533
 30
0.0
 11
-224.5000000000001
 21
123.479095084157
 31
0.0
  0
LINE
  5
10A
  8
0
  6
CONTINUOUS
 62
     7
 10
-224.5000000000001
 20
123.479095084157
 30
0.0
 11
-215.5000000000001
 21
123.479095084157
 31
0.0
  0
LINE
  5
10B
  8
0
  6
CONTINUOUS
 62
     7
 10
-215.5000000000001
 20
123.479095084157
 30
0.0
 11
-215.5000000000001
 21
123.5426034110533
 31
0.0
  0
LINE
  5
10C
  8
0
  6
CONTINUOUS
 62
     7
 10
-215.5000000000001
 20
123.5426034110533
 30
0.0
 11
-204.5000000000001
 21
123.5426034110533
 31
0.0
  0
LINE
  5
10D
  8
0
  6
CONTINUOUS
 62
     7
 10
-204.5000000000001
 20
123.5426034110533
 30
0.0
 11
-204.5000000000001
 21
123.479095084157
 31
0.0
  0
LINE
  5
10E
  8
0
  6
CONTINUOUS
 62
     7
 10
-204.5000000000001
 20
123.479095084157
 30
0.0
 11
-195.5000000000001
 21
123.479095084157
 31
0.0
  0
LINE
  5
10F
  8
0
  6
CONTINUOUS
 62
     7
 10
-195.5000000000001
 20
123.479095084157
 30
0.0
 11
-195.5000000000001
 21
123.5426034110533
 31
0.0
  0
LINE
  5
110
  8
0
  6
CONTINUOUS
 62
     7
 10
-195.5000000000001
 20
123.5426034110533
 30
0.0
 11
-187.0000000000001
 21
123.5426034110533
 31
0.0
  0
LINE
  5
111
  8
0
  6
CONTINUOUS
 62
     7
 10
-187.0000000000001
 20
123.5426034110533
 30
0.0
 11
-186.5000000000001
 21
123.5426034110533
 31
0.0
  0
ARC
  5
112
  8
0
  6
CONTINUOUS
 62
     7
 10
-186.5000000000001
 20
121.5426034110533
 30
0.0
 40
2.000000000000002
 50
0.0
 51
90.0
  0
LINE
  5
113
  8
0
  6
CONTINUOUS
 62
     7
 10
-184.5000000000001
 20
114.0426034110533
 30
0.0
 11
-187.0000000000001
 21
114.0426034110533
 31
0.0
  0
LINE
  5
114
  8
0
  6
CONTINUOUS
 62
     7
 10
-184.5000000000001
 20
121.5426034110533
 30
0.0
 11
-184.5000000000001
 21
114.0426034110533
 31
0.0
  0
LINE
  5
115
  8
0
  6
CONTINUOUS
 62
     7
 10
-232.9999999999999
 20
114.0426034110533
 30
0.0
 11
-235.5
 21
114.0426034110533
 31
0.0
  0
LINE
  5
116
  8
0
  6
CONTINUOUS
 62
     7
 10
-235.5
 20
114.0426034110533
 30
0.0
 11
-235.5
 21
121.5426034110533
 31
0.0
  0
LINE
  5
117
  8
0
  6
CONTINUOUS
 62
     7
 10
-215.5000000000001
 20
123.5426034110533
 30
0.0
 11
-224.5000000000001
 21
123.5426034110533
 31
0.0
  0
LINE
  5
118
  8
0
  6
CONTINUOUS
 62
     7
 10
-195.5000000000001
 20
123.5426034110533
 30
0.0
 11
-204.5000000000001
 21
123.5426034110533
 31
0.0
  0
POLYLINE
  5
119
  8
0
  6
CONTINUOUS
 62
     7
 66
     1
 10
0.0
 20
0.0
 30
0.0
  0
VERTEX
  5
199
  8
0
  6
CONTINUOUS
 62
     7
 10
-195.2813469802657
 20
149.3426034110532
 30
0.0
  0
VERTEX
  5
19A
  8
0
  6
CONTINUOUS
 62
     7
 10
-195.2814065777775
 20
149.3218349703199
 30
0.0
  0
VERTEX
  5
19B
  8
0
  6
CONTINUOUS
 62
     7
 10
-195.2818980915713
 20
149.3010845133386
 30
0.0
  0
VERTEX
  5
19C
  8
0
  6
CONTINUOUS
 62
     7
 10
-195.2828199203439
 20
149.2804056204695
 30
0.0
  0
VERTEX
  5
19D
  8
0
  6
CONTINUOUS
 62
     7
 10
-195.2841704627924
 20
149.2598518720731
 30
0.0
  0
VERTEX
  5
19E
  8
0
  6
CONTINUOUS
 62
     7
 10
-195.2860082666446
 20
149.2388512660124
 30
0.0
  0
VERTEX
  5
19F
  8
0
  6
CONTINUOUS
 62
     7
 10
-195.2882981117779
 20
149.2180212855727
 30
0.0
  0
VERTEX
  5
1A0
  8
0
  6
CONTINUOUS
 62
     7
 10
-195.2910338366614
 20
149.1974186687584
 30
0.0
  0
VERTEX
  5
1A1
  8
0
  6
CONTINUOUS
 62
     7
 10
-195.2942092797639
 20
149.1771001535738
 30
0.0
  0
VERTEX
  5
1A2
  8
0
  6
CONTINUOUS
 62
     7
 10
-195.2977157086229
 20
149.1576456487285
 30
0.0
  0
VERTEX
  5
1A3
  8
0
  6
CONTINUOUS
 62
     7
 10
-195.3016333245133
 20
149.1384938618031
 30
0.0
  0
VERTEX
  5
1A4
  8
0
  6
CONTINUOUS
 62
     7
 10
-195.3059524956567
 20
149.1196938820131
 30
0.0
  0
VERTEX
  5
1A5
  8
0
  6
CONTINUOUS
 62
     7
 10
-195.3106635902746
 20
149.1012947985736
 30
0.0
  0
VERTEX
  5
1A6
  8
0
  6
CONTINUOUS
 62
     7
 10
-195.3159187699202
 20
149.0827980877972
 30
0.0
  0
VERTEX
  5
1A7
  8
0
  6
CONTINUOUS
 62
     7
 10
-195.3215823542612
 20
149.0647597627713
 30
0.0
  0
VERTEX
  5
1A8
  8
0
  6
CONTINUOUS
 62
     7
 10
-195.3276396651875
 20
149.0472285564728
 30
0.0
  0
VERTEX
  5
1A9
  8
0
  6
CONTINUOUS
 62
     7
 10
-195.334076024589
 20
149.0302532018786
 30
0.0
  0
VERTEX
  5
1AA
  8
0
  6
CONTINUOUS
 62
     7
 10
-195.3406899869035
 20
149.0143076788376
 30
0.0
  0
VERTEX
  5
1AB
  8
0
  6
CONTINUOUS
 62
     7
 10
-195.3476532170731
 20
148.9989154501182
 30
0.0
  0
VERTEX
  5
1AC
  8
0
  6
CONTINUOUS
 62
     7
 10
-195.354948627418
 20
148.9841155877103
 30
0.0
  0
VERTEX
  5
1AD
  8
0
  6
CONTINUOUS
 62
     7
 10
-195.3625591302588
 20
148.969947163604
 30
0.0
  0
VERTEX
  5
1AE
  8
0
  6
CONTINUOUS
 62
     7
 10
-195.3707152222457
 20
148.95604136043
 30
0.0
  0
VERTEX
  5
1AF
  8
0
  6
CONTINUOUS
 62
     7
 10
-195.3791934517427
 20
148.942830024637
 30
0.0
  0
VERTEX
  5
1B0
  8
0
  6
CONTINUOUS
 62
     7
 10
-195.3879715839059
 20
148.9303483684253
 30
0.0
  0
VERTEX
  5
1B1
  8
0
  6
CONTINUOUS
 62
     7
 10
-195.3970273838911
 20
148.9186316039954
 30
0.0
  0
VERTEX
  5
1B2
  8
0
  6
CONTINUOUS
 62
     7
 10
-195.4060846073168
 20
148.9079944668267
 30
0.0
  0
VERTEX
  5
1B3
  8
0
  6
CONTINUOUS
 62
     7
 10
-195.4153906269301
 20
148.8980984304878
 30
0.0
  0
VERTEX
  5
1B4
  8
0
  6
CONTINUOUS
 62
     7
 10
-195.4249221620325
 20
148.8889680831124
 30
0.0
  0
VERTEX
  5
1B5
  8
0
  6
CONTINUOUS
 62
     7
 10
-195.4346559319254
 20
148.8806280128341
 30
0.0
  0
VERTEX
  5
1B6
  8
0
  6
CONTINUOUS
 62
     7
 10
-195.4448764197294
 20
148.8728809240413
 30
0.0
  0
VERTEX
  5
1B7
  8
0
  6
CONTINUOUS
 62
     7
 10
-195.4552947993857
 20
148.8659853963229
 30
0.0
  0
VERTEX
  5
1B8
  8
0
  6
CONTINUOUS
 62
     7
 10
-195.4658831266451
 20
148.8599590598802
 30
0.0
  0
VERTEX
  5
1B9
  8
0
  6
CONTINUOUS
 62
     7
 10
-195.4766134572585
 20
148.8548195449147
 30
0.0
  0
VERTEX
  5
1BA
  8
0
  6
CONTINUOUS
 62
     7
 10
-195.4878693243064
 20
148.850440572852
 30
0.0
  0
VERTEX
  5
1BB
  8
0
  6
CONTINUOUS
 62
     7
 10
-195.4992630480579
 20
148.8470224098867
 30
0.0
  0
VERTEX
  5
1BC
  8
0
  6
CONTINUOUS
 62
     7
 10
-195.5107612272834
 20
148.8445721195667
 30
0.0
  0
VERTEX
  5
1BD
  8
0
  6
CONTINUOUS
 62
     7
 10
-195.5223304607535
 20
148.8430967654396
 30
0.0
  0
VERTEX
  5
1BE
  8
0
  6
CONTINUOUS
 62
     7
 10
-195.5339373472386
 20
148.8426034110533
 30
0.0
  0
SEQEND
  5
441
  8
0
  6
CONTINUOUS
 62
     7
  0
LINE
  5
11A
  8
0
  6
CONTINUOUS
 62
     7
 10
-195.3174188971131
 20
154.1154798660091
 30
0.0
 11
-195.2813469802657
 21
149.3426034110532
 31
0.0
  0
LINE
  5
11B
  8
0
  6
CONTINUOUS
 62
     7
 10
-226.4165242934234
 20
149.3426034110534
 30
0.0
 11
-226.4054555937593
 21
150.6556932143008
 31
0.0
  0
POLYLINE
  5
11C
  8
0
  6
CONTINUOUS
 62
     7
 66
     1
 10
0.0
 20
0.0
 30
0.0
  0
VERTEX
  5
1BF
  8
0
  6
CONTINUOUS
 62
     7
 10
-226.2842255919315
 20
148.8426034110533
 30
0.0
  0
VERTEX
  5
1C0
  8
0
  6
CONTINUOUS
 62
     7
 10
-226.2901702778033
 20
148.8430358974536
 30
0.0
  0
VERTEX
  5
1C1
  8
0
  6
CONTINUOUS
 62
     7
 10
-226.2960783794589
 20
148.8443304601151
 30
0.0
  0
VERTEX
  5
1C2
  8
0
  6
CONTINUOUS
 62
     7
 10
-226.3019349349188
 20
148.8464827542288
 30
0.0
  0
VERTEX
  5
1C3
  8
0
  6
CONTINUOUS
 62
     7
 10
-226.3077249822034
 20
148.8494884349857
 30
0.0
  0
VERTEX
  5
1C4
  8
0
  6
CONTINUOUS
 62
     7
 10
-226.3136084891207
 20
148.8534724065116
 30
0.0
  0
VERTEX
  5
1C5
  8
0
  6
CONTINUOUS
 62
     7
 10
-226.3194119175101
 20
148.8583538778924
 30
0.0
  0
VERTEX
  5
1C6
  8
0
  6
CONTINUOUS
 62
     7
 10
-226.3251202866873
 20
148.8641183527718
 30
0.0
  0
VERTEX
  5
1C7
  8
0
  6
CONTINUOUS
 62
     7
 10
-226.3307186159678
 20
148.8707513347935
 30
0.0
  0
VERTEX
  5
1C8
  8
0
  6
CONTINUOUS
 62
     7
 10
-226.3360492563241
 20
148.8780262079959
 30
0.0
  0
VERTEX
  5
1C9
  8
0
  6
CONTINUOUS
 62
     7
 10
-226.3412684211962
 20
148.886109314544
 30
0.0
  0
VERTEX
  5
1CA
  8
0
  6
CONTINUOUS
 62
     7
 10
-226.3463638869596
 20
148.8949787597469
 30
0.0
  0
VERTEX
  5
1CB
  8
0
  6
CONTINUOUS
 62
     7
 10
-226.35132342999
 20
148.904612648914
 30
0.0
  0
VERTEX
  5
1CC
  8
0
  6
CONTINUOUS
 62
     7
 10
-226.3562814028381
 20
148.9153181543082
 30
0.0
  0
VERTEX
  5
1CD
  8
0
  6
CONTINUOUS
 62
     7
 10
-226.361089091759
 20
148.9268145999567
 30
0.0
  0
VERTEX
  5
1CE
  8
0
  6
CONTINUOUS
 62
     7
 10
-226.3657350699622
 20
148.9390694606148
 30
0.0
  0
VERTEX
  5
1CF
  8
0
  6
CONTINUOUS
 62
     7
 10
-226.3702079106573
 20
148.9520502110381
 30
0.0
  0
VERTEX
  5
1D0
  8
0
  6
CONTINUOUS
 62
     7
 10
-226.3743849270076
 20
148.9653482214516
 30
0.0
  0
VERTEX
  5
1D1
  8
0
  6
CONTINUOUS
 62
     7
 10
-226.3783940384103
 20
148.9793086745343
 30
0.0
  0
VERTEX
  5
1D2
  8
0
  6
CONTINUOUS
 62
     7
 10
-226.3822266236789
 20
148.993894662845
 30
0.0
  0
VERTEX
  5
1D3
  8
0
  6
CONTINUOUS
 62
     7
 10
-226.3858740616269
 20
149.0090692789425
 30
0.0
  0
VERTEX
  5
1D4
  8
0
  6
CONTINUOUS
 62
     7
 10
-226.3894317387304
 20
149.0252867578755
 30
0.0
  0
VERTEX
  5
1D5
  8
0
  6
CONTINUOUS
 62
     7
 10
-226.3927900128367
 20
149.042098783566
 30
0.0
  0
VERTEX
  5
1D6
  8
0
  6
CONTINUOUS
 62
     7
 10
-226.3959415693285
 20
149.0594585927596
 30
0.0
  0
VERTEX
  5
1D7
  8
0
  6
CONTINUOUS
 62
     7
 10
-226.3988790935885
 20
149.0773194222021
 30
0.0
  0
VERTEX
  5
1D8
  8
0
  6
CONTINUOUS
 62
     7
 10
-226.4015277815334
 20
149.0951478531994
 30
0.0
  0
VERTEX
  5
1D9
  8
0
  6
CONTINUOUS
 62
     7
 10
-226.4039721896112
 20
149.1134188020407
 30
0.0
  0
VERTEX
  5
1DA
  8
0
  6
CONTINUOUS
 62
     7
 10
-226.4062075106287
 20
149.132084520193
 30
0.0
  0
VERTEX
  5
1DB
  8
0
  6
CONTINUOUS
 62
     7
 10
-226.4082289373927
 20
149.1510972591231
 30
0.0
  0
VERTEX
  5
1DC
  8
0
  6
CONTINUOUS
 62
     7
 10
-226.4100844502881
 20
149.1710077013827
 30
0.0
  0
VERTEX
  5
1DD
  8
0
  6
CONTINUOUS
 62
     7
 10
-226.4117122324054
 20
149.1912499516978
 30
0.0
  0
VERTEX
  5
1DE
  8
0
  6
CONTINUOUS
 62
     7
 10
-226.41310910276
 20
149.2117682299467
 30
0.0
  0
VERTEX
  5
1DF
  8
0
  6
CONTINUOUS
 62
     7
 10
-226.4142718803673
 20
149.232506756008
 30
0.0
  0
VERTEX
  5
1E0
  8
0
  6
CONTINUOUS
 62
     7
 10
-226.4152296996874
 20
149.2542435566096
 30
0.0
  0
VERTEX
  5
1E1
  8
0
  6
CONTINUOUS
 62
     7
 10
-226.4159347726048
 20
149.2761866670445
 30
0.0
  0
VERTEX
  5
1E2
  8
0
  6
CONTINUOUS
 62
     7
 10
-226.4163861771678
 20
149.2982710426832
 30
0.0
  0
VERTEX
  5
1E3
  8
0
  6
CONTINUOUS
 62
     7
 10
-226.4165829914245
 20
149.320431638896
 30
0.0
  0
VERTEX
  5
1E4
  8
0
  6
CONTINUOUS
 62
     7
 10
-226.4165242934234
 20
149.3426034110534
 30
0.0
  0
SEQEND
  5
442
  8
0
  6
CONTINUOUS
 62
     7
  0
LINE
  5
11D
  8
0
  6
CONTINUOUS
 62
     7
 10
-224.9660626527615
 20
148.8426034110533
 30
0.0
 11
-226.2842255919315
 21
148.8426034110533
 31
0.0
  0
POLYLINE
  5
11E
  8
0
  6
CONTINUOUS
 62
     7
 66
     1
 10
0.0
 20
0.0
 30
0.0
  0
VERTEX
  5
1E5
  8
0
  6
CONTINUOUS
 62
     7
 10
-224.7186530197344
 20
149.3426034110532
 30
0.0
  0
VERTEX
  5
1E6
  8
0
  6
CONTINUOUS
 62
     7
 10
-224.7190266142213
 20
149.3218349703199
 30
0.0
  0
VERTEX
  5
1E7
  8
0
  6
CONTINUOUS
 62
     7
 10
-224.7198317006952
 20
149.3010845133386
 30
0.0
  0
VERTEX
  5
1E8
  8
0
  6
CONTINUOUS
 62
     7
 10
-224.7210654168664
 20
149.2804056204695
 30
0.0
  0
VERTEX
  5
1E9
  8
0
  6
CONTINUOUS
 62
     7
 10
-224.7227249004454
 20
149.2598518720731
 30
0.0
  0
VERTEX
  5
1EA
  8
0
  6
CONTINUOUS
 62
     7
 10
-224.7248766007708
 20
149.2388512660124
 30
0.0
  0
VERTEX
  5
1EB
  8
0
  6
CONTINUOUS
 62
     7
 10
-224.7274747192195
 20
149.2180212855727
 30
0.0
  0
VERTEX
  5
1EC
  8
0
  6
CONTINUOUS
 62
     7
 10
-224.7305108246339
 20
149.1974186687584
 30
0.0
  0
VERTEX
  5
1ED
  8
0
  6
CONTINUOUS
 62
     7
 10
-224.7339764858561
 20
149.1771001535738
 30
0.0
  0
VERTEX
  5
1EE
  8
0
  6
CONTINUOUS
 62
     7
 10
-224.7377533992761
 20
149.1576456487285
 30
0.0
  0
VERTEX
  5
1EF
  8
0
  6
CONTINUOUS
 62
     7
 10
-224.741927949816
 20
149.1384938618031
 30
0.0
  0
VERTEX
  5
1F0
  8
0
  6
CONTINUOUS
 62
     7
 10
-224.7464878262738
 20
149.1196938820131
 30
0.0
  0
VERTEX
  5
1F1
  8
0
  6
CONTINUOUS
 62
     7
 10
-224.7514207174476
 20
149.1012947985736
 30
0.0
  0
VERTEX
  5
1F2
  8
0
  6
CONTINUOUS
 62
     7
 10
-224.7568818468926
 20
149.0827980877972
 30
0.0
  0
VERTEX
  5
1F3
  8
0
  6
CONTINUOUS
 62
     7
 10
-224.7627259792694
 20
149.0647597627713
 30
0.0
  0
VERTEX
  5
1F4
  8
0
  6
CONTINUOUS
 62
     7
 10
-224.7689352311292
 20
149.0472285564728
 30
0.0
  0
VERTEX
  5
1F5
  8
0
  6
CONTINUOUS
 62
     7
 10
-224.7754917190227
 20
149.0302532018786
 30
0.0
  0
VERTEX
  5
1F6
  8
0
  6
CONTINUOUS
 62
     7
 10
-224.782189032552
 20
149.0143076788376
 30
0.0
  0
VERTEX
  5
1F7
  8
0
  6
CONTINUOUS
 62
     7
 10
-224.7891999797156
 20
148.9989154501182
 30
0.0
  0
VERTEX
  5
1F8
  8
0
  6
CONTINUOUS
 62
     7
 10
-224.7965046723036
 20
148.9841155877103
 30
0.0
  0
VERTEX
  5
1F9
  8
0
  6
CONTINUOUS
 62
     7
 10
-224.8040832221058
 20
148.969947163604
 30
0.0
  0
VERTEX
  5
1FA
  8
0
  6
CONTINUOUS
 62
     7
 10
-224.8121603588631
 20
148.95604136043
 30
0.0
  0
VERTEX
  5
1FB
  8
0
  6
CONTINUOUS
 62
     7
 10
-224.8205102134468
 20
148.942830024637
 30
0.0
  0
VERTEX
  5
1FC
  8
0
  6
CONTINUOUS
 62
     7
 10
-224.829108116638
 20
148.9303483684253
 30
0.0
  0
VERTEX
  5
1FD
  8
0
  6
CONTINUOUS
 62
     7
 10
-224.8379293992178
 20
148.9186316039954
 30
0.0
  0
VERTEX
  5
1FE
  8
0
  6
CONTINUOUS
 62
     7
 10
-224.8467041736096
 20
148.9079944668267
 30
0.0
  0
VERTEX
  5
1FF
  8
0
  6
CONTINUOUS
 62
     7
 10
-224.8556719657898
 20
148.8980984304878
 30
0.0
  0
VERTEX
  5
200
  8
0
  6
CONTINUOUS
 62
     7
 10
-224.8648082243111
 20
148.8889680831124
 30
0.0
  0
VERTEX
  5
201
  8
0
  6
CONTINUOUS
 62
     7
 10
-224.8740883977266
 20
148.8806280128341
 30
0.0
  0
VERTEX
  5
202
  8
0
  6
CONTINUOUS
 62
     7
 10
-224.8837791814078
 20
148.8728809240413
 30
0.0
  0
VERTEX
  5
203
  8
0
  6
CONTINUOUS
 62
     7
 10
-224.8936028501263
 20
148.8659853963229
 30
0.0
  0
VERTEX
  5
204
  8
0
  6
CONTINUOUS
 62
     7
 10
-224.9035314683678
 20
148.8599590598802
 30
0.0
  0
VERTEX
  5
205
  8
0
  6
CONTINUOUS
 62
     7
 10
-224.913537100618
 20
148.8548195449147
 30
0.0
  0
VERTEX
  5
206
  8
0
  6
CONTINUOUS
 62
     7
 10
-224.9239723386392
 20
148.850440572852
 30
0.0
  0
VERTEX
  5
207
  8
0
  6
CONTINUOUS
 62
     7
 10
-224.9344738117488
 20
148.8470224098867
 30
0.0
  0
VERTEX
  5
208
  8
0
  6
CONTINUOUS
 62
     7
 10
-224.9450102210621
 20
148.8445721195667
 30
0.0
  0
VERTEX
  5
209
  8
0
  6
CONTINUOUS
 62
     7
 10
-224.9555502676946
 20
148.8430967654396
 30
0.0
  0
VERTEX
  5
20A
  8
0
  6
CONTINUOUS
 62
     7
 10
-224.9660626527615
 20
148.8426034110533
 30
0.0
  0
SEQEND
  5
443
  8
0
  6
CONTINUOUS
 62
     7
  0
LINE
  5
11F
  8
0
  6
CONTINUOUS
 62
     7
 10
-224.682581102887
 20
154.1154798660091
 30
0.0
 11
-224.7186530197344
 21
149.3426034110532
 31
0.0
  0
LINE
  5
120
  8
0
  6
CONTINUOUS
 62
     7
 10
-210.0
 20
149.3426034110532
 30
0.0
 11
-210.0000000000001
 21
154.1154798660091
 31
0.0
  0
POLYLINE
  5
121
  8
0
  6
CONTINUOUS
 62
     7
 66
     1
 10
0.0
 20
0.0
 30
0.0
  0
VERTEX
  5
20B
  8
0
  6
CONTINUOUS
 62
     7
 10
-209.5000000000001
 20
148.8426034110533
 30
0.0
  0
VERTEX
  5
20C
  8
0
  6
CONTINUOUS
 62
     7
 10
-209.5207514874716
 20
148.8430358974536
 30
0.0
  0
VERTEX
  5
20D
  8
0
  6
CONTINUOUS
 62
     7
 10
-209.5414859881477
 20
148.8443304601151
 30
0.0
  0
VERTEX
  5
20E
  8
0
  6
CONTINUOUS
 62
     7
 10
-209.5621499709832
 20
148.8464827542288
 30
0.0
  0
VERTEX
  5
20F
  8
0
  6
CONTINUOUS
 62
     7
 10
-209.5826899049335
 20
148.8494884349857
 30
0.0
  0
VERTEX
  5
210
  8
0
  6
CONTINUOUS
 62
     7
 10
-209.6036772818267
 20
148.8534724065116
 30
0.0
  0
VERTEX
  5
211
  8
0
  6
CONTINUOUS
 62
     7
 10
-209.6244951529299
 20
148.8583538778924
 30
0.0
  0
VERTEX
  5
212
  8
0
  6
CONTINUOUS
 62
     7
 10
-209.6450867585261
 20
148.8641183527718
 30
0.0
  0
VERTEX
  5
213
  8
0
  6
CONTINUOUS
 62
     7
 10
-209.6653953388985
 20
148.8707513347935
 30
0.0
  0
VERTEX
  5
214
  8
0
  6
CONTINUOUS
 62
     7
 10
-209.6848414006278
 20
148.8780262079959
 30
0.0
  0
VERTEX
  5
215
  8
0
  6
CONTINUOUS
 62
     7
 10
-209.7039856703651
 20
148.886109314544
 30
0.0
  0
VERTEX
  5
216
  8
0
  6
CONTINUOUS
 62
     7
 10
-209.7227790218974
 20
148.8949787597469
 30
0.0
  0
VERTEX
  5
217
  8
0
  6
CONTINUOUS
 62
     7
 10
-209.7411723290112
 20
148.904612648914
 30
0.0
  0
VERTEX
  5
218
  8
0
  6
CONTINUOUS
 62
     7
 10
-209.7596640663919
 20
148.9153181543082
 30
0.0
  0
VERTEX
  5
219
  8
0
  6
CONTINUOUS
 62
     7
 10
-209.7776982486542
 20
148.9268145999567
 30
0.0
  0
VERTEX
  5
21A
  8
0
  6
CONTINUOUS
 62
     7
 10
-209.7952261317782
 20
148.9390694606148
 30
0.0
  0
VERTEX
  5
21B
  8
0
  6
CONTINUOUS
 62
     7
 10
-209.8121989717438
 20
148.9520502110381
 30
0.0
  0
VERTEX
  5
21C
  8
0
  6
CONTINUOUS
 62
     7
 10
-209.828141503888
 20
148.9653482214516
 30
0.0
  0
VERTEX
  5
21D
  8
0
  6
CONTINUOUS
 62
     7
 10
-209.8435315920659
 20
148.9793086745343
 30
0.0
  0
VERTEX
  5
21E
  8
0
  6
CONTINUOUS
 62
     7
 10
-209.8583302018831
 20
148.993894662845
 30
0.0
  0
VERTEX
  5
21F
  8
0
  6
CONTINUOUS
 62
     7
 10
-209.8724982989454
 20
149.0090692789425
 30
0.0
  0
VERTEX
  5
220
  8
0
  6
CONTINUOUS
 62
     7
 10
-209.8864042766378
 20
149.0252867578755
 30
0.0
  0
VERTEX
  5
221
  8
0
  6
CONTINUOUS
 62
     7
 10
-209.8996168554111
 20
149.042098783566
 30
0.0
  0
VERTEX
  5
222
  8
0
  6
CONTINUOUS
 62
     7
 10
-209.912100879944
 20
149.0594585927597
 30
0.0
  0
VERTEX
  5
223
  8
0
  6
CONTINUOUS
 62
     7
 10
-209.9238211949151
 20
149.0773194222021
 30
0.0
  0
VERTEX
  5
224
  8
0
  6
CONTINUOUS
 62
     7
 10
-209.9344698752032
 20
149.0951478531994
 30
0.0
  0
VERTEX
  5
225
  8
0
  6
CONTINUOUS
 62
     7
 10
-209.9443775837484
 20
149.1134188020408
 30
0.0
  0
VERTEX
  5
226
  8
0
  6
CONTINUOUS
 62
     7
 10
-209.9535197042596
 20
149.132084520193
 30
0.0
  0
VERTEX
  5
227
  8
0
  6
CONTINUOUS
 62
     7
 10
-209.9618716204455
 20
149.1510972591231
 30
0.0
  0
VERTEX
  5
228
  8
0
  6
CONTINUOUS
 62
     7
 10
-209.9696307438098
 20
149.1710077013827
 30
0.0
  0
VERTEX
  5
229
  8
0
  6
CONTINUOUS
 62
     7
 10
-209.976538342755
 20
149.1912499516978
 30
0.0
  0
VERTEX
  5
22A
  8
0
  6
CONTINUOUS
 62
     7
 10
-209.9825767073586
 20
149.2117682299467
 30
0.0
  0
VERTEX
  5
22B
  8
0
  6
CONTINUOUS
 62
     7
 10
-209.9877281276981
 20
149.232506756008
 30
0.0
  0
VERTEX
  5
22C
  8
0
  6
CONTINUOUS
 62
     7
 10
-209.9914452861346
 20
149.2505106644857
 30
0.0
  0
VERTEX
  5
22D
  8
0
  6
CONTINUOUS
 62
     7
 10
-209.9944994569701
 20
149.2686451100307
 30
0.0
  0
VERTEX
  5
22E
  8
0
  6
CONTINUOUS
 62
     7
 10
-209.9968844533772
 20
149.2868733474246
 30
0.0
  0
VERTEX
  5
22F
  8
0
  6
CONTINUOUS
 62
     7
 10
-209.9986138739196
 20
149.3054049596284
 30
0.0
  0
VERTEX
  5
230
  8
0
  6
CONTINUOUS
 62
     7
 10
-209.9996531088068
 20
149.3239945176651
 30
0.0
  0
VERTEX
  5
231
  8
0
  6
CONTINUOUS
 62
     7
 10
-210.0
 20
149.3426034110532
 30
0.0
  0
SEQEND
  5
444
  8
0
  6
CONTINUOUS
 62
     7
  0
LINE
  5
122
  8
0
  6
CONTINUOUS
 62
     7
 10
-206.0849426393598
 20
148.8426034110533
 30
0.0
 11
-209.5
 21
148.8426034110533
 31
0.0
  0
POLYLINE
  5
123
  8
0
  6
CONTINUOUS
 62
     7
 66
     1
 10
0.0
 20
0.0
 30
0.0
  0
VERTEX
  5
232
  8
0
  6
CONTINUOUS
 62
     7
 10
-205.6012055730514
 20
149.3426034110526
 30
0.0
  0
VERTEX
  5
233
  8
0
  6
CONTINUOUS
 62
     7
 10
-205.6015770840596
 20
149.3218349703199
 30
0.0
  0
VERTEX
  5
234
  8
0
  6
CONTINUOUS
 62
     7
 10
-205.6027826468155
 20
149.3010845133386
 30
0.0
  0
VERTEX
  5
235
  8
0
  6
CONTINUOUS
 62
     7
 10
-205.604818138248
 20
149.2804056204695
 30
0.0
  0
VERTEX
  5
236
  8
0
  6
CONTINUOUS
 62
     7
 10
-205.6076794352857
 20
149.2598518720731
 30
0.0
  0
VERTEX
  5
237
  8
0
  6
CONTINUOUS
 62
     7
 10
-205.6114860950918
 20
149.2388512660124
 30
0.0
  0
VERTEX
  5
238
  8
0
  6
CONTINUOUS
 62
     7
 10
-205.6161614403048
 20
149.2180212855727
 30
0.0
  0
VERTEX
  5
239
  8
0
  6
CONTINUOUS
 62
     7
 10
-205.6216917146184
 20
149.1974186687584
 30
0.0
  0
VERTEX
  5
23A
  8
0
  6
CONTINUOUS
 62
     7
 10
-205.6280631617261
 20
149.1771001535738
 30
0.0
  0
VERTEX
  5
23B
  8
0
  6
CONTINUOUS
 62
     7
 10
-205.6350579118313
 20
149.1576456487285
 30
0.0
  0
VERTEX
  5
23C
  8
0
  6
CONTINUOUS
 62
     7
 10
-205.6428359508262
 20
149.1384938618031
 30
0.0
  0
VERTEX
  5
23D
  8
0
  6
CONTINUOUS
 62
     7
 10
-205.6513764838035
 20
149.1196938820131
 30
0.0
  0
VERTEX
  5
23E
  8
0
  6
CONTINUOUS
 62
     7
 10
-205.6606587158561
 20
149.1012947985736
 30
0.0
  0
VERTEX
  5
23F
  8
0
  6
CONTINUOUS
 62
     7
 10
-205.6709791006461
 20
149.0827980877972
 30
0.0
  0
VERTEX
  5
240
  8
0
  6
CONTINUOUS
 62
     7
 10
-205.6820677222687
 20
149.0647597627713
 30
0.0
  0
VERTEX
  5
241
  8
0
  6
CONTINUOUS
 62
     7
 10
-205.6938936076446
 20
149.0472285564728
 30
0.0
  0
VERTEX
  5
242
  8
0
  6
CONTINUOUS
 62
     7
 10
-205.7064257836939
 20
149.0302532018786
 30
0.0
  0
VERTEX
  5
243
  8
0
  6
CONTINUOUS
 62
     7
 10
-205.7192710337033
 20
149.0143076788376
 30
0.0
  0
VERTEX
  5
244
  8
0
  6
CONTINUOUS
 62
     7
 10
-205.7327619221761
 20
148.9989154501182
 30
0.0
  0
VERTEX
  5
245
  8
0
  6
CONTINUOUS
 62
     7
 10
-205.7468631516269
 20
148.9841155877103
 30
0.0
  0
VERTEX
  5
246
  8
0
  6
CONTINUOUS
 62
     7
 10
-205.76153942457
 20
148.969947163604
 30
0.0
  0
VERTEX
  5
247
  8
0
  6
CONTINUOUS
 62
     7
 10
-205.7772313176785
 20
148.95604136043
 30
0.0
  0
VERTEX
  5
248
  8
0
  6
CONTINUOUS
 62
     7
 10
-205.7935051816654
 20
148.942830024637
 30
0.0
  0
VERTEX
  5
249
  8
0
  6
CONTINUOUS
 62
     7
 10
-205.8103160744519
 20
148.9303483684253
 30
0.0
  0
VERTEX
  5
24A
  8
0
  6
CONTINUOUS
 62
     7
 10
-205.8276190539592
 20
148.9186316039954
 30
0.0
  0
VERTEX
  5
24B
  8
0
  6
CONTINUOUS
 62
     7
 10
-205.8448856473314
 20
148.9079944668267
 30
0.0
  0
VERTEX
  5
24C
  8
0
  6
CONTINUOUS
 62
     7
 10
-205.8625873351575
 20
148.8980984304878
 30
0.0
  0
VERTEX
  5
24D
  8
0
  6
CONTINUOUS
 62
     7
 10
-205.8806781050198
 20
148.8889680831124
 30
0.0
  0
VERTEX
  5
24E
  8
0
  6
CONTINUOUS
 62
     7
 10
-205.8991119445003
 20
148.8806280128341
 30
0.0
  0
VERTEX
  5
24F
  8
0
  6
CONTINUOUS
 62
     7
 10
-205.9184239091493
 20
148.8728809240413
 30
0.0
  0
VERTEX
  5
250
  8
0
  6
CONTINUOUS
 62
     7
 10
-205.9380650936583
 20
148.8659853963229
 30
0.0
  0
VERTEX
  5
251
  8
0
  6
CONTINUOUS
 62
     7
 10
-205.957981521015
 20
148.8599590598802
 30
0.0
  0
VERTEX
  5
252
  8
0
  6
CONTINUOUS
 62
     7
 10
-205.9781192142073
 20
148.8548195449147
 30
0.0
  0
VERTEX
  5
253
  8
0
  6
CONTINUOUS
 62
     7
 10
-205.9991938387706
 20
148.850440572852
 30
0.0
  0
VERTEX
  5
254
  8
0
  6
CONTINUOUS
 62
     7
 10
-206.0204763032304
 20
148.8470224098867
 30
0.0
  0
VERTEX
  5
255
  8
0
  6
CONTINUOUS
 62
     7
 10
-206.0419037979239
 20
148.8445721195667
 30
0.0
  0
VERTEX
  5
256
  8
0
  6
CONTINUOUS
 62
     7
 10
-206.063413513188
 20
148.8430967654396
 30
0.0
  0
VERTEX
  5
257
  8
0
  6
CONTINUOUS
 62
     7
 10
-206.0849426393598
 20
148.8426034110533
 30
0.0
  0
SEQEND
  5
445
  8
0
  6
CONTINUOUS
 62
     7
  0
LINE
  5
124
  8
0
  6
CONTINUOUS
 62
     7
 10
-205.6041714221876
 20
150.6556932142999
 30
0.0
 11
-205.6012055730514
 21
149.3426034110526
 31
0.0
  0
LINE
  5
125
  8
0
  6
CONTINUOUS
 62
     7
 10
-197.9822701335254
 20
149.3426034110532
 30
0.0
 11
-197.9903729840532
 21
150.6556932143008
 31
0.0
  0
POLYLINE
  5
126
  8
0
  6
CONTINUOUS
 62
     7
 66
     1
 10
0.0
 20
0.0
 30
0.0
  0
VERTEX
  5
258
  8
0
  6
CONTINUOUS
 62
     7
 10
-197.6308317687088
 20
148.8426034110533
 30
0.0
  0
VERTEX
  5
259
  8
0
  6
CONTINUOUS
 62
     7
 10
-197.6450852312936
 20
148.8430358974536
 30
0.0
  0
VERTEX
  5
25A
  8
0
  6
CONTINUOUS
 62
     7
 10
-197.6593502454392
 20
148.8443304601151
 30
0.0
  0
VERTEX
  5
25B
  8
0
  6
CONTINUOUS
 62
     7
 10
-197.6735897694529
 20
148.8464827542288
 30
0.0
  0
VERTEX
  5
25C
  8
0
  6
CONTINUOUS
 62
     7
 10
-197.6877667616421
 20
148.8494884349857
 30
0.0
  0
VERTEX
  5
25D
  8
0
  6
CONTINUOUS
 62
     7
 10
-197.7022765029996
 20
148.8534724065116
 30
0.0
  0
VERTEX
  5
25E
  8
0
  6
CONTINUOUS
 62
     7
 10
-197.7166928911743
 20
148.8583538778924
 30
0.0
  0
VERTEX
  5
25F
  8
0
  6
CONTINUOUS
 62
     7
 10
-197.7309760034184
 20
148.8641183527718
 30
0.0
  0
VERTEX
  5
260
  8
0
  6
CONTINUOUS
 62
     7
 10
-197.7450859169841
 20
148.8707513347935
 30
0.0
  0
VERTEX
  5
261
  8
0
  6
CONTINUOUS
 62
     7
 10
-197.758618479383
 20
148.8780262079959
 30
0.0
  0
VERTEX
  5
262
  8
0
  6
CONTINUOUS
 62
     7
 10
-197.7719620682027
 20
148.886109314544
 30
0.0
  0
VERTEX
  5
263
  8
0
  6
CONTINUOUS
 62
     7
 10
-197.7850815863993
 20
148.8949787597469
 30
0.0
  0
VERTEX
  5
264
  8
0
  6
CONTINUOUS
 62
     7
 10
-197.797941936929
 20
148.904612648914
 30
0.0
  0
VERTEX
  5
265
  8
0
  6
CONTINUOUS
 62
     7
 10
-197.810891687075
 20
148.9153181543082
 30
0.0
  0
VERTEX
  5
266
  8
0
  6
CONTINUOUS
 62
     7
 10
-197.8235412199949
 20
148.9268145999567
 30
0.0
  0
VERTEX
  5
267
  8
0
  6
CONTINUOUS
 62
     7
 10
-197.8358551979872
 20
148.9390694606148
 30
0.0
  0
VERTEX
  5
268
  8
0
  6
CONTINUOUS
 62
     7
 10
-197.8477982833505
 20
148.9520502110381
 30
0.0
  0
VERTEX
  5
269
  8
0
  6
CONTINUOUS
 62
     7
 10
-197.8590341784428
 20
148.9653482214516
 30
0.0
  0
VERTEX
  5
26A
  8
0
  6
CONTINUOUS
 62
     7
 10
-197.8698976807776
 20
148.9793086745343
 30
0.0
  0
VERTEX
  5
26B
  8
0
  6
CONTINUOUS
 62
     7
 10
-197.880360104221
 20
148.993894662845
 30
0.0
  0
VERTEX
  5
26C
  8
0
  6
CONTINUOUS
 62
     7
 10
-197.8903927626389
 20
149.0090692789425
 30
0.0
  0
VERTEX
  5
26D
  8
0
  6
CONTINUOUS
 62
     7
 10
-197.9002561207577
 20
149.0252867578755
 30
0.0
  0
VERTEX
  5
26E
  8
0
  6
CONTINUOUS
 62
     7
 10
-197.9096437675385
 20
149.042098783566
 30
0.0
  0
VERTEX
  5
26F
  8
0
  6
CONTINUOUS
 62
     7
 10
-197.9185295382536
 20
149.0594585927596
 30
0.0
  0
VERTEX
  5
270
  8
0
  6
CONTINUOUS
 62
     7
 10
-197.926887268176
 20
149.0773194222021
 30
0.0
  0
VERTEX
  5
271
  8
0
  6
CONTINUOUS
 62
     7
 10
-197.9344956395842
 20
149.0951478531994
 30
0.0
  0
VERTEX
  5
272
  8
0
  6
CONTINUOUS
 62
     7
 10
-197.9415892171438
 20
149.1134188020407
 30
0.0
  0
VERTEX
  5
273
  8
0
  6
CONTINUOUS
 62
     7
 10
-197.9481494496017
 20
149.132084520193
 30
0.0
  0
VERTEX
  5
274
  8
0
  6
CONTINUOUS
 62
     7
 10
-197.9541577857046
 20
149.1510972591231
 30
0.0
  0
VERTEX
  5
275
  8
0
  6
CONTINUOUS
 62
     7
 10
-197.9597560956851
 20
149.1710077013827
 30
0.0
  0
VERTEX
  5
276
  8
0
  6
CONTINUOUS
 62
     7
 10
-197.9647576602574
 20
149.1912499516977
 30
0.0
  0
VERTEX
  5
277
  8
0
  6
CONTINUOUS
 62
     7
 10
-197.9691489297818
 20
149.2117682299467
 30
0.0
  0
VERTEX
  5
278
  8
0
  6
CONTINUOUS
 62
     7
 10
-197.9729163546185
 20
149.232506756008
 30
0.0
  0
VERTEX
  5
279
  8
0
  6
CONTINUOUS
 62
     7
 10
-197.9761588100236
 20
149.2542435566096
 30
0.0
  0
VERTEX
  5
27A
  8
0
  6
CONTINUOUS
 62
     7
 10
-197.9787212393319
 20
149.2761866670445
 30
0.0
  0
VERTEX
  5
27B
  8
0
  6
CONTINUOUS
 62
     7
 10
-197.9805978188282
 20
149.2982710426832
 30
0.0
  0
VERTEX
  5
27C
  8
0
  6
CONTINUOUS
 62
     7
 10
-197.9817827247978
 20
149.320431638896
 30
0.0
  0
VERTEX
  5
27D
  8
0
  6
CONTINUOUS
 62
     7
 10
-197.9822701335254
 20
149.3426034110532
 30
0.0
  0
SEQEND
  5
446
  8
0
  6
CONTINUOUS
 62
     7
  0
LINE
  5
127
  8
0
  6
CONTINUOUS
 62
     7
 10
-195.5339373472386
 20
148.8426034110533
 30
0.0
 11
-197.6308317687088
 21
148.8426034110533
 31
0.0
  0
POLYLINE
  5
128
  8
0
  6
CONTINUOUS
 62
     7
 66
     1
 10
0.0
 20
0.0
 30
0.0
  0
VERTEX
  5
27E
  8
0
  6
CONTINUOUS
 62
     7
 10
-222.999015005377
 20
156.0426034110533
 30
0.0
  0
VERTEX
  5
27F
  8
0
  6
CONTINUOUS
 62
     7
 10
-223.3256735024104
 20
156.0056608797726
 30
0.0
  0
VERTEX
  5
280
  8
0
  6
CONTINUOUS
 62
     7
 10
-223.6399173480763
 20
155.8962372862877
 30
0.0
  0
VERTEX
  5
281
  8
0
  6
CONTINUOUS
 62
     7
 10
-223.9298037096493
 20
155.718491272657
 30
0.0
  0
VERTEX
  5
282
  8
0
  6
CONTINUOUS
 62
     7
 10
-224.1843154602283
 20
155.47917807351
 30
0.0
  0
VERTEX
  5
283
  8
0
  6
CONTINUOUS
 62
     7
 10
-224.3937798844818
 20
155.187392783455
 30
0.0
  0
VERTEX
  5
284
  8
0
  6
CONTINUOUS
 62
     7
 10
-224.5502362900519
 20
154.854224698142
 30
0.0
  0
VERTEX
  5
285
  8
0
  6
CONTINUOUS
 62
     7
 10
-224.6477385535496
 20
154.4923358657454
 30
0.0
  0
VERTEX
  5
286
  8
0
  6
CONTINUOUS
 62
     7
 10
-224.682581102887
 20
154.1154798660091
 30
0.0
  0
SEQEND
  5
447
  8
0
  6
CONTINUOUS
 62
     7
  0
LINE
  5
129
  8
0
  6
CONTINUOUS
 62
     7
 10
-210.0000000000001
 20
154.1154798660091
 30
0.0
 11
-210.0000000000001
 21
156.0426034110533
 31
0.0
  0
POLYLINE
  5
12A
  8
0
  6
CONTINUOUS
 62
     7
 66
     1
 10
0.0
 20
0.0
 30
0.0
  0
VERTEX
  5
287
  8
0
  6
CONTINUOUS
 62
     7
 10
-206.6028346614339
 20
148.8426034110533
 30
0.0
  0
VERTEX
  5
288
  8
0
  6
CONTINUOUS
 62
     7
 10
-206.5826803984893
 20
148.843031655798
 30
0.0
  0
VERTEX
  5
289
  8
0
  6
CONTINUOUS
 62
     7
 10
-206.5625687985922
 20
148.8443150198746
 30
0.0
  0
VERTEX
  5
28A
  8
0
  6
CONTINUOUS
 62
     7
 10
-206.5423956296119
 20
148.8464699923393
 30
0.0
  0
VERTEX
  5
28B
  8
0
  6
CONTINUOUS
 62
     7
 10
-206.5223355983195
 20
148.8494862969264
 30
0.0
  0
VERTEX
  5
28C
  8
0
  6
CONTINUOUS
 62
     7
 10
-206.50199239406
 20
148.8534532996059
 30
0.0
  0
VERTEX
  5
28D
  8
0
  6
CONTINUOUS
 62
     7
 10
-206.4818403761956
 20
148.8583070771117
 30
0.0
  0
VERTEX
  5
28E
  8
0
  6
CONTINUOUS
 62
     7
 10
-206.4617704537787
 20
148.8640851619298
 30
0.0
  0
VERTEX
  5
28F
  8
0
  6
CONTINUOUS
 62
     7
 10
-206.4419682510083
 20
148.8707437481851
 30
0.0
  0
VERTEX
  5
290
  8
0
  6
CONTINUOUS
 62
     7
 10
-206.423149795753
 20
148.8779923769168
 30
0.0
  0
VERTEX
  5
291
  8
0
  6
CONTINUOUS
 62
     7
 10
-206.4046463627026
 20
148.8860370507088
 30
0.0
  0
VERTEX
  5
292
  8
0
  6
CONTINUOUS
 62
     7
 10
-206.3863647973786
 20
148.8949287683978
 30
0.0
  0
VERTEX
  5
293
  8
0
  6
CONTINUOUS
 62
     7
 10
-206.368466039048
 20
148.9045982739617
 30
0.0
  0
VERTEX
  5
294
  8
0
  6
CONTINUOUS
 62
     7
 10
-206.3506053938846
 20
148.9152649073388
 30
0.0
  0
VERTEX
  5
295
  8
0
  6
CONTINUOUS
 62
     7
 10
-206.3332085902305
 20
148.926706683245
 30
0.0
  0
VERTEX
  5
296
  8
0
  6
CONTINUOUS
 62
     7
 10
-206.3161847285405
 20
148.9389960847693
 30
0.0
  0
VERTEX
  5
297
  8
0
  6
CONTINUOUS
 62
     7
 10
-206.2996941151216
 20
148.9520283859177
 30
0.0
  0
VERTEX
  5
298
  8
0
  6
CONTINUOUS
 62
     7
 10
-206.2843211621994
 20
148.96528130581
 30
0.0
  0
VERTEX
  5
299
  8
0
  6
CONTINUOUS
 62
     7
 10
-206.269498138302
 20
148.9791804286294
 30
0.0
  0
VERTEX
  5
29A
  8
0
  6
CONTINUOUS
 62
     7
 10
-206.2551536314527
 20
148.9938054307273
 30
0.0
  0
VERTEX
  5
29B
  8
0
  6
CONTINUOUS
 62
     7
 10
-206.2414164881328
 20
149.0090360662726
 30
0.0
  0
VERTEX
  5
29C
  8
0
  6
CONTINUOUS
 62
     7
 10
-206.2280328526709
 20
149.0251964210039
 30
0.0
  0
VERTEX
  5
29D
  8
0
  6
CONTINUOUS
 62
     7
 10
-206.2153314771134
 20
149.0419320779088
 30
0.0
  0
VERTEX
  5
29E
  8
0
  6
CONTINUOUS
 62
     7
 10
-206.2032500126288
 20
149.0593421790438
 30
0.0
  0
VERTEX
  5
29F
  8
0
  6
CONTINUOUS
 62
     7
 10
-206.1919054850578
 20
149.077273230424
 30
0.0
  0
VERTEX
  5
2A0
  8
0
  6
CONTINUOUS
 62
     7
 10
-206.1816743571331
 20
149.0950439993343
 30
0.0
  0
VERTEX
  5
2A1
  8
0
  6
CONTINUOUS
 62
     7
 10
-206.1721659297401
 20
149.1132389236478
 30
0.0
  0
VERTEX
  5
2A2
  8
0
  6
CONTINUOUS
 62
     7
 10
-206.163338468199
 20
149.1319575211857
 30
0.0
  0
VERTEX
  5
2A3
  8
0
  6
CONTINUOUS
 62
     7
 10
-206.1552748520448
 20
149.1510420414983
 30
0.0
  0
VERTEX
  5
2A4
  8
0
  6
CONTINUOUS
 62
     7
 10
-206.147839732883
 20
149.1708853034267
 30
0.0
  0
VERTEX
  5
2A5
  8
0
  6
CONTINUOUS
 62
     7
 10
-206.1412294128681
 20
149.1910399656039
 30
0.0
  0
VERTEX
  5
2A6
  8
0
  6
CONTINUOUS
 62
     7
 10
-206.1354169988616
 20
149.2116208783238
 30
0.0
  0
VERTEX
  5
2A7
  8
0
  6
CONTINUOUS
 62
     7
 10
-206.1304638109449
 20
149.2324428238436
 30
0.0
  0
VERTEX
  5
2A8
  8
0
  6
CONTINUOUS
 62
     7
 10
-206.1269091394151
 20
149.2504567801435
 30
0.0
  0
VERTEX
  5
2A9
  8
0
  6
CONTINUOUS
 62
     7
 10
-206.1239961942601
 20
149.2686015009137
 30
0.0
  0
VERTEX
  5
2AA
  8
0
  6
CONTINUOUS
 62
     7
 10
-206.1217307774997
 20
149.2868401776063
 30
0.0
  0
VERTEX
  5
2AB
  8
0
  6
CONTINUOUS
 62
     7
 10
-206.1201001021534
 20
149.3053827658067
 30
0.0
  0
VERTEX
  5
2AC
  8
0
  6
CONTINUOUS
 62
     7
 10
-206.1191370757718
 20
149.3239834034556
 30
0.0
  0
VERTEX
  5
2AD
  8
0
  6
CONTINUOUS
 62
     7
 10
-206.1188436632564
 20
149.3426034110526
 30
0.0
  0
SEQEND
  5
448
  8
0
  6
CONTINUOUS
 62
     7
  0
POLYLINE
  5
12B
  8
0
  6
CONTINUOUS
 62
     7
 66
     1
 10
0.0
 20
0.0
 30
0.0
  0
VERTEX
  5
2AE
  8
0
  6
CONTINUOUS
 62
     7
 10
-206.1206604621509
 20
150.1469666788016
 30
0.0
  0
VERTEX
  5
2AF
  8
0
  6
CONTINUOUS
 62
     7
 10
-206.1233385785572
 20
150.2438902396801
 30
0.0
  0
VERTEX
  5
2B0
  8
0
  6
CONTINUOUS
 62
     7
 10
-206.1308329329169
 20
150.3369643961288
 30
0.0
  0
VERTEX
  5
2B1
  8
0
  6
CONTINUOUS
 62
     7
 10
-206.1428587024029
 20
150.422651866203
 30
0.0
  0
VERTEX
  5
2B2
  8
0
  6
CONTINUOUS
 62
     7
 10
-206.1589588478231
 20
150.4976960988646
 30
0.0
  0
VERTEX
  5
2B3
  8
0
  6
CONTINUOUS
 62
     7
 10
-206.1785214833879
 20
150.559245039157
 30
0.0
  0
VERTEX
  5
2B4
  8
0
  6
CONTINUOUS
 62
     7
 10
-206.2008031314209
 20
150.6049595205109
 30
0.0
  0
VERTEX
  5
2B5
  8
0
  6
CONTINUOUS
 62
     7
 10
-206.2249569782169
 20
150.6331021647361
 30
0.0
  0
VERTEX
  5
2B6
  8
0
  6
CONTINUOUS
 62
     7
 10
-206.2500650571841
 20
150.6426034110533
 30
0.0
  0
SEQEND
  5
449
  8
0
  6
CONTINUOUS
 62
     7
  0
LINE
  5
12C
  8
0
  6
CONTINUOUS
 62
     7
 10
-206.250065057184
 20
150.6426034110533
 30
0.0
 11
-207.1529905038723
 21
150.6426034110533
 31
0.0
  0
LINE
  5
12D
  8
0
  6
CONTINUOUS
 62
     7
 10
-207.1529905038723
 20
150.6426034110533
 30
0.0
 11
-207.1529905038723
 21
152.1426034110533
 31
0.0
  0
LINE
  5
12E
  8
0
  6
CONTINUOUS
 62
     7
 10
-207.1529905038723
 20
152.1426034110533
 30
0.0
 11
-205.9923852072872
 21
152.1426034110533
 31
0.0
  0
POLYLINE
  5
12F
  8
0
  6
CONTINUOUS
 62
     7
 66
     1
 10
0.0
 20
0.0
 30
0.0
  0
VERTEX
  5
2B7
  8
0
  6
CONTINUOUS
 62
     7
 10
-205.6041714221876
 20
150.6556932142999
 30
0.0
  0
VERTEX
  5
2B8
  8
0
  6
CONTINUOUS
 62
     7
 10
-205.6122057714067
 20
150.9464638969354
 30
0.0
  0
VERTEX
  5
2B9
  8
0
  6
CONTINUOUS
 62
     7
 10
-205.6346888344858
 20
151.2256863662813
 30
0.0
  0
VERTEX
  5
2BA
  8
0
  6
CONTINUOUS
 62
     7
 10
-205.6707661429438
 20
151.4827487765033
 30
0.0
  0
VERTEX
  5
2BB
  8
0
  6
CONTINUOUS
 62
     7
 10
-205.7190665792043
 20
151.7078814744879
 30
0.0
  0
VERTEX
  5
2BC
  8
0
  6
CONTINUOUS
 62
     7
 10
-205.7777544858988
 20
151.8925282953648
 30
0.0
  0
VERTEX
  5
2BD
  8
0
  6
CONTINUOUS
 62
     7
 10
-205.8445994299978
 20
152.0296717394265
 30
0.0
  0
VERTEX
  5
2BE
  8
0
  6
CONTINUOUS
 62
     7
 10
-205.9170609703856
 20
152.1140996721019
 30
0.0
  0
VERTEX
  5
2BF
  8
0
  6
CONTINUOUS
 62
     7
 10
-205.9923852072872
 20
152.1426034110533
 30
0.0
  0
SEQEND
  5
44A
  8
0
  6
CONTINUOUS
 62
     7
  0
LINE
  5
130
  8
0
  6
CONTINUOUS
 62
     7
 10
-206.1188436632564
 20
149.3426034110526
 30
0.0
 11
-206.1206604621509
 21
150.1469666788016
 31
0.0
  0
LINE
  5
131
  8
0
  6
CONTINUOUS
 62
     7
 10
-205.9923852072872
 20
152.1426034110533
 30
0.0
 11
-199.0509927691438
 21
152.1426034110533
 31
0.0
  0
POLYLINE
  5
132
  8
0
  6
CONTINUOUS
 62
     7
 66
     1
 10
0.0
 20
0.0
 30
0.0
  0
VERTEX
  5
2C0
  8
0
  6
CONTINUOUS
 62
     7
 10
-197.9903729840533
 20
150.6556932143008
 30
0.0
  0
VERTEX
  5
2C1
  8
0
  6
CONTINUOUS
 62
     7
 10
-198.0123232343255
 20
150.9464638969362
 30
0.0
  0
VERTEX
  5
2C2
  8
0
  6
CONTINUOUS
 62
     7
 10
-198.0737481049675
 20
151.2256863662818
 30
0.0
  0
VERTEX
  5
2C3
  8
0
  6
CONTINUOUS
 62
     7
 10
-198.1723131446753
 20
151.4827487765037
 30
0.0
  0
VERTEX
  5
2C4
  8
0
  6
CONTINUOUS
 62
     7
 10
-198.3042723905668
 20
151.7078814744882
 30
0.0
  0
VERTEX
  5
2C5
  8
0
  6
CONTINUOUS
 62
     7
 10
-198.4646107334458
 20
151.8925282953649
 30
0.0
  0
VERTEX
  5
2C6
  8
0
  6
CONTINUOUS
 62
     7
 10
-198.6472345169533
 20
152.0296717394266
 30
0.0
  0
VERTEX
  5
2C7
  8
0
  6
CONTINUOUS
 62
     7
 10
-198.8452031268874
 20
152.1140996721019
 30
0.0
  0
VERTEX
  5
2C8
  8
0
  6
CONTINUOUS
 62
     7
 10
-199.0509927691438
 20
152.1426034110533
 30
0.0
  0
SEQEND
  5
44B
  8
0
  6
CONTINUOUS
 62
     7
  0
LINE
  5
133
  8
0
  6
CONTINUOUS
 62
     7
 10
-197.0133977878346
 20
149.3426034110534
 30
0.0
 11
-197.0478486548134
 21
153.9009897189309
 31
0.0
  0
POLYLINE
  5
134
  8
0
  6
CONTINUOUS
 62
     7
 66
     1
 10
0.0
 20
0.0
 30
0.0
  0
VERTEX
  5
2C9
  8
0
  6
CONTINUOUS
 62
     7
 10
-197.2668378274012
 20
148.8426034110533
 30
0.0
  0
VERTEX
  5
2CA
  8
0
  6
CONTINUOUS
 62
     7
 10
-197.2558804086832
 20
148.8430357486108
 30
0.0
  0
VERTEX
  5
2CB
  8
0
  6
CONTINUOUS
 62
     7
 10
-197.2449631882082
 20
148.8443298850293
 30
0.0
  0
VERTEX
  5
2CC
  8
0
  6
CONTINUOUS
 62
     7
 10
-197.2341140547788
 20
148.8464815059281
 30
0.0
  0
VERTEX
  5
2CD
  8
0
  6
CONTINUOUS
 62
     7
 10
-197.2233608971973
 20
148.8494862969264
 30
0.0
  0
VERTEX
  5
2CE
  8
0
  6
CONTINUOUS
 62
     7
 10
-197.2124056576112
 20
148.8534691452115
 30
0.0
  0
VERTEX
  5
2CF
  8
0
  6
CONTINUOUS
 62
     7
 10
-197.201570909416
 20
148.8583493164505
 30
0.0
  0
VERTEX
  5
2D0
  8
0
  6
CONTINUOUS
 62
     7
 10
-197.1908853459527
 20
148.8641123407421
 30
0.0
  0
VERTEX
  5
2D1
  8
0
  6
CONTINUOUS
 62
     7
 10
-197.1803776605625
 20
148.8707437481851
 30
0.0
  0
VERTEX
  5
2D2
  8
0
  6
CONTINUOUS
 62
     7
 10
-197.1703455654701
 20
148.8780170232143
 30
0.0
  0
VERTEX
  5
2D3
  8
0
  6
CONTINUOUS
 62
     7
 10
-197.1604973378677
 20
148.8860984563687
 30
0.0
  0
VERTEX
  5
2D4
  8
0
  6
CONTINUOUS
 62
     7
 10
-197.1508570715385
 20
148.8949661668754
 30
0.0
  0
VERTEX
  5
2D5
  8
0
  6
CONTINUOUS
 62
     7
 10
-197.1414488602652
 20
148.9045982739617
 30
0.0
  0
VERTEX
  5
2D6
  8
0
  6
CONTINUOUS
 62
     7
 10
-197.1320177116635
 20
148.9153019490313
 30
0.0
  0
VERTEX
  5
2D7
  8
0
  6
CONTINUOUS
 62
     7
 10
-197.1228468236613
 20
148.9267965385627
 30
0.0
  0
VERTEX
  5
2D8
  8
0
  6
CONTINUOUS
 62
     7
 10
-197.1139594002316
 20
148.9390495237825
 30
0.0
  0
VERTEX
  5
2D9
  8
0
  6
CONTINUOUS
 62
     7
 10
-197.1053786453467
 20
148.9520283859177
 30
0.0
  0
VERTEX
  5
2DA
  8
0
  6
CONTINUOUS
 62
     7
 10
-197.0973427943188
 20
148.9653236746785
 30
0.0
  0
VERTEX
  5
2DB
  8
0
  6
CONTINUOUS
 62
     7
 10
-197.0896077158514
 20
148.9792813153971
 30
0.0
  0
VERTEX
  5
2DC
  8
0
  6
CONTINUOUS
 62
     7
 10
-197.0821914591956
 20
148.9938644114646
 30
0.0
  0
VERTEX
  5
2DD
  8
0
  6
CONTINUOUS
 62
     7
 10
-197.0751120736022
 20
149.0090360662726
 30
0.0
  0
VERTEX
  5
2DE
  8
0
  6
CONTINUOUS
 62
     7
 10
-197.068184882307
 20
149.0252503854384
 30
0.0
  0
VERTEX
  5
2DF
  8
0
  6
CONTINUOUS
 62
     7
 10
-197.0616239394807
 20
149.042059184273
 30
0.0
  0
VERTEX
  5
2E0
  8
0
  6
CONTINUOUS
 62
     7
 10
-197.0554450555686
 20
149.0594157151453
 30
0.0
  0
VERTEX
  5
2E1
  8
0
  6
CONTINUOUS
 62
     7
 10
-197.0496640410158
 20
149.077273230424
 30
0.0
  0
VERTEX
  5
2E2
  8
0
  6
CONTINUOUS
 62
     7
 10
-197.0444301723765
 20
149.0950993591825
 30
0.0
  0
VERTEX
  5
2E3
  8
0
  6
CONTINUOUS
 62
     7
 10
-197.0395789793072
 20
149.1133680292163
 30
0.0
  0
VERTEX
  5
2E4
  8
0
  6
CONTINUOUS
 62
     7
 10
-197.0351212294798
 20
149.1320315026225
 30
0.0
  0
VERTEX
  5
2E5
  8
0
  6
CONTINUOUS
 62
     7
 10
-197.0310676905664
 20
149.1510420414983
 30
0.0
  0
VERTEX
  5
2E6
  8
0
  6
CONTINUOUS
 62
     7
 10
-197.0273222472274
 20
149.1709502092227
 30
0.0
  0
VERTEX
  5
2E7
  8
0
  6
CONTINUOUS
 62
     7
 10
-197.0240096163647
 20
149.1911902397477
 30
0.0
  0
VERTEX
  5
2E8
  8
0
  6
CONTINUOUS
 62
     7
 10
-197.0211372852526
 20
149.2117063667343
 30
0.0
  0
VERTEX
  5
2E9
  8
0
  6
CONTINUOUS
 62
     7
 10
-197.0187127411655
 20
149.2324428238436
 30
0.0
  0
VERTEX
  5
2EA
  8
0
  6
CONTINUOUS
 62
     7
 10
-197.0166725943444
 20
149.2541919144213
 30
0.0
  0
VERTEX
  5
2EB
  8
0
  6
CONTINUOUS
 62
     7
 10
-197.0151182987039
 20
149.2761476771928
 30
0.0
  0
VERTEX
  5
2EC
  8
0
  6
CONTINUOUS
 62
     7
 10
-197.0140525811409
 20
149.2982449533963
 30
0.0
  0
VERTEX
  5
2ED
  8
0
  6
CONTINUOUS
 62
     7
 10
-197.0134781685522
 20
149.3204185842704
 30
0.0
  0
VERTEX
  5
2EE
  8
0
  6
CONTINUOUS
 62
     7
 10
-197.0133977878346
 20
149.3426034110534
 30
0.0
  0
SEQEND
  5
44C
  8
0
  6
CONTINUOUS
 62
     7
  0
POLYLINE
  5
135
  8
0
  6
CONTINUOUS
 62
     7
 66
     1
 10
0.0
 20
0.0
 30
0.0
  0
VERTEX
  5
2EF
  8
0
  6
CONTINUOUS
 62
     7
 10
-197.0478486548134
 20
153.9009897189309
 30
0.0
  0
VERTEX
  5
2F0
  8
0
  6
CONTINUOUS
 62
     7
 10
-197.0568098069623
 20
153.9979132798094
 30
0.0
  0
VERTEX
  5
2F1
  8
0
  6
CONTINUOUS
 62
     7
 10
-197.0818864053939
 20
154.0909874362579
 30
0.0
  0
VERTEX
  5
2F2
  8
0
  6
CONTINUOUS
 62
     7
 10
-197.1221254143541
 20
154.1766749063319
 30
0.0
  0
VERTEX
  5
2F3
  8
0
  6
CONTINUOUS
 62
     7
 10
-197.1759975509002
 20
154.2517191389934
 30
0.0
  0
VERTEX
  5
2F4
  8
0
  6
CONTINUOUS
 62
     7
 10
-197.2414554052764
 20
154.3132680792856
 30
0.0
  0
VERTEX
  5
2F5
  8
0
  6
CONTINUOUS
 62
     7
 10
-197.3160112526913
 20
154.3589825606395
 30
0.0
  0
VERTEX
  5
2F6
  8
0
  6
CONTINUOUS
 62
     7
 10
-197.3968315992624
 20
154.3871252048646
 30
0.0
  0
VERTEX
  5
2F7
  8
0
  6
CONTINUOUS
 62
     7
 10
-197.4808448689088
 20
154.3966264511817
 30
0.0
  0
SEQEND
  5
44D
  8
0
  6
CONTINUOUS
 62
     7
  0
POLYLINE
  5
136
  8
0
  6
CONTINUOUS
 62
     7
 66
     1
 10
0.0
 20
0.0
 30
0.0
  0
VERTEX
  5
2F8
  8
0
  6
CONTINUOUS
 62
     7
 10
-200.7037200854593
 20
152.1426034110534
 30
0.0
  0
VERTEX
  5
2F9
  8
0
  6
CONTINUOUS
 62
     7
 10
-199.1637815952589
 20
153.080210056496
 30
0.0
  0
VERTEX
  5
2FA
  8
0
  6
CONTINUOUS
 62
     7
 10
-197.7638097331786
 20
154.2750986176419
 30
0.0
  0
SEQEND
  5
44E
  8
0
  6
CONTINUOUS
 62
     7
  0
POLYLINE
  5
137
  8
0
  6
CONTINUOUS
 62
     7
 66
     1
 10
0.0
 20
0.0
 30
0.0
  0
VERTEX
  5
2FB
  8
0
  6
CONTINUOUS
 62
     7
 10
-203.9760141692453
 20
152.1426034110533
 30
0.0
  0
VERTEX
  5
2FC
  8
0
  6
CONTINUOUS
 62
     7
 10
-201.8535209178204
 20
152.7476929664425
 30
0.0
  0
VERTEX
  5
2FD
  8
0
  6
CONTINUOUS
 62
     7
 10
-199.8965027378586
 20
153.8729529205114
 30
0.0
  0
VERTEX
  5
2FE
  8
0
  6
CONTINUOUS
 62
     7
 10
-198.1992630477762
 20
155.4641600364182
 30
0.0
  0
SEQEND
  5
44F
  8
0
  6
CONTINUOUS
 62
     7
  0
POLYLINE
  5
138
  8
0
  6
CONTINUOUS
 62
     7
 66
     1
 10
0.0
 20
0.0
 30
0.0
  0
VERTEX
  5
2FF
  8
0
  6
CONTINUOUS
 62
     7
 10
-197.0009849946232
 20
156.0426034110533
 30
0.0
  0
VERTEX
  5
300
  8
0
  6
CONTINUOUS
 62
     7
 10
-197.3321483063018
 20
156.0046247170897
 30
0.0
  0
VERTEX
  5
301
  8
0
  6
CONTINUOUS
 62
     7
 10
-197.6503727535763
 20
155.8921724987617
 30
0.0
  0
VERTEX
  5
302
  8
0
  6
CONTINUOUS
 62
     7
 10
-197.9432250057359
 20
155.709640370801
 30
0.0
  0
VERTEX
  5
303
  8
0
  6
CONTINUOUS
 62
     7
 10
-198.1992630477762
 20
155.4641600364182
 30
0.0
  0
SEQEND
  5
450
  8
0
  6
CONTINUOUS
 62
     7
  0
POLYLINE
  5
139
  8
0
  6
CONTINUOUS
 62
     7
 66
     1
 10
0.0
 20
0.0
 30
0.0
  0
VERTEX
  5
304
  8
0
  6
CONTINUOUS
 62
     7
 10
-195.3174188971131
 20
154.1154798660091
 30
0.0
  0
VERTEX
  5
305
  8
0
  6
CONTINUOUS
 62
     7
 10
-195.3522614464506
 20
154.4923358657454
 30
0.0
  0
VERTEX
  5
306
  8
0
  6
CONTINUOUS
 62
     7
 10
-195.4497637099483
 20
154.854224698142
 30
0.0
  0
VERTEX
  5
307
  8
0
  6
CONTINUOUS
 62
     7
 10
-195.6062201155183
 20
155.187392783455
 30
0.0
  0
VERTEX
  5
308
  8
0
  6
CONTINUOUS
 62
     7
 10
-195.8156845397718
 20
155.47917807351
 30
0.0
  0
VERTEX
  5
309
  8
0
  6
CONTINUOUS
 62
     7
 10
-196.0701962903508
 20
155.718491272657
 30
0.0
  0
VERTEX
  5
30A
  8
0
  6
CONTINUOUS
 62
     7
 10
-196.3600826519238
 20
155.8962372862877
 30
0.0
  0
VERTEX
  5
30B
  8
0
  6
CONTINUOUS
 62
     7
 10
-196.6743264975897
 20
156.0056608797726
 30
0.0
  0
VERTEX
  5
30C
  8
0
  6
CONTINUOUS
 62
     7
 10
-197.0009849946232
 20
156.0426034110533
 30
0.0
  0
SEQEND
  5
451
  8
0
  6
CONTINUOUS
 62
     7
  0
POLYLINE
  5
13A
  8
0
  6
CONTINUOUS
 62
     7
 66
     1
 10
0.0
 20
0.0
 30
0.0
  0
VERTEX
  5
30D
  8
0
  6
CONTINUOUS
 62
     7
 10
-197.4808448689088
 20
154.3966264511817
 30
0.0
  0
VERTEX
  5
30E
  8
0
  6
CONTINUOUS
 62
     7
 10
-197.5575330808942
 20
154.3887225368431
 30
0.0
  0
VERTEX
  5
30F
  8
0
  6
CONTINUOUS
 62
     7
 10
-197.6317967446465
 20
154.3652606812749
 30
0.0
  0
VERTEX
  5
310
  8
0
  6
CONTINUOUS
 62
     7
 10
-197.7012879656184
 20
154.3269826464635
 30
0.0
  0
VERTEX
  5
311
  8
0
  6
CONTINUOUS
 62
     7
 10
-197.7638097331786
 20
154.2750986176418
 30
0.0
  0
SEQEND
  5
452
  8
0
  6
CONTINUOUS
 62
     7
  0
POLYLINE
  5
13B
  8
0
  6
CONTINUOUS
 62
     7
 66
     1
 10
0.0
 20
0.0
 30
0.0
  0
VERTEX
  5
312
  8
0
  6
CONTINUOUS
 62
     7
 10
-224.9566220235693
 20
152.1426034110533
 30
0.0
  0
VERTEX
  5
313
  8
0
  6
CONTINUOUS
 62
     7
 10
-225.2377359027273
 20
152.1140996721019
 30
0.0
  0
VERTEX
  5
314
  8
0
  6
CONTINUOUS
 62
     7
 10
-225.5081660530491
 20
152.0296717394266
 30
0.0
  0
VERTEX
  5
315
  8
0
  6
CONTINUOUS
 62
     7
 10
-225.7576347806555
 20
151.8925282953649
 30
0.0
  0
VERTEX
  5
316
  8
0
  6
CONTINUOUS
 62
     7
 10
-225.976661030229
 20
151.7078814744882
 30
0.0
  0
VERTEX
  5
317
  8
0
  6
CONTINUOUS
 62
     7
 10
-226.156920712381
 20
151.4827487765037
 30
0.0
  0
VERTEX
  5
318
  8
0
  6
CONTINUOUS
 62
     7
 10
-226.2915630605468
 20
151.2256863662818
 30
0.0
  0
VERTEX
  5
319
  8
0
  6
CONTINUOUS
 62
     7
 10
-226.3754709942679
 20
150.9464638969361
 30
0.0
  0
VERTEX
  5
31A
  8
0
  6
CONTINUOUS
 62
     7
 10
-226.4054555937593
 20
150.6556932143008
 30
0.0
  0
SEQEND
  5
453
  8
0
  6
CONTINUOUS
 62
     7
  0
LINE
  5
13C
  8
0
  6
CONTINUOUS
 62
     7
 10
-224.9566220235693
 20
152.1426034110533
 30
0.0
 11
-224.6974914899681
 21
152.1426034110533
 31
0.0
  0
LINE
  5
13D
  8
0
  6
CONTINUOUS
 62
     7
 10
-225.4842345203981
 20
152.1426034110533
 30
0.0
 11
-224.9566220235692
 21
152.1426034110533
 31
0.0
  0
LINE
  5
13E
  8
0
  6
CONTINUOUS
 62
     7
 10
-225.0000000000001
 20
114.0426034110533
 30
0.0
 11
-226.0000000000001
 21
114.0426034110533
 31
0.0
  0
LINE
  5
13F
  8
0
  6
CONTINUOUS
 62
     7
 10
-205.0000000000001
 20
114.0426034110533
 30
0.0
 11
-215.0000000000001
 21
114.0426034110533
 31
0.0
  0
LINE
  5
140
  8
0
  6
CONTINUOUS
 62
     7
 10
-194.0000000000001
 20
114.0426034110533
 30
0.0
 11
-195.0000000000001
 21
114.0426034110533
 31
0.0
  0
LINE
  5
141
  8
0
  6
CONTINUOUS
 62
     7
 10
-205.0000000000001
 20
114.0426034110533
 30
0.0
 11
-205.0000000000001
 21
118.0426034110533
 31
0.0
  0
LINE
  5
142
  8
0
  6
CONTINUOUS
 62
     7
 10
-215.0000000000001
 20
118.0426034110533
 30
0.0
 11
-216.0000000000001
 21
118.0426034110533
 31
0.0
  0
LINE
  5
143
  8
0
  6
CONTINUOUS
 62
     7
 10
-224.0000000000001
 20
118.0426034110533
 30
0.0
 11
-225.0000000000001
 21
118.0426034110533
 31
0.0
  0
LINE
  5
144
  8
0
  6
CONTINUOUS
 62
     7
 10
-215.0000000000001
 20
114.0426034110533
 30
0.0
 11
-215.0000000000001
 21
118.0426034110533
 31
0.0
  0
LINE
  5
145
  8
0
  6
CONTINUOUS
 62
     7
 10
-195.0000000000001
 20
114.0426034110533
 30
0.0
 11
-195.0000000000001
 21
118.0426034110533
 31
0.0
  0
LINE
  5
146
  8
0
  6
CONTINUOUS
 62
     7
 10
-205.0000000000001
 20
118.0426034110533
 30
0.0
 11
-204.0000000000001
 21
118.0426034110533
 31
0.0
  0
LINE
  5
147
  8
0
  6
CONTINUOUS
 62
     7
 10
-196.0000000000001
 20
118.0426034110533
 30
0.0
 11
-195.0000000000001
 21
118.0426034110533
 31
0.0
  0
LINE
  5
148
  8
0
  6
CONTINUOUS
 62
     7
 10
-225.0000000000001
 20
114.0426034110533
 30
0.0
 11
-225.0000000000001
 21
118.0426034110533
 31
0.0
  0
LINE
  5
149
  8
0
  6
CONTINUOUS
 62
     7
 10
-205.0000000000001
 20
114.0426034110533
 30
0.0
 11
-195.0000000000001
 21
114.0426034110533
 31
0.0
  0
LINE
  5
14A
  8
0
  6
CONTINUOUS
 62
     7
 10
-225.0000000000001
 20
114.0426034110533
 30
0.0
 11
-215.0000000000001
 21
114.0426034110533
 31
0.0
  0
ARC
  5
14B
  8
0
  6
CONTINUOUS
 62
     7
 10
-187.822654191919
 20
128.5426034110533
 30
0.0
 40
5.000000000000004
 50
180.5
 51
270.0
  0
ARC
  5
14C
  8
0
  6
CONTINUOUS
 62
     7
 10
-232.1773458080812
 20
128.5426034110533
 30
0.0
 40
5.000000000000016
 50
270.0
 51
359.5000000000001
  0
LINE
  5
14D
  8
0
  6
CONTINUOUS
 62
     7
 10
-192.8224638072398
 20
128.4989707335614
 30
0.0
 11
-193.0460156956995
 21
154.1154798660091
 31
0.0
  0
LINE
  5
14E
  8
0
  6
CONTINUOUS
 62
     7
 10
-226.9841774049943
 20
150.6556932143009
 30
0.0
 11
-227.1775361927603
 21
128.4989707335614
 31
0.0
  0
LINE
  5
14F
  8
0
  6
CONTINUOUS
 62
     7
 10
-210.0000000000001
 20
156.0426034110533
 30
0.0
 11
-222.999015005377
 21
156.0426034110533
 31
0.0
  0
ARC
  5
150
  8
0
  6
CONTINUOUS
 62
     7
 10
-194.9900303748914
 20
154.0985147069205
 30
0.0
 40
1.944088704132779
 50
0.4999999999998474
 51
90.0
  0
LINE
  5
151
  8
0
  6
CONTINUOUS
 62
     7
 10
-194.9900303748914
 20
156.0426034110533
 30
0.0
 11
-197.0009849946232
 21
156.0426034110533
 31
0.0
  0
ARC
  5
152
  8
0
  6
CONTINUOUS
 62
     7
 10
-204.5621400288449
 20
164.3424582454797
 30
0.0
 40
13.29999999999999
 50
293.4680455301664
 51
304.4221040827521
  0
ARC
  5
153
  8
0
  6
CONTINUOUS
 62
     7
 10
-225.4842345203981
 20
150.6426034110533
 30
0.0
 40
1.500000000000001
 50
90.0
 51
179.5000000000001
  0
LINE
  5
154
  8
0
  6
CONTINUOUS
 62
     7
 10
-193.3916073901484
 20
114.0426034110533
 30
0.0
 11
-193.3916073901484
 21
114.0051034110533
 31
0.0
  0
ENDBLK
  8
0
  0
BLOCK
  8
0
  2
D_FRAME_VIEW_1338
 70
     0
 10
0.0
 20
0.0
 30
0.0
  0
LINE
  5
15A
  8
0
  6
CONTINUOUS
 62
     7
 10
-268.0000000000001
 20
123.5426034110533
 30
0.0
 11
-267.5000000000001
 21
123.5426034110533
 31
0.0
  0
ARC
  5
15B
  8
0
  6
CONTINUOUS
 62
     7
 10
-267.5000000000001
 20
121.5426034110533
 30
0.0
 40
2.0
 50
0.0
 51
90.0
  0
LINE
  5
15C
  8
0
  6
CONTINUOUS
 62
     7
 10
-265.5000000000001
 20
121.5426034110533
 30
0.0
 11
-265.5000000000001
 21
114.0426034110533
 31
0.0
  0
LINE
  5
15D
  8
0
  6
CONTINUOUS
 62
     7
 10
-265.5000000000001
 20
114.0426034110533
 30
0.0
 11
-268.0000000000001
 21
114.0426034110533
 31
0.0
  0
LINE
  5
15E
  8
0
  6
CONTINUOUS
 62
     7
 10
-324.5
 20
114.0426034110533
 30
0.0
 11
-324.5
 21
121.5426034110533
 31
0.0
  0
LINE
  5
15F
  8
0
  6
CONTINUOUS
 62
     7
 10
-321.9999999999999
 20
114.0426034110533
 30
0.0
 11
-324.5
 21
114.0426034110533
 31
0.0
  0
LINE
  5
160
  8
0
  6
CONTINUOUS
 62
     7
 10
-322.0
 20
123.5426034110533
 30
0.0
 11
-268.0
 21
123.5426034110533
 31
0.0
  0
ARC
  5
161
  8
0
  6
CONTINUOUS
 62
     7
 10
-322.5
 20
121.5426034110533
 30
0.0
 40
2.000000000000002
 50
90.00000000000011
 51
180.0
  0
LINE
  5
162
  8
0
  6
CONTINUOUS
 62
     7
 10
-322.5
 20
123.5426034110533
 30
0.0
 11
-322.0
 21
123.5426034110533
 31
0.0
  0
LINE
  5
163
  8
0
  6
CONTINUOUS
 62
     7
 10
-268.0
 20
114.0426034110533
 30
0.0
 11
-321.9999999999999
 21
114.0426034110533
 31
0.0
  0
LINE
  5
164
  8
0
  6
CONTINUOUS
 62
     7
 10
-311.9539843043006
 20
154.1154798660091
 30
0.0
 11
-311.9956365661046
 21
149.3426034110532
 31
0.0
  0
LINE
  5
165
  8
0
  6
CONTINUOUS
 62
     7
 10
-303.4978182830523
 20
149.3426034110532
 30
0.0
 11
-303.4769921521503
 21
154.1154798660091
 31
0.0
  0
POLYLINE
  5
166
  8
0
  6
CONTINUOUS
 62
     7
 66
     1
 10
0.0
 20
0.0
 30
0.0
  0
VERTEX
  5
31D
  8
0
  6
CONTINUOUS
 62
     7
 10
-303.063310032091
 20
148.8426034110533
 30
0.0
  0
VERTEX
  5
31E
  8
0
  6
CONTINUOUS
 62
     7
 10
-303.0844343023721
 20
148.8431916854705
 30
0.0
  0
VERTEX
  5
31F
  8
0
  6
CONTINUOUS
 62
     7
 10
-303.1055482761044
 20
148.8449472907261
 30
0.0
  0
VERTEX
  5
320
  8
0
  6
CONTINUOUS
 62
     7
 10
-303.1265802586346
 20
148.8478563998262
 30
0.0
  0
VERTEX
  5
321
  8
0
  6
CONTINUOUS
 62
     7
 10
-303.1474585553095
 20
148.8519051857769
 30
0.0
  0
VERTEX
  5
322
  8
0
  6
CONTINUOUS
 62
     7
 10
-303.1681114714759
 20
148.8570798215843
 30
0.0
  0
VERTEX
  5
323
  8
0
  6
CONTINUOUS
 62
     7
 10
-303.1884673124804
 20
148.8633664802545
 30
0.0
  0
VERTEX
  5
324
  8
0
  6
CONTINUOUS
 62
     7
 10
-303.2084543836698
 20
148.8707513347935
 30
0.0
  0
VERTEX
  5
325
  8
0
  6
CONTINUOUS
 62
     7
 10
-303.22808078186
 20
148.8792475071815
 30
0.0
  0
VERTEX
  5
326
  8
0
  6
CONTINUOUS
 62
     7
 10
-303.2473601936719
 20
148.888850237651
 30
0.0
  0
VERTEX
  5
327
  8
0
  6
CONTINUOUS
 62
     7
 10
-303.2662300707535
 20
148.899519181911
 30
0.0
  0
VERTEX
  5
328
  8
0
  6
CONTINUOUS
 62
     7
 10
-303.2846278647526
 20
148.9112139956706
 30
0.0
  0
VERTEX
  5
329
  8
0
  6
CONTINUOUS
 62
     7
 10
-303.3024910273172
 20
148.923894334639
 30
0.0
  0
VERTEX
  5
32A
  8
0
  6
CONTINUOUS
 62
     7
 10
-303.3197570100953
 20
148.9375198545251
 30
0.0
  0
VERTEX
  5
32B
  8
0
  6
CONTINUOUS
 62
     7
 10
-303.3363632647348
 20
148.9520502110381
 30
0.0
  0
VERTEX
  5
32C
  8
0
  6
CONTINUOUS
 62
     7
 10
-303.3523110038945
 20
148.9674971785226
 30
0.0
  0
VERTEX
  5
32D
  8
0
  6
CONTINUOUS
 62
     7
 10
-303.3676185013574
 20
148.9838639678096
 30
0.0
  0
VERTEX
  5
32E
  8
0
  6
CONTINUOUS
 62
     7
 10
-303.3822390524523
 20
149.0010884126395
 30
0.0
  0
VERTEX
  5
32F
  8
0
  6
CONTINUOUS
 62
     7
 10
-303.396125952508
 20
149.0191083467532
 30
0.0
  0
VERTEX
  5
330
  8
0
  6
CONTINUOUS
 62
     7
 10
-303.4092324968531
 20
149.0378616038911
 30
0.0
  0
VERTEX
  5
331
  8
0
  6
CONTINUOUS
 62
     7
 10
-303.4215119808163
 20
149.0572860177939
 30
0.0
  0
VERTEX
  5
332
  8
0
  6
CONTINUOUS
 62
     7
 10
-303.4329176997264
 20
149.0773194222021
 30
0.0
  0
VERTEX
  5
333
  8
0
  6
CONTINUOUS
 62
     7
 10
-303.4434526639297
 20
149.0979833965111
 30
0.0
  0
VERTEX
  5
334
  8
0
  6
CONTINUOUS
 62
     7
 10
-303.4531270011262
 20
149.1192775980275
 30
0.0
  0
VERTEX
  5
335
  8
0
  6
CONTINUOUS
 62
     7
 10
-303.4619144093794
 20
149.1411250193881
 30
0.0
  0
VERTEX
  5
336
  8
0
  6
CONTINUOUS
 62
     7
 10
-303.4697885867529
 20
149.1634486532297
 30
0.0
  0
VERTEX
  5
337
  8
0
  6
CONTINUOUS
 62
     7
 10
-303.4767232313102
 20
149.1861714921891
 30
0.0
  0
VERTEX
  5
338
  8
0
  6
CONTINUOUS
 62
     7
 10
-303.4826920411149
 20
149.2092165289029
 30
0.0
  0
VERTEX
  5
339
  8
0
  6
CONTINUOUS
 62
     7
 10
-303.4876687142306
 20
149.232506756008
 30
0.0
  0
VERTEX
  5
33A
  8
0
  6
CONTINUOUS
 62
     7
 10
-303.491384476619
 20
149.2542435566096
 30
0.0
  0
VERTEX
  5
33B
  8
0
  6
CONTINUOUS
 62
     7
 10
-303.4942630980424
 20
149.2761866670445
 30
0.0
  0
VERTEX
  5
33C
  8
0
  6
CONTINUOUS
 62
     7
 10
-303.4962987951537
 20
149.2982710426832
 30
0.0
  0
VERTEX
  5
33D
  8
0
  6
CONTINUOUS
 62
     7
 10
-303.4974857846059
 20
149.320431638896
 30
0.0
  0
VERTEX
  5
33E
  8
0
  6
CONTINUOUS
 62
     7
 10
-303.4978182830523
 20
149.3426034110532
 30
0.0
  0
SEQEND
  5
454
  8
0
  6
CONTINUOUS
 62
     7
  0
LINE
  5
167
  8
0
  6
CONTINUOUS
 62
     7
 10
-299.8809831869293
 20
148.8426034110533
 30
0.0
 11
-303.0633100320909
 21
148.8426034110533
 31
0.0
  0
POLYLINE
  5
168
  8
0
  6
CONTINUOUS
 62
     7
 66
     1
 10
0.0
 20
0.0
 30
0.0
  0
VERTEX
  5
33F
  8
0
  6
CONTINUOUS
 62
     7
 10
-299.3987944269486
 20
149.3426034110525
 30
0.0
  0
VERTEX
  5
340
  8
0
  6
CONTINUOUS
 62
     7
 10
-299.3994178893009
 20
149.3185861768866
 30
0.0
  0
VERTEX
  5
341
  8
0
  6
CONTINUOUS
 62
     7
 10
-299.4011706637165
 20
149.2945566247602
 30
0.0
  0
VERTEX
  5
342
  8
0
  6
CONTINUOUS
 62
     7
 10
-299.4040388456075
 20
149.2705969277839
 30
0.0
  0
VERTEX
  5
343
  8
0
  6
CONTINUOUS
 62
     7
 10
-299.408008530386
 20
149.2467892590673
 30
0.0
  0
VERTEX
  5
344
  8
0
  6
CONTINUOUS
 62
     7
 10
-299.4130658134639
 20
149.2232157917203
 30
0.0
  0
VERTEX
  5
345
  8
0
  6
CONTINUOUS
 62
     7
 10
-299.4191967902532
 20
149.1999586988525
 30
0.0
  0
VERTEX
  5
346
  8
0
  6
CONTINUOUS
 62
     7
 10
-299.4263875561659
 20
149.1771001535738
 30
0.0
  0
VERTEX
  5
347
  8
0
  6
CONTINUOUS
 62
     7
 10
-299.4346502888666
 20
149.1546315297714
 30
0.0
  0
VERTEX
  5
348
  8
0
  6
CONTINUOUS
 62
     7
 10
-299.4439799316621
 20
149.132538181143
 30
0.0
  0
VERTEX
  5
349
  8
0
  6
CONTINUOUS
 62
     7
 10
-299.4543368001468
 20
149.1108930401534
 30
0.0
  0
VERTEX
  5
34A
  8
0
  6
CONTINUOUS
 62
     7
 10
-299.4656812099156
 20
149.0897690392673
 30
0.0
  0
VERTEX
  5
34B
  8
0
  6
CONTINUOUS
 62
     7
 10
-299.4779734765629
 20
149.0692391109496
 30
0.0
  0
VERTEX
  5
34C
  8
0
  6
CONTINUOUS
 62
     7
 10
-299.4911739156833
 20
149.0493761876651
 30
0.0
  0
VERTEX
  5
34D
  8
0
  6
CONTINUOUS
 62
     7
 10
-299.5052428428715
 20
149.0302532018786
 30
0.0
  0
VERTEX
  5
34E
  8
0
  6
CONTINUOUS
 62
     7
 10
-299.5201924366194
 20
149.0118683023711
 30
0.0
  0
VERTEX
  5
34F
  8
0
  6
CONTINUOUS
 62
     7
 10
-299.5360239349208
 20
148.9942039516966
 30
0.0
  0
VERTEX
  5
350
  8
0
  6
CONTINUOUS
 62
     7
 10
-299.5526765549485
 20
148.9773156119458
 30
0.0
  0
VERTEX
  5
351
  8
0
  6
CONTINUOUS
 62
     7
 10
-299.570089513875
 20
148.9612587452095
 30
0.0
  0
VERTEX
  5
352
  8
0
  6
CONTINUOUS
 62
     7
 10
-299.588202028873
 20
148.9460888135785
 30
0.0
  0
VERTEX
  5
353
  8
0
  6
CONTINUOUS
 62
     7
 10
-299.6069533171151
 20
148.9318612791435
 30
0.0
  0
VERTEX
  5
354
  8
0
  6
CONTINUOUS
 62
     7
 10
-299.6262825957741
 20
148.9186316039954
 30
0.0
  0
VERTEX
  5
355
  8
0
  6
CONTINUOUS
 62
     7
 10
-299.6461969070305
 20
148.9064052468399
 30
0.0
  0
VERTEX
  5
356
  8
0
  6
CONTINUOUS
 62
     7
 10
-299.6667076133853
 20
148.8951629679019
 30
0.0
  0
VERTEX
  5
357
  8
0
  6
CONTINUOUS
 62
     7
 10
-299.6877400495284
 20
148.8849363899941
 30
0.0
  0
VERTEX
  5
358
  8
0
  6
CONTINUOUS
 62
     7
 10
-299.7092195501495
 20
148.8757571359289
 30
0.0
  0
VERTEX
  5
359
  8
0
  6
CONTINUOUS
 62
     7
 10
-299.7310714499387
 20
148.867656828519
 30
0.0
  0
VERTEX
  5
35A
  8
0
  6
CONTINUOUS
 62
     7
 10
-299.7532210835857
 20
148.8606670905767
 30
0.0
  0
VERTEX
  5
35B
  8
0
  6
CONTINUOUS
 62
     7
 10
-299.7755937857806
 20
148.8548195449147
 30
0.0
  0
VERTEX
  5
35C
  8
0
  6
CONTINUOUS
 62
     7
 10
-299.7964231583915
 20
148.850440572852
 30
0.0
  0
VERTEX
  5
35D
  8
0
  6
CONTINUOUS
 62
     7
 10
-299.8174389661712
 20
148.8470224098867
 30
0.0
  0
VERTEX
  5
35E
  8
0
  6
CONTINUOUS
 62
     7
 10
-299.8385790277602
 20
148.8445721195667
 30
0.0
  0
VERTEX
  5
35F
  8
0
  6
CONTINUOUS
 62
     7
 10
-299.8597811617994
 20
148.8430967654396
 30
0.0
  0
VERTEX
  5
360
  8
0
  6
CONTINUOUS
 62
     7
 10
-299.8809831869293
 20
148.8426034110533
 30
0.0
  0
SEQEND
  5
455
  8
0
  6
CONTINUOUS
 62
     7
  0
LINE
  5
169
  8
0
  6
CONTINUOUS
 62
     7
 10
-299.3958285778124
 20
150.6556932142999
 30
0.0
 11
-299.3987944269486
 21
149.3426034110525
 31
0.0
  0
LINE
  5
16A
  8
0
  6
CONTINUOUS
 62
     7
 10
-290.6012055730513
 20
149.3426034110534
 30
0.0
 11
-290.6041714221875
 21
150.6556932143008
 31
0.0
  0
POLYLINE
  5
16B
  8
0
  6
CONTINUOUS
 62
     7
 66
     1
 10
0.0
 20
0.0
 30
0.0
  0
VERTEX
  5
361
  8
0
  6
CONTINUOUS
 62
     7
 10
-290.1190168130707
 20
148.8426034110533
 30
0.0
  0
VERTEX
  5
362
  8
0
  6
CONTINUOUS
 62
     7
 10
-290.1420199274411
 20
148.8431916854705
 30
0.0
  0
VERTEX
  5
363
  8
0
  6
CONTINUOUS
 62
     7
 10
-290.1650477010186
 20
148.8449472907261
 30
0.0
  0
VERTEX
  5
364
  8
0
  6
CONTINUOUS
 62
     7
 10
-290.1880210607325
 20
148.8478563998262
 30
0.0
  0
VERTEX
  5
365
  8
0
  6
CONTINUOUS
 62
     7
 10
-290.2108609335121
 20
148.8519051857769
 30
0.0
  0
VERTEX
  5
366
  8
0
  6
CONTINUOUS
 62
     7
 10
-290.2334882462868
 20
148.8570798215843
 30
0.0
  0
VERTEX
  5
367
  8
0
  6
CONTINUOUS
 62
     7
 10
-290.255823925986
 20
148.8633664802545
 30
0.0
  0
VERTEX
  5
368
  8
0
  6
CONTINUOUS
 62
     7
 10
-290.2777888995389
 20
148.8707513347935
 30
0.0
  0
VERTEX
  5
369
  8
0
  6
CONTINUOUS
 62
     7
 10
-290.2993913499502
 20
148.8792475071815
 30
0.0
  0
VERTEX
  5
36A
  8
0
  6
CONTINUOUS
 62
     7
 10
-290.3206444045829
 20
148.888850237651
 30
0.0
  0
VERTEX
  5
36B
  8
0
  6
CONTINUOUS
 62
     7
 10
-290.3414772445266
 20
148.899519181911
 30
0.0
  0
VERTEX
  5
36C
  8
0
  6
CONTINUOUS
 62
     7
 10
-290.3618190508706
 20
148.9112139956706
 30
0.0
  0
VERTEX
  5
36D
  8
0
  6
CONTINUOUS
 62
     7
 10
-290.3815990047044
 20
148.923894334639
 30
0.0
  0
VERTEX
  5
36E
  8
0
  6
CONTINUOUS
 62
     7
 10
-290.4007462871176
 20
148.9375198545251
 30
0.0
  0
VERTEX
  5
36F
  8
0
  6
CONTINUOUS
 62
     7
 10
-290.4191900791996
 20
148.9520502110381
 30
0.0
  0
VERTEX
  5
370
  8
0
  6
CONTINUOUS
 62
     7
 10
-290.4369299535152
 20
148.9674971785226
 30
0.0
  0
VERTEX
  5
371
  8
0
  6
CONTINUOUS
 62
     7
 10
-290.453983815007
 20
148.9838639678096
 30
0.0
  0
VERTEX
  5
372
  8
0
  6
CONTINUOUS
 62
     7
 10
-290.4702975081788
 20
149.0010884126395
 30
0.0
  0
VERTEX
  5
373
  8
0
  6
CONTINUOUS
 62
     7
 10
-290.4858168775342
 20
149.0191083467532
 30
0.0
  0
VERTEX
  5
374
  8
0
  6
CONTINUOUS
 62
     7
 10
-290.5004877675771
 20
149.0378616038911
 30
0.0
  0
VERTEX
  5
375
  8
0
  6
CONTINUOUS
 62
     7
 10
-290.5142560228114
 20
149.0572860177939
 30
0.0
  0
VERTEX
  5
376
  8
0
  6
CONTINUOUS
 62
     7
 10
-290.5270674877407
 20
149.0773194222021
 30
0.0
  0
VERTEX
  5
377
  8
0
  6
CONTINUOUS
 62
     7
 10
-290.5389236158275
 20
149.0979833965111
 30
0.0
  0
VERTEX
  5
378
  8
0
  6
CONTINUOUS
 62
     7
 10
-290.5498338629628
 20
149.1192775980275
 30
0.0
  0
VERTEX
  5
379
  8
0
  6
CONTINUOUS
 62
     7
 10
-290.5597670132569
 20
149.1411250193881
 30
0.0
  0
VERTEX
  5
37A
  8
0
  6
CONTINUOUS
 62
     7
 10
-290.5686918508201
 20
149.1634486532297
 30
0.0
  0
VERTEX
  5
37B
  8
0
  6
CONTINUOUS
 62
     7
 10
-290.5765771597627
 20
149.1861714921891
 30
0.0
  0
VERTEX
  5
37C
  8
0
  6
CONTINUOUS
 62
     7
 10
-290.5833917241951
 20
149.2092165289029
 30
0.0
  0
VERTEX
  5
37D
  8
0
  6
CONTINUOUS
 62
     7
 10
-290.5891043282274
 20
149.232506756008
 30
0.0
  0
VERTEX
  5
37E
  8
0
  6
CONTINUOUS
 62
     7
 10
-290.5934013904716
 20
149.2542435566096
 30
0.0
  0
VERTEX
  5
37F
  8
0
  6
CONTINUOUS
 62
     7
 10
-290.596767303012
 20
149.2761866670445
 30
0.0
  0
VERTEX
  5
380
  8
0
  6
CONTINUOUS
 62
     7
 10
-290.5991948089128
 20
149.2982710426832
 30
0.0
  0
VERTEX
  5
381
  8
0
  6
CONTINUOUS
 62
     7
 10
-290.6006766512378
 20
149.320431638896
 30
0.0
  0
VERTEX
  5
382
  8
0
  6
CONTINUOUS
 62
     7
 10
-290.6012055730513
 20
149.3426034110534
 30
0.0
  0
SEQEND
  5
456
  8
0
  6
CONTINUOUS
 62
     7
  0
LINE
  5
16C
  8
0
  6
CONTINUOUS
 62
     7
 10
-286.9366899679089
 20
148.8426034110533
 30
0.0
 11
-290.1190168130706
 21
148.8426034110533
 31
0.0
  0
POLYLINE
  5
16D
  8
0
  6
CONTINUOUS
 62
     7
 66
     1
 10
0.0
 20
0.0
 30
0.0
  0
VERTEX
  5
383
  8
0
  6
CONTINUOUS
 62
     7
 10
-286.5021817169476
 20
149.3426034110532
 30
0.0
  0
VERTEX
  5
384
  8
0
  6
CONTINUOUS
 62
     7
 10
-286.5025870312653
 20
149.3185861768866
 30
0.0
  0
VERTEX
  5
385
  8
0
  6
CONTINUOUS
 62
     7
 10
-286.504004703307
 20
149.2945566247602
 30
0.0
  0
VERTEX
  5
386
  8
0
  6
CONTINUOUS
 62
     7
 10
-286.5064233730447
 20
149.2705969277839
 30
0.0
  0
VERTEX
  5
387
  8
0
  6
CONTINUOUS
 62
     7
 10
-286.5098316804502
 20
149.2467892590673
 30
0.0
  0
VERTEX
  5
388
  8
0
  6
CONTINUOUS
 62
     7
 10
-286.5142182654956
 20
149.2232157917203
 30
0.0
  0
VERTEX
  5
389
  8
0
  6
CONTINUOUS
 62
     7
 10
-286.5195717681526
 20
149.1999586988525
 30
0.0
  0
VERTEX
  5
38A
  8
0
  6
CONTINUOUS
 62
     7
 10
-286.5258808283933
 20
149.1771001535738
 30
0.0
  0
VERTEX
  5
38B
  8
0
  6
CONTINUOUS
 62
     7
 10
-286.5331572461095
 20
149.1546315297714
 30
0.0
  0
VERTEX
  5
38C
  8
0
  6
CONTINUOUS
 62
     7
 10
-286.5413978708308
 20
149.132538181143
 30
0.0
  0
VERTEX
  5
38D
  8
0
  6
CONTINUOUS
 62
     7
 10
-286.5505689800324
 20
149.1108930401534
 30
0.0
  0
VERTEX
  5
38E
  8
0
  6
CONTINUOUS
 62
     7
 10
-286.5606368511899
 20
149.0897690392673
 30
0.0
  0
VERTEX
  5
38F
  8
0
  6
CONTINUOUS
 62
     7
 10
-286.5715677617785
 20
149.0692391109496
 30
0.0
  0
VERTEX
  5
390
  8
0
  6
CONTINUOUS
 62
     7
 10
-286.5833279892735
 20
149.0493761876651
 30
0.0
  0
VERTEX
  5
391
  8
0
  6
CONTINUOUS
 62
     7
 10
-286.5958838111504
 20
149.0302532018786
 30
0.0
  0
VERTEX
  5
392
  8
0
  6
CONTINUOUS
 62
     7
 10
-286.6092480666394
 20
149.0118683023711
 30
0.0
  0
VERTEX
  5
393
  8
0
  6
CONTINUOUS
 62
     7
 10
-286.6234236452542
 20
148.9942039516966
 30
0.0
  0
VERTEX
  5
394
  8
0
  6
CONTINUOUS
 62
     7
 10
-286.6383577128772
 20
148.9773156119458
 30
0.0
  0
VERTEX
  5
395
  8
0
  6
CONTINUOUS
 62
     7
 10
-286.6539974353905
 20
148.9612587452095
 30
0.0
  0
VERTEX
  5
396
  8
0
  6
CONTINUOUS
 62
     7
 10
-286.6702899786766
 20
148.9460888135785
 30
0.0
  0
VERTEX
  5
397
  8
0
  6
CONTINUOUS
 62
     7
 10
-286.6871825086179
 20
148.9318612791435
 30
0.0
  0
VERTEX
  5
398
  8
0
  6
CONTINUOUS
 62
     7
 10
-286.7046221910965
 20
148.9186316039954
 30
0.0
  0
VERTEX
  5
399
  8
0
  6
CONTINUOUS
 62
     7
 10
-286.7226174935895
 20
148.9064052468399
 30
0.0
  0
VERTEX
  5
39A
  8
0
  6
CONTINUOUS
 62
     7
 10
-286.7411800124164
 20
148.8951629679019
 30
0.0
  0
VERTEX
  5
39B
  8
0
  6
CONTINUOUS
 62
     7
 10
-286.7602432203788
 20
148.8849363899941
 30
0.0
  0
VERTEX
  5
39C
  8
0
  6
CONTINUOUS
 62
     7
 10
-286.7797405902783
 20
148.8757571359289
 30
0.0
  0
VERTEX
  5
39D
  8
0
  6
CONTINUOUS
 62
     7
 10
-286.7996055949169
 20
148.867656828519
 30
0.0
  0
VERTEX
  5
39E
  8
0
  6
CONTINUOUS
 62
     7
 10
-286.819771707096
 20
148.8606670905767
 30
0.0
  0
VERTEX
  5
39F
  8
0
  6
CONTINUOUS
 62
     7
 10
-286.8401723996175
 20
148.8548195449147
 30
0.0
  0
VERTEX
  5
3A0
  8
0
  6
CONTINUOUS
 62
     7
 10
-286.8591943428384
 20
148.850440572852
 30
0.0
  0
VERTEX
  5
3A1
  8
0
  6
CONTINUOUS
 62
     7
 10
-286.878413710115
 20
148.8470224098867
 30
0.0
  0
VERTEX
  5
3A2
  8
0
  6
CONTINUOUS
 62
     7
 10
-286.8977738626104
 20
148.8445721195667
 30
0.0
  0
VERTEX
  5
3A3
  8
0
  6
CONTINUOUS
 62
     7
 10
-286.9172181614874
 20
148.8430967654396
 30
0.0
  0
VERTEX
  5
3A4
  8
0
  6
CONTINUOUS
 62
     7
 10
-286.9366899679089
 20
148.8426034110533
 30
0.0
  0
SEQEND
  5
457
  8
0
  6
CONTINUOUS
 62
     7
  0
LINE
  5
16E
  8
0
  6
CONTINUOUS
 62
     7
 10
-286.5230078478497
 20
154.1154798660091
 30
0.0
 11
-286.5021817169476
 21
149.3426034110532
 31
0.0
  0
LINE
  5
16F
  8
0
  6
CONTINUOUS
 62
     7
 10
-278.0043634338953
 20
149.3426034110532
 30
0.0
 11
-278.0460156956993
 21
154.1154798660091
 31
0.0
  0
POLYLINE
  5
170
  8
0
  6
CONTINUOUS
 62
     7
 66
     1
 10
0.0
 20
0.0
 30
0.0
  0
VERTEX
  5
3A5
  8
0
  6
CONTINUOUS
 62
     7
 10
-299.0076147927128
 20
152.1426034110533
 30
0.0
  0
VERTEX
  5
3A6
  8
0
  6
CONTINUOUS
 62
     7
 10
-299.0829390296144
 20
152.1140996721018
 30
0.0
  0
VERTEX
  5
3A7
  8
0
  6
CONTINUOUS
 62
     7
 10
-299.1554005700022
 20
152.0296717394265
 30
0.0
  0
VERTEX
  5
3A8
  8
0
  6
CONTINUOUS
 62
     7
 10
-299.2222455141012
 20
151.8925282953647
 30
0.0
  0
VERTEX
  5
3A9
  8
0
  6
CONTINUOUS
 62
     7
 10
-299.2809334207956
 20
151.7078814744879
 30
0.0
  0
VERTEX
  5
3AA
  8
0
  6
CONTINUOUS
 62
     7
 10
-299.3292338570561
 20
151.4827487765033
 30
0.0
  0
VERTEX
  5
3AB
  8
0
  6
CONTINUOUS
 62
     7
 10
-299.3653111655142
 20
151.2256863662812
 30
0.0
  0
VERTEX
  5
3AC
  8
0
  6
CONTINUOUS
 62
     7
 10
-299.3877942285933
 20
150.9464638969354
 30
0.0
  0
VERTEX
  5
3AD
  8
0
  6
CONTINUOUS
 62
     7
 10
-299.3958285778123
 20
150.6556932142999
 30
0.0
  0
SEQEND
  5
458
  8
0
  6
CONTINUOUS
 62
     7
  0
LINE
  5
171
  8
0
  6
CONTINUOUS
 62
     7
 10
-299.0076147927128
 20
152.1426034110533
 30
0.0
 11
-290.992385207287
 21
152.1426034110533
 31
0.0
  0
POLYLINE
  5
172
  8
0
  6
CONTINUOUS
 62
     7
 66
     1
 10
0.0
 20
0.0
 30
0.0
  0
VERTEX
  5
3AE
  8
0
  6
CONTINUOUS
 62
     7
 10
-290.6041714221875
 20
150.6556932143008
 30
0.0
  0
VERTEX
  5
3AF
  8
0
  6
CONTINUOUS
 62
     7
 10
-290.6122057714066
 20
150.9464638969362
 30
0.0
  0
VERTEX
  5
3B0
  8
0
  6
CONTINUOUS
 62
     7
 10
-290.6346888344858
 20
151.2256863662818
 30
0.0
  0
VERTEX
  5
3B1
  8
0
  6
CONTINUOUS
 62
     7
 10
-290.6707661429438
 20
151.4827487765037
 30
0.0
  0
VERTEX
  5
3B2
  8
0
  6
CONTINUOUS
 62
     7
 10
-290.7190665792043
 20
151.7078814744882
 30
0.0
  0
VERTEX
  5
3B3
  8
0
  6
CONTINUOUS
 62
     7
 10
-290.7777544858988
 20
151.8925282953649
 30
0.0
  0
VERTEX
  5
3B4
  8
0
  6
CONTINUOUS
 62
     7
 10
-290.8445994299977
 20
152.0296717394266
 30
0.0
  0
VERTEX
  5
3B5
  8
0
  6
CONTINUOUS
 62
     7
 10
-290.9170609703855
 20
152.1140996721019
 30
0.0
  0
VERTEX
  5
3B6
  8
0
  6
CONTINUOUS
 62
     7
 10
-290.992385207287
 20
152.1426034110533
 30
0.0
  0
SEQEND
  5
459
  8
0
  6
CONTINUOUS
 62
     7
  0
LINE
  5
173
  8
0
  6
CONTINUOUS
 62
     7
 10
-287.5021817169476
 20
149.3426034110534
 30
0.0
 11
-287.5220719342717
 21
153.9009897189309
 31
0.0
  0
POLYLINE
  5
174
  8
0
  6
CONTINUOUS
 62
     7
 66
     1
 10
0.0
 20
0.0
 30
0.0
  0
VERTEX
  5
3B7
  8
0
  6
CONTINUOUS
 62
     7
 10
-287.9371805266097
 20
148.8426034110533
 30
0.0
  0
VERTEX
  5
3B8
  8
0
  6
CONTINUOUS
 62
     7
 10
-287.91601395162
 20
148.8431914875298
 30
0.0
  0
VERTEX
  5
3B9
  8
0
  6
CONTINUOUS
 62
     7
 10
-287.8948596452793
 20
148.8449465277047
 30
0.0
  0
VERTEX
  5
3BA
  8
0
  6
CONTINUOUS
 62
     7
 10
-287.8737893800489
 20
148.8478547476959
 30
0.0
  0
VERTEX
  5
3BB
  8
0
  6
CONTINUOUS
 62
     7
 10
-287.85287492839
 20
148.8519023636216
 30
0.0
  0
VERTEX
  5
3BC
  8
0
  6
CONTINUOUS
 62
     7
 10
-287.8321880627637
 20
148.8570755915997
 30
0.0
  0
VERTEX
  5
3BD
  8
0
  6
CONTINUOUS
 62
     7
 10
-287.8118005556313
 20
148.8633606477482
 30
0.0
  0
VERTEX
  5
3BE
  8
0
  6
CONTINUOUS
 62
     7
 10
-287.7917841794542
 20
148.8707437481851
 30
0.0
  0
VERTEX
  5
3BF
  8
0
  6
CONTINUOUS
 62
     7
 10
-287.7721307051654
 20
148.8792380837656
 30
0.0
  0
VERTEX
  5
3C0
  8
0
  6
CONTINUOUS
 62
     7
 10
-287.752826379021
 20
148.8888388866676
 30
0.0
  0
VERTEX
  5
3C1
  8
0
  6
CONTINUOUS
 62
     7
 10
-287.7339337055321
 20
148.8995058276029
 30
0.0
  0
VERTEX
  5
3C2
  8
0
  6
CONTINUOUS
 62
     7
 10
-287.7155151892097
 20
148.9111985772836
 30
0.0
  0
VERTEX
  5
3C3
  8
0
  6
CONTINUOUS
 62
     7
 10
-287.6976333345651
 20
148.9238768064217
 30
0.0
  0
VERTEX
  5
3C4
  8
0
  6
CONTINUOUS
 62
     7
 10
-287.6803506461093
 20
148.9375001857291
 30
0.0
  0
VERTEX
  5
3C5
  8
0
  6
CONTINUOUS
 62
     7
 10
-287.6637296283535
 20
148.9520283859177
 30
0.0
  0
VERTEX
  5
3C6
  8
0
  6
CONTINUOUS
 62
     7
 10
-287.6477699162953
 20
148.9674721775966
 30
0.0
  0
VERTEX
  5
3C7
  8
0
  6
CONTINUOUS
 62
     7
 10
-287.6324519663574
 20
148.9838356570681
 30
0.0
  0
VERTEX
  5
3C8
  8
0
  6
CONTINUOUS
 62
     7
 10
-287.6178223484848
 20
149.0010566774495
 30
0.0
  0
VERTEX
  5
3C9
  8
0
  6
CONTINUOUS
 62
     7
 10
-287.6039276326229
 20
149.0190730918584
 30
0.0
  0
VERTEX
  5
3CA
  8
0
  6
CONTINUOUS
 62
     7
 10
-287.5908143887169
 20
149.0378227534121
 30
0.0
  0
VERTEX
  5
3CB
  8
0
  6
CONTINUOUS
 62
     7
 10
-287.578529186712
 20
149.0572435152282
 30
0.0
  0
VERTEX
  5
3CC
  8
0
  6
CONTINUOUS
 62
     7
 10
-287.5671185965536
 20
149.077273230424
 30
0.0
  0
VERTEX
  5
3CD
  8
0
  6
CONTINUOUS
 62
     7
 10
-287.5565789346277
 20
149.0979345165204
 30
0.0
  0
VERTEX
  5
3CE
  8
0
  6
CONTINUOUS
 62
     7
 10
-287.5469005109755
 20
149.1192260507178
 30
0.0
  0
VERTEX
  5
3CF
  8
0
  6
CONTINUOUS
 62
     7
 10
-287.5381095211196
 20
149.1410708438912
 30
0.0
  0
VERTEX
  5
3D0
  8
0
  6
CONTINUOUS
 62
     7
 10
-287.5302321605829
 20
149.1633919069156
 30
0.0
  0
VERTEX
  5
3D1
  8
0
  6
CONTINUOUS
 62
     7
 10
-287.5232946248881
 20
149.1861122506658
 30
0.0
  0
VERTEX
  5
3D2
  8
0
  6
CONTINUOUS
 62
     7
 10
-287.517323109558
 20
149.2091548860168
 30
0.0
  0
VERTEX
  5
3D3
  8
0
  6
CONTINUOUS
 62
     7
 10
-287.5123438101155
 20
149.2324428238436
 30
0.0
  0
VERTEX
  5
3D4
  8
0
  6
CONTINUOUS
 62
     7
 10
-287.5086234550953
 20
149.2541919144213
 30
0.0
  0
VERTEX
  5
3D5
  8
0
  6
CONTINUOUS
 62
     7
 10
-287.5057412993195
 20
149.2761476771928
 30
0.0
  0
VERTEX
  5
3D6
  8
0
  6
CONTINUOUS
 62
     7
 10
-287.503703111737
 20
149.2982449533963
 30
0.0
  0
VERTEX
  5
3D7
  8
0
  6
CONTINUOUS
 62
     7
 10
-287.5025146612967
 20
149.3204185842703
 30
0.0
  0
VERTEX
  5
3D8
  8
0
  6
CONTINUOUS
 62
     7
 10
-287.5021817169476
 20
149.3426034110534
 30
0.0
  0
SEQEND
  5
45A
  8
0
  6
CONTINUOUS
 62
     7
  0
POLYLINE
  5
175
  8
0
  6
CONTINUOUS
 62
     7
 66
     1
 10
0.0
 20
0.0
 30
0.0
  0
VERTEX
  5
3D9
  8
0
  6
CONTINUOUS
 62
     7
 10
-302.4978182830523
 20
149.3426034110534
 30
0.0
  0
VERTEX
  5
3DA
  8
0
  6
CONTINUOUS
 62
     7
 10
-302.4974129946418
 20
149.3185862941163
 30
0.0
  0
VERTEX
  5
3DB
  8
0
  6
CONTINUOUS
 62
     7
 10
-302.495995365661
 20
149.2945568591784
 30
0.0
  0
VERTEX
  5
3DC
  8
0
  6
CONTINUOUS
 62
     7
 10
-302.4935767026192
 20
149.270597277539
 30
0.0
  0
VERTEX
  5
3DD
  8
0
  6
CONTINUOUS
 62
     7
 10
-302.4901683120263
 20
149.2467897204974
 30
0.0
  0
VERTEX
  5
3DE
  8
0
  6
CONTINUOUS
 62
     7
 10
-302.4857815003917
 20
149.2232163593528
 30
0.0
  0
VERTEX
  5
3DF
  8
0
  6
CONTINUOUS
 62
     7
 10
-302.4804275742253
 20
149.1999593654048
 30
0.0
  0
VERTEX
  5
3E0
  8
0
  6
CONTINUOUS
 62
     7
 10
-302.4741178400366
 20
149.1771009099525
 30
0.0
  0
VERTEX
  5
3E1
  8
0
  6
CONTINUOUS
 62
     7
 10
-302.4668404065362
 20
149.1546323526517
 30
0.0
  0
VERTEX
  5
3E2
  8
0
  6
CONTINUOUS
 62
     7
 10
-302.458598290768
 20
149.1325390571879
 30
0.0
  0
VERTEX
  5
3E3
  8
0
  6
CONTINUOUS
 62
     7
 10
-302.4494250889778
 20
149.1108939581572
 30
0.0
  0
VERTEX
  5
3E4
  8
0
  6
CONTINUOUS
 62
     7
 10
-302.4393543974111
 20
149.0897699901553
 30
0.0
  0
VERTEX
  5
3E5
  8
0
  6
CONTINUOUS
 62
     7
 10
-302.428419812314
 20
149.0692400877782
 30
0.0
  0
VERTEX
  5
3E6
  8
0
  6
CONTINUOUS
 62
     7
 10
-302.4166549299317
 20
149.0493771856218
 30
0.0
  0
VERTEX
  5
3E7
  8
0
  6
CONTINUOUS
 62
     7
 10
-302.4040933465104
 20
149.0302542182819
 30
0.0
  0
VERTEX
  5
3E8
  8
0
  6
CONTINUOUS
 62
     7
 10
-302.3907222888586
 20
149.0118696572343
 30
0.0
  0
VERTEX
  5
3E9
  8
0
  6
CONTINUOUS
 62
     7
 10
-302.376538479954
 20
148.9942056165971
 30
0.0
  0
VERTEX
  5
3EA
  8
0
  6
CONTINUOUS
 62
     7
 10
-302.3615946463628
 20
148.977317562002
 30
0.0
  0
VERTEX
  5
3EB
  8
0
  6
CONTINUOUS
 62
     7
 10
-302.3459435146513
 20
148.9612609590802
 30
0.0
  0
VERTEX
  5
3EC
  8
0
  6
CONTINUOUS
 62
     7
 10
-302.3296378113855
 20
148.9460912734634
 30
0.0
  0
VERTEX
  5
3ED
  8
0
  6
CONTINUOUS
 62
     7
 10
-302.3127302631319
 20
148.9318639707829
 30
0.0
  0
VERTEX
  5
3EE
  8
0
  6
CONTINUOUS
 62
     7
 10
-302.2952735964565
 20
148.9186345166701
 30
0.0
  0
VERTEX
  5
3EF
  8
0
  6
CONTINUOUS
 62
     7
 10
-302.2772603383431
 20
148.9064091221751
 30
0.0
  0
VERTEX
  5
3F0
  8
0
  6
CONTINUOUS
 62
     7
 10
-302.2586776679179
 20
148.895167653486
 30
0.0
  0
VERTEX
  5
3F1
  8
0
  6
CONTINUOUS
 62
     7
 10
-302.2395921016279
 20
148.8849417118871
 30
0.0
  0
VERTEX
  5
3F2
  8
0
  6
CONTINUOUS
 62
     7
 10
-302.2200701559199
 20
148.8757628986627
 30
0.0
  0
VERTEX
  5
3F3
  8
0
  6
CONTINUOUS
 62
     7
 10
-302.2001783472409
 20
148.8676628150969
 30
0.0
  0
VERTEX
  5
3F4
  8
0
  6
CONTINUOUS
 62
     7
 10
-302.1799831920376
 20
148.860673062474
 30
0.0
  0
VERTEX
  5
3F5
  8
0
  6
CONTINUOUS
 62
     7
 10
-302.1595512067569
 20
148.8548252420783
 30
0.0
  0
VERTEX
  5
3F6
  8
0
  6
CONTINUOUS
 62
     7
 10
-302.1404904293868
 20
148.8504441514685
 30
0.0
  0
VERTEX
  5
3F7
  8
0
  6
CONTINUOUS
 62
     7
 10
-302.1212300879913
 20
148.8470243848513
 30
0.0
  0
VERTEX
  5
3F8
  8
0
  6
CONTINUOUS
 62
     7
 10
-302.1018269619441
 20
148.8445729804367
 30
0.0
  0
VERTEX
  5
3F9
  8
0
  6
CONTINUOUS
 62
     7
 10
-302.0823378306192
 20
148.8430969764341
 30
0.0
  0
VERTEX
  5
3FA
  8
0
  6
CONTINUOUS
 62
     7
 10
-302.0628194733902
 20
148.8426034110533
 30
0.0
  0
SEQEND
  5
45B
  8
0
  6
CONTINUOUS
 62
     7
  0
LINE
  5
176
  8
0
  6
CONTINUOUS
 62
     7
 10
-302.4779280657282
 20
153.9009897189309
 30
0.0
 11
-302.4978182830523
 21
149.3426034110534
 31
0.0
  0
POLYLINE
  5
177
  8
0
  6
CONTINUOUS
 62
     7
 66
     1
 10
0.0
 20
0.0
 30
0.0
  0
VERTEX
  5
3FB
  8
0
  6
CONTINUOUS
 62
     7
 10
-302.5049848125543
 20
156.0426034110533
 30
0.0
  0
VERTEX
  5
3FC
  8
0
  6
CONTINUOUS
 62
     7
 10
-302.6935811837496
 20
156.0056608797726
 30
0.0
  0
VERTEX
  5
3FD
  8
0
  6
CONTINUOUS
 62
     7
 10
-302.875009952636
 20
155.8962372862877
 30
0.0
  0
VERTEX
  5
3FE
  8
0
  6
CONTINUOUS
 62
     7
 10
-303.0423759215245
 20
155.718491272657
 30
0.0
  0
VERTEX
  5
3FF
  8
0
  6
CONTINUOUS
 62
     7
 10
-303.1893183492332
 20
155.47917807351
 30
0.0
  0
VERTEX
  5
400
  8
0
  6
CONTINUOUS
 62
     7
 10
-303.3102526909617
 20
155.187392783455
 30
0.0
  0
VERTEX
  5
401
  8
0
  6
CONTINUOUS
 62
     7
 10
-303.400582838834
 20
154.854224698142
 30
0.0
  0
VERTEX
  5
402
  8
0
  6
CONTINUOUS
 62
     7
 10
-303.456875796911
 20
154.4923358657454
 30
0.0
  0
VERTEX
  5
403
  8
0
  6
CONTINUOUS
 62
     7
 10
-303.4769921521502
 20
154.1154798660091
 30
0.0
  0
SEQEND
  5
45C
  8
0
  6
CONTINUOUS
 62
     7
  0
POLYLINE
  5
178
  8
0
  6
CONTINUOUS
 62
     7
 66
     1
 10
0.0
 20
0.0
 30
0.0
  0
VERTEX
  5
404
  8
0
  6
CONTINUOUS
 62
     7
 10
-301.8131586560023
 20
155.4641600364182
 30
0.0
  0
VERTEX
  5
405
  8
0
  6
CONTINUOUS
 62
     7
 10
-300.833256864054
 20
153.8729529205114
 30
0.0
  0
VERTEX
  5
406
  8
0
  6
CONTINUOUS
 62
     7
 10
-299.7033718910441
 20
152.7476929664425
 30
0.0
  0
VERTEX
  5
407
  8
0
  6
CONTINUOUS
 62
     7
 10
-298.4779498409808
 20
152.1426034110533
 30
0.0
  0
SEQEND
  5
45D
  8
0
  6
CONTINUOUS
 62
     7
  0
POLYLINE
  5
179
  8
0
  6
CONTINUOUS
 62
     7
 66
     1
 10
0.0
 20
0.0
 30
0.0
  0
VERTEX
  5
408
  8
0
  6
CONTINUOUS
 62
     7
 10
-302.0645677444048
 20
154.2750986176418
 30
0.0
  0
VERTEX
  5
409
  8
0
  6
CONTINUOUS
 62
     7
 10
-300.7833525276121
 20
152.5387614544112
 30
0.0
  0
VERTEX
  5
40A
  8
0
  6
CONTINUOUS
 62
     7
 10
-299.3361585872723
 20
151.4417494820264
 30
0.0
  0
SEQEND
  5
45E
  8
0
  6
CONTINUOUS
 62
     7
  0
POLYLINE
  5
17A
  8
0
  6
CONTINUOUS
 62
     7
 66
     1
 10
0.0
 20
0.0
 30
0.0
  0
VERTEX
  5
40B
  8
0
  6
CONTINUOUS
 62
     7
 10
-302.0645677444048
 20
154.2750986176418
 30
0.0
  0
VERTEX
  5
40C
  8
0
  6
CONTINUOUS
 62
     7
 10
-302.1006647037359
 20
154.3269826464635
 30
0.0
  0
VERTEX
  5
40D
  8
0
  6
CONTINUOUS
 62
     7
 10
-302.1407854788704
 20
154.3652606812749
 30
0.0
  0
VERTEX
  5
40E
  8
0
  6
CONTINUOUS
 62
     7
 10
-302.1836616251287
 20
154.3887225368431
 30
0.0
  0
VERTEX
  5
40F
  8
0
  6
CONTINUOUS
 62
     7
 10
-302.2279375849622
 20
154.3966264511817
 30
0.0
  0
SEQEND
  5
45F
  8
0
  6
CONTINUOUS
 62
     7
  0
POLYLINE
  5
17B
  8
0
  6
CONTINUOUS
 62
     7
 66
     1
 10
0.0
 20
0.0
 30
0.0
  0
VERTEX
  5
410
  8
0
  6
CONTINUOUS
 62
     7
 10
-287.5220719342717
 20
153.9009897189309
 30
0.0
  0
VERTEX
  5
411
  8
0
  6
CONTINUOUS
 62
     7
 10
-287.5272456578771
 20
153.9979132798094
 30
0.0
  0
VERTEX
  5
412
  8
0
  6
CONTINUOUS
 62
     7
 10
-287.5417236387319
 20
154.0909874362579
 30
0.0
  0
VERTEX
  5
413
  8
0
  6
CONTINUOUS
 62
     7
 10
-287.564955641387
 20
154.1766749063319
 30
0.0
  0
VERTEX
  5
414
  8
0
  6
CONTINUOUS
 62
     7
 10
-287.5960587339238
 20
154.2517191389934
 30
0.0
  0
VERTEX
  5
415
  8
0
  6
CONTINUOUS
 62
     7
 10
-287.6338508437684
 20
154.3132680792856
 30
0.0
  0
VERTEX
  5
416
  8
0
  6
CONTINUOUS
 62
     7
 10
-287.6768956823431
 20
154.3589825606395
 30
0.0
  0
VERTEX
  5
417
  8
0
  6
CONTINUOUS
 62
     7
 10
-287.7235573311919
 20
154.3871252048646
 30
0.0
  0
VERTEX
  5
418
  8
0
  6
CONTINUOUS
 62
     7
 10
-287.7720624150377
 20
154.3966264511817
 30
0.0
  0
SEQEND
  5
460
  8
0
  6
CONTINUOUS
 62
     7
  0
POLYLINE
  5
17C
  8
0
  6
CONTINUOUS
 62
     7
 66
     1
 10
0.0
 20
0.0
 30
0.0
  0
VERTEX
  5
419
  8
0
  6
CONTINUOUS
 62
     7
 10
-290.663841412727
 20
151.4417494820267
 30
0.0
  0
VERTEX
  5
41A
  8
0
  6
CONTINUOUS
 62
     7
 10
-289.2166474723875
 20
152.5387614544115
 30
0.0
  0
VERTEX
  5
41B
  8
0
  6
CONTINUOUS
 62
     7
 10
-287.9354322555951
 20
154.2750986176418
 30
0.0
  0
SEQEND
  5
461
  8
0
  6
CONTINUOUS
 62
     7
  0
POLYLINE
  5
17D
  8
0
  6
CONTINUOUS
 62
     7
 66
     1
 10
0.0
 20
0.0
 30
0.0
  0
VERTEX
  5
41C
  8
0
  6
CONTINUOUS
 62
     7
 10
-291.5220501590191
 20
152.1426034110533
 30
0.0
  0
VERTEX
  5
41D
  8
0
  6
CONTINUOUS
 62
     7
 10
-290.2966281089558
 20
152.7476929664425
 30
0.0
  0
VERTEX
  5
41E
  8
0
  6
CONTINUOUS
 62
     7
 10
-289.1667431359459
 20
153.8729529205114
 30
0.0
  0
VERTEX
  5
41F
  8
0
  6
CONTINUOUS
 62
     7
 10
-288.1868413439976
 20
155.4641600364182
 30
0.0
  0
SEQEND
  5
462
  8
0
  6
CONTINUOUS
 62
     7
  0
POLYLINE
  5
17E
  8
0
  6
CONTINUOUS
 62
     7
 66
     1
 10
0.0
 20
0.0
 30
0.0
  0
VERTEX
  5
420
  8
0
  6
CONTINUOUS
 62
     7
 10
-287.4950151874456
 20
156.0426034110533
 30
0.0
  0
VERTEX
  5
421
  8
0
  6
CONTINUOUS
 62
     7
 10
-287.686212414589
 20
156.0046247170897
 30
0.0
  0
VERTEX
  5
422
  8
0
  6
CONTINUOUS
 62
     7
 10
-287.8699393848857
 20
155.8921724987616
 30
0.0
  0
VERTEX
  5
423
  8
0
  6
CONTINUOUS
 62
     7
 10
-288.0390177115028
 20
155.709640370801
 30
0.0
  0
VERTEX
  5
424
  8
0
  6
CONTINUOUS
 62
     7
 10
-288.1868413439976
 20
155.4641600364182
 30
0.0
  0
SEQEND
  5
463
  8
0
  6
CONTINUOUS
 62
     7
  0
POLYLINE
  5
17F
  8
0
  6
CONTINUOUS
 62
     7
 66
     1
 10
0.0
 20
0.0
 30
0.0
  0
VERTEX
  5
425
  8
0
  6
CONTINUOUS
 62
     7
 10
-301.8131586560023
 20
155.4641600364182
 30
0.0
  0
VERTEX
  5
426
  8
0
  6
CONTINUOUS
 62
     7
 10
-301.9609822884971
 20
155.709640370801
 30
0.0
  0
VERTEX
  5
427
  8
0
  6
CONTINUOUS
 62
     7
 10
-302.1300606151142
 20
155.8921724987616
 30
0.0
  0
VERTEX
  5
428
  8
0
  6
CONTINUOUS
 62
     7
 10
-302.3137875854109
 20
156.0046247170897
 30
0.0
  0
VERTEX
  5
429
  8
0
  6
CONTINUOUS
 62
     7
 10
-302.5049848125543
 20
156.0426034110533
 30
0.0
  0
SEQEND
  5
464
  8
0
  6
CONTINUOUS
 62
     7
  0
ARC
  5
180
  8
0
  6
CONTINUOUS
 62
     7
 10
-310.0099696251086
 20
154.0985147069205
 30
0.0
 40
1.944088704132763
 50
90.0
 51
179.5000000000002
  0
POLYLINE
  5
181
  8
0
  6
CONTINUOUS
 62
     7
 66
     1
 10
0.0
 20
0.0
 30
0.0
  0
VERTEX
  5
42A
  8
0
  6
CONTINUOUS
 62
     7
 10
-286.5230078478497
 20
154.1154798660091
 30
0.0
  0
VERTEX
  5
42B
  8
0
  6
CONTINUOUS
 62
     7
 10
-286.5431242030889
 20
154.4923358657454
 30
0.0
  0
VERTEX
  5
42C
  8
0
  6
CONTINUOUS
 62
     7
 10
-286.5994171611659
 20
154.854224698142
 30
0.0
  0
VERTEX
  5
42D
  8
0
  6
CONTINUOUS
 62
     7
 10
-286.6897473090382
 20
155.187392783455
 30
0.0
  0
VERTEX
  5
42E
  8
0
  6
CONTINUOUS
 62
     7
 10
-286.8106816507666
 20
155.47917807351
 30
0.0
  0
VERTEX
  5
42F
  8
0
  6
CONTINUOUS
 62
     7
 10
-286.9576240784754
 20
155.718491272657
 30
0.0
  0
VERTEX
  5
430
  8
0
  6
CONTINUOUS
 62
     7
 10
-287.1249900473639
 20
155.8962372862877
 30
0.0
  0
VERTEX
  5
431
  8
0
  6
CONTINUOUS
 62
     7
 10
-287.3064188162503
 20
156.0056608797726
 30
0.0
  0
VERTEX
  5
432
  8
0
  6
CONTINUOUS
 62
     7
 10
-287.4950151874456
 20
156.0426034110533
 30
0.0
  0
SEQEND
  5
465
  8
0
  6
CONTINUOUS
 62
     7
  0
ARC
  5
182
  8
0
  6
CONTINUOUS
 62
     7
 10
-279.9900303748913
 20
154.0985147069205
 30
0.0
 40
1.944088704132765
 50
0.4999999999998479
 51
90.00000000000006
  0
POLYLINE
  5
183
  8
0
  6
CONTINUOUS
 62
     7
 66
     1
 10
0.0
 20
0.0
 30
0.0
  0
VERTEX
  5
433
  8
0
  6
CONTINUOUS
 62
     7
 10
-302.2279375849622
 20
154.3966264511817
 30
0.0
  0
VERTEX
  5
434
  8
0
  6
CONTINUOUS
 62
     7
 10
-302.276442668808
 20
154.3871252048646
 30
0.0
  0
VERTEX
  5
435
  8
0
  6
CONTINUOUS
 62
     7
 10
-302.3231043176568
 20
154.3589825606395
 30
0.0
  0
VERTEX
  5
436
  8
0
  6
CONTINUOUS
 62
     7
 10
-302.3661491562315
 20
154.3132680792856
 30
0.0
  0
VERTEX
  5
437
  8
0
  6
CONTINUOUS
 62
     7
 10
-302.4039412660762
 20
154.2517191389934
 30
0.0
  0
VERTEX
  5
438
  8
0
  6
CONTINUOUS
 62
     7
 10
-302.4350443586129
 20
154.1766749063319
 30
0.0
  0
VERTEX
  5
439
  8
0
  6
CONTINUOUS
 62
     7
 10
-302.458276361268
 20
154.0909874362579
 30
0.0
  0
VERTEX
  5
43A
  8
0
  6
CONTINUOUS
 62
     7
 10
-302.4727543421228
 20
153.9979132798094
 30
0.0
  0
VERTEX
  5
43B
  8
0
  6
CONTINUOUS
 62
     7
 10
-302.4779280657282
 20
153.9009897189309
 30
0.0
  0
SEQEND
  5
466
  8
0
  6
CONTINUOUS
 62
     7
  0
POLYLINE
  5
184
  8
0
  6
CONTINUOUS
 62
     7
 66
     1
 10
0.0
 20
0.0
 30
0.0
  0
VERTEX
  5
43C
  8
0
  6
CONTINUOUS
 62
     7
 10
-287.7720624150377
 20
154.3966264511817
 30
0.0
  0
VERTEX
  5
43D
  8
0
  6
CONTINUOUS
 62
     7
 10
-287.8163383748712
 20
154.3887225368431
 30
0.0
  0
VERTEX
  5
43E
  8
0
  6
CONTINUOUS
 62
     7
 10
-287.8592145211296
 20
154.3652606812749
 30
0.0
  0
VERTEX
  5
43F
  8
0
  6
CONTINUOUS
 62
     7
 10
-287.899335296264
 20
154.3269826464635
 30
0.0
  0
VERTEX
  5
440
  8
0
  6
CONTINUOUS
 62
     7
 10
-287.9354322555952
 20
154.2750986176418
 30
0.0
  0
SEQEND
  5
467
  8
0
  6
CONTINUOUS
 62
     7
  0
LINE
  5
185
  8
0
  6
CONTINUOUS
 62
     7
 10
-299.3817851456876
 20
151.0426034110533
 30
0.0
 11
-300.5000000000001
 21
151.0426034110533
 31
0.0
  0
ARC
  5
186
  8
0
  6
CONTINUOUS
 62
     7
 10
-300.4378599711551
 20
164.3424582454797
 30
0.0
 40
13.3
 50
261.1252976273868
 51
269.7323026808166
  0
ARC
  5
187
  8
0
  6
CONTINUOUS
 62
     7
 10
-289.5621400288448
 20
164.3424582454797
 30
0.0
 40
13.3
 50
270.2676973191832
 51
278.8747023726129
  0
LINE
  5
188
  8
0
  6
CONTINUOUS
 62
     7
 10
-289.4999999999998
 20
151.0426034110533
 30
0.0
 11
-290.6182148543123
 21
151.0426034110533
 31
0.0
  0
ARC
  5
189
  8
0
  6
CONTINUOUS
 62
     7
 10
-272.8226541919188
 20
128.5426034110533
 30
0.0
 40
5.000000000000001
 50
180.5
 51
270.0
  0
ARC
  5
18A
  8
0
  6
CONTINUOUS
 62
     7
 10
-317.177345808081
 20
128.5426034110533
 30
0.0
 40
5.000000000000001
 50
270.0
 51
359.5000000000001
  0
LINE
  5
18B
  8
0
  6
CONTINUOUS
 62
     7
 10
-277.8224638072397
 20
128.4989707335614
 30
0.0
 11
-278.0043634338953
 21
149.3426034110532
 31
0.0
  0
LINE
  5
18C
  8
0
  6
CONTINUOUS
 62
     7
 10
-311.9956365661046
 20
149.342603411053
 30
0.0
 11
-312.1775361927602
 21
128.4989707335614
 31
0.0
  0
LINE
  5
18D
  8
0
  6
CONTINUOUS
 62
     7
 10
-302.5049848125543
 20
156.0426034110533
 30
0.0
 11
-310.0099696251086
 21
156.0426034110533
 31
0.0
  0
LINE
  5
18E
  8
0
  6
CONTINUOUS
 62
     7
 10
-279.9900303748913
 20
156.0426034110533
 30
0.0
 11
-287.4950151874456
 21
156.0426034110533
 31
0.0
  0
LINE
  5
18F
  8
0
  6
CONTINUOUS
 62
     7
 10
-302.5049848125543
 20
156.0426034110533
 30
0.0
 11
-287.4950151874456
 21
156.0426034110533
 31
0.0
  0
LINE
  5
190
  8
0
  6
CONTINUOUS
 62
     7
 10
-305.1934851025443
 20
114.0051034110533
 30
0.0
 11
-305.1934851025443
 21
114.0426034110533
 31
0.0
  0
ENDBLK
  8
0
  0
ENDSEC
  0
SECTION
  2
ENTITIES
  0
INSERT
  5
F0
  8
0
  6
PHANTOM
 62
     7
  2
D_FRAME_VIEW_1636
 10
0.0
 20
0.0
 30
0.0
  0
INSERT
  5
155
  8
0
  6
PHANTOM
 62
     7
  2
D_FRAME_VIEW_1750
 10
0.0
 20
0.0
 30
0.0
  0
TEXT
  5
156
  8
0
  6
CONTINUOUS
 62
     1
 10
-259.1000375140678
 20
97.77122671001626
 30
0.0
 40
4.0
  1
XPL-RW34
  0
INSERT
  5
191
  8
0
  6
PHANTOM
 62
     7
  2
D_FRAME_VIEW_1338
 10
0.0
 20
0.0
 30
0.0
  0
ENDSEC
  0
EOF
