  0
SECTION
  2
HEADER
  9
$ACADVER
  1
AC1014
  9
$ACADMAINTVER
 70
     9
  9
$DWGCODEPAGE
  3
ANSI_932
  9
$INSBASE
 10
0.0
 20
0.0
 30
0.0
  9
$EXTMIN
 10
271.6152753140634
 20
100.5109066079678
 30
0.0
  9
$EXTMAX
 10
413.1071061430192
 20
237.9796943002687
 30
0.0
  9
$LIMMIN
 10
0.0
 20
0.0
  9
$LIMMAX
 10
12.0
 20
9.0
  9
$ORTHOMODE
 70
     0
  9
$REGENMODE
 70
     1
  9
$FILLMODE
 70
     1
  9
$QTEXTMODE
 70
     0
  9
$MIRRTEXT
 70
     1
  9
$DRAGMODE
 70
     2
  9
$LTSCALE
 40
1.0
  9
$OSMODE
 70
    37
  9
$ATTMODE
 70
     1
  9
$TEXTSIZE
 40
0.2
  9
$TRACEWID
 40
0.05
  9
$TEXTSTYLE
  7
STANDARD
  9
$CLAYER
  8
0
  9
$CELTYPE
  6
BYLAYER
  9
$CECOLOR
 62
   256
  9
$CELTSCALE
 40
1.0
  9
$DELOBJ
 70
     1
  9
$DISPSILH
 70
     0
  9
$DIMSCALE
 40
1.0
  9
$DIMASZ
 40
3.0
  9
$DIMEXO
 40
0.0625
  9
$DIMDLI
 40
0.38
  9
$DIMRND
 40
0.0
  9
$DIMDLE
 40
0.0
  9
$DIMEXE
 40
1.5
  9
$DIMTP
 40
0.0
  9
$DIMTM
 40
0.0
  9
$DIMTXT
 40
3.0
  9
$DIMCEN
 40
0.09
  9
$DIMTSZ
 40
0.0
  9
$DIMTOL
 70
     0
  9
$DIMLIM
 70
     0
  9
$DIMTIH
 70
     1
  9
$DIMTOH
 70
     1
  9
$DIMSE1
 70
     0
  9
$DIMSE2
 70
     0
  9
$DIMTAD
 70
     1
  9
$DIMZIN
 70
     0
  9
$DIMBLK
  1

  9
$DIMASO
 70
     1
  9
$DIMSHO
 70
     1
  9
$DIMPOST
  1

  9
$DIMAPOST
  1

  9
$DIMALT
 70
     0
  9
$DIMALTD
 70
     2
  9
$DIMALTF
 40
25.4
  9
$DIMLFAC
 40
1.0
  9
$DIMTOFL
 70
     0
  9
$DIMTVP
 40
0.0
  9
$DIMTIX
 70
     0
  9
$DIMSOXD
 70
     0
  9
$DIMSAH
 70
     0
  9
$DIMBLK1
  1

  9
$DIMBLK2
  1

  9
$DIMSTYLE
  2
STANDARD
  9
$DIMCLRD
 70
     0
  9
$DIMCLRE
 70
     0
  9
$DIMCLRT
 70
     0
  9
$DIMTFAC
 40
1.0
  9
$DIMGAP
 40
1.5
  9
$DIMJUST
 70
     0
  9
$DIMSD1
 70
     0
  9
$DIMSD2
 70
     0
  9
$DIMTOLJ
 70
     1
  9
$DIMTZIN
 70
     0
  9
$DIMALTZ
 70
     0
  9
$DIMALTTZ
 70
     0
  9
$DIMFIT
 70
     3
  9
$DIMUPT
 70
     0
  9
$DIMUNIT
 70
     2
  9
$DIMDEC
 70
     2
  9
$DIMTDEC
 70
     4
  9
$DIMALTU
 70
     2
  9
$DIMALTTD
 70
     2
  9
$DIMTXSTY
  7
ＭＳ_ゴシック
  9
$DIMAUNIT
 70
     0
  9
$LUNITS
 70
     2
  9
$LUPREC
 70
     4
  9
$SKETCHINC
 40
0.1
  9
$FILLETRAD
 40
0.5
  9
$AUNITS
 70
     0
  9
$AUPREC
 70
     0
  9
$MENU
  1
.
  9
$ELEVATION
 40
0.0
  9
$PELEVATION
 40
0.0
  9
$THICKNESS
 40
0.0
  9
$LIMCHECK
 70
     0
  9
$CHAMFERA
 40
0.0
  9
$CHAMFERB
 40
0.0
  9
$CHAMFERC
 40
0.0
  9
$CHAMFERD
 40
0.0
  9
$SKPOLY
 70
     0
  9
$TDCREATE
 40
2460335.709737199
  9
$TDUPDATE
 40
2460335.709737442
  9
$TDINDWG
 40
0.0000000116
  9
$TDUSRTIMER
 40
0.0000000116
  9
$USRTIMER
 70
     1
  9
$ANGBASE
 50
0.0
  9
$ANGDIR
 70
     0
  9
$PDMODE
 70
     0
  9
$PDSIZE
 40
0.0
  9
$PLINEWID
 40
0.0
  9
$COORDS
 70
     1
  9
$SPLFRAME
 70
     0
  9
$SPLINETYPE
 70
     6
  9
$SPLINESEGS
 70
     8
  9
$ATTDIA
 70
     0
  9
$ATTREQ
 70
     1
  9
$HANDLING
 70
     1
  9
$HANDSEED
  5
260
  9
$SURFTAB1
 70
     6
  9
$SURFTAB2
 70
     6
  9
$SURFTYPE
 70
     6
  9
$SURFU
 70
     6
  9
$SURFV
 70
     6
  9
$UCSNAME
  2

  9
$UCSORG
 10
0.0
 20
0.0
 30
0.0
  9
$UCSXDIR
 10
1.0
 20
0.0
 30
0.0
  9
$UCSYDIR
 10
0.0
 20
1.0
 30
0.0
  9
$PUCSNAME
  2

  9
$PUCSORG
 10
0.0
 20
0.0
 30
0.0
  9
$PUCSXDIR
 10
1.0
 20
0.0
 30
0.0
  9
$PUCSYDIR
 10
0.0
 20
1.0
 30
0.0
  9
$USERI1
 70
     0
  9
$USERI2
 70
     0
  9
$USERI3
 70
     0
  9
$USERI4
 70
     0
  9
$USERI5
 70
     0
  9
$USERR1
 40
0.0
  9
$USERR2
 40
0.0
  9
$USERR3
 40
0.0
  9
$USERR4
 40
0.0
  9
$USERR5
 40
0.0
  9
$WORLDVIEW
 70
     1
  9
$SHADEDGE
 70
     3
  9
$SHADEDIF
 70
    70
  9
$TILEMODE
 70
     1
  9
$MAXACTVP
 70
    64
  9
$PINSBASE
 10
0.0
 20
0.0
 30
0.0
  9
$PLIMCHECK
 70
     0
  9
$PEXTMIN
 10
1.000000000000000E+20
 20
1.000000000000000E+20
 30
1.000000000000000E+20
  9
$PEXTMAX
 10
-1.000000000000000E+20
 20
-1.000000000000000E+20
 30
-1.000000000000000E+20
  9
$PLIMMIN
 10
0.0
 20
0.0
  9
$PLIMMAX
 10
12.0
 20
9.0
  9
$UNITMODE
 70
     0
  9
$VISRETAIN
 70
     1
  9
$PLINEGEN
 70
     0
  9
$PSLTSCALE
 70
     1
  9
$TREEDEPTH
 70
  3020
  9
$PICKSTYLE
 70
     1
  9
$CMLSTYLE
  2
STANDARD
  9
$CMLJUST
 70
     0
  9
$CMLSCALE
 40
1.0
  9
$PROXYGRAPHICS
 70
     1
  9
$MEASUREMENT
 70
     1
  0
ENDSEC
  0
SECTION
  2
CLASSES
  0
CLASS
  1
ACDBDICTIONARYWDFLT
  2
AcDbDictionaryWithDefault
  3
ObjectDBX Classes
 90
        0
280
     0
281
     0
  0
CLASS
  1
VISUALSTYLE
  2
AcDbVisualStyle
  3
ObjectDBX Classes
 90
     4095
280
     0
281
     0
  0
CLASS
  1
MATERIAL
  2
AcDbMaterial
  3
ObjectDBX Classes
 90
     1153
280
     0
281
     0
  0
CLASS
  1
SCALE
  2
AcDbScale
  3
ObjectDBX Classes
 90
     1153
280
     0
281
     0
  0
CLASS
  1
TABLESTYLE
  2
AcDbTableStyle
  3
ObjectDBX Classes
 90
     4095
280
     0
281
     0
  0
CLASS
  1
MLEADERSTYLE
  2
AcDbMLeaderStyle
  3
ACDB_MLEADERSTYLE_CLASS
 90
     4095
280
     0
281
     0
  0
CLASS
  1
SUN
  2
AcDbSun
  3
SCENEOE
 90
     1153
280
     0
281
     0
  0
CLASS
  1
DICTIONARYVAR
  2
AcDbDictionaryVar
  3
ObjectDBX Classes
 90
        0
280
     0
281
     0
  0
CLASS
  1
XRECORD
  2
AcDbXrecord
  3
ObjectDBX Classes
 90
        0
280
     0
281
     0
  0
CLASS
  1
LWPOLYLINE
  2
AcDbPolyline
  3
ObjectDBX Classes
 90
        0
280
     0
281
     1
  0
CLASS
  1
HATCH
  2
AcDbHatch
  3
ObjectDBX Classes
 90
        0
280
     0
281
     1
  0
CLASS
  1
ACDBPLACEHOLDER
  2
AcDbPlaceHolder
  3
ObjectDBX Classes
 90
        0
280
     0
281
     0
  0
CLASS
  1
LAYOUT
  2
AcDbLayout
  3
ObjectDBX Classes
 90
        0
280
     0
281
     0
  0
ENDSEC
  0
SECTION
  2
TABLES
  0
TABLE
  2
VPORT
  5
8
102
{ACAD_XDICTIONARY
360
255
102
}
330
0
100
AcDbSymbolTable
 70
     1
  0
VPORT
  5
29
330
8
100
AcDbSymbolTableRecord
100
AcDbViewportTableRecord
  2
*ACTIVE
 70
     0
 10
0.0
 20
0.0
 11
1.0
 21
1.0
 12
342.3611907285413
 22
169.2453004541183
 13
0.0
 23
0.0
 14
0.5
 24
0.5
 15
0.5
 25
0.5
 16
0.0
 26
0.0
 36
1.0
 17
0.0
 27
0.0
 37
0.0
 40
137.4687876923009
 41
1.6
 42
50.0
 43
0.0
 44
0.0
 50
0.0
 51
0.0
 71
     0
 72
   100
 73
     1
 74
     3
 75
     0
 76
     0
 77
     0
 78
     0
  0
ENDTAB
  0
TABLE
  2
LTYPE
  5
5
330
0
100
AcDbSymbolTable
 70
     2
  0
LTYPE
  5
14
330
5
100
AcDbSymbolTableRecord
100
AcDbLinetypeTableRecord
  2
BYBLOCK
 70
     0
  3

 72
    65
 73
     0
 40
0.0
  0
LTYPE
  5
15
330
5
100
AcDbSymbolTableRecord
100
AcDbLinetypeTableRecord
  2
BYLAYER
 70
     0
  3

 72
    65
 73
     0
 40
0.0
  0
LTYPE
  5
16
330
5
100
AcDbSymbolTableRecord
100
AcDbLinetypeTableRecord
  2
CONTINUOUS
 70
     0
  3
Solid line
 72
    65
 73
     0
 40
0.0
  0
LTYPE
  5
228
330
5
100
AcDbSymbolTableRecord
100
AcDbLinetypeTableRecord
  2
CENTER
 70
     0
  3

 72
    65
 73
     0
 40
0.0
  0
ENDTAB
  0
TABLE
  2
LAYER
  5
2
330
0
100
AcDbSymbolTable
 70
     1
  0
LAYER
  5
10
330
2
100
AcDbSymbolTableRecord
100
AcDbLayerTableRecord
  2
0
 70
     0
 62
     7
  6
CONTINUOUS
  0
ENDTAB
  0
TABLE
  2
STYLE
  5
3
330
0
100
AcDbSymbolTable
 70
     2
  0
STYLE
  5
11
330
3
100
AcDbSymbolTableRecord
100
AcDbTextStyleTableRecord
  2
STANDARD
 70
     0
 40
0.0
 41
1.0
 50
0.0
 71
     0
 42
0.2
  3
txt
  4

  0
STYLE
  5
6E
330
3
100
AcDbSymbolTableRecord
100
AcDbTextStyleTableRecord
  2
ＭＳ_ゴシック
 70
     0
 40
0.0
 41
1.0
 50
0.0
 71
     0
 42
0.2
  3
ＭＳ ゴシック.shx
  4

  0
ENDTAB
  0
TABLE
  2
VIEW
  5
6
330
0
100
AcDbSymbolTable
 70
     0
  0
ENDTAB
  0
TABLE
  2
UCS
  5
7
330
0
100
AcDbSymbolTable
 70
     0
  0
ENDTAB
  0
TABLE
  2
APPID
  5
9
330
0
100
AcDbSymbolTable
 70
     2
  0
APPID
  5
12
330
9
100
AcDbSymbolTableRecord
100
AcDbRegAppTableRecord
  2
ACAD
 70
     0
  0
APPID
  5
25F
330
9
100
AcDbSymbolTableRecord
100
AcDbRegAppTableRecord
  2
ACAD_MLEADERVER
 70
     0
  0
ENDTAB
  0
TABLE
  2
DIMSTYLE
  5
A
330
0
100
AcDbSymbolTable
 70
     1
  0
DIMSTYLE
105
27
330
A
100
AcDbSymbolTableRecord
100
AcDbDimStyleTableRecord
  2
STANDARD
 70
     0
  3

  4

  5

  6

  7

 40
1.0
 41
0.18
 42
0.0625
 43
0.38
 44
0.18
 45
0.0
 46
0.0
 47
0.0
 48
0.0
140
0.18
141
0.09
142
0.0
143
25.4
144
1.0
145
0.0
146
1.0
147
0.09
 71
     0
 72
     0
 73
     1
 74
     1
 75
     0
 76
     0
 77
     0
 78
     0
170
     0
171
     2
172
     0
173
     0
174
     0
175
     0
176
     0
177
     0
178
     0
270
     2
271
     4
272
     4
273
     2
274
     2
340
11
275
     0
280
     0
281
     0
282
     0
283
     1
284
     0
285
     0
286
     0
287
     3
288
     0
  0
ENDTAB
  0
TABLE
  2
BLOCK_RECORD
  5
1
330
0
100
AcDbSymbolTable
 70
     0
  0
BLOCK_RECORD
  5
1F
330
1
100
AcDbSymbolTableRecord
100
AcDbBlockTableRecord
  2
*MODEL_SPACE
  0
BLOCK_RECORD
  5
1B
330
1
100
AcDbSymbolTableRecord
100
AcDbBlockTableRecord
  2
*PAPER_SPACE
  0
ENDTAB
  0
ENDSEC
  0
SECTION
  2
BLOCKS
  0
BLOCK
  5
20
330
1F
100
AcDbEntity
  8
0
100
AcDbBlockBegin
  2
*MODEL_SPACE
 70
     0
 10
0.0
 20
0.0
 30
0.0
  3
*MODEL_SPACE
  1

  0
ENDBLK
  5
21
330
1F
100
AcDbEntity
  8
0
100
AcDbBlockEnd
  0
BLOCK
  5
1C
330
1B
100
AcDbEntity
 67
     1
  8
0
100
AcDbBlockBegin
  2
*PAPER_SPACE
 70
     0
 10
0.0
 20
0.0
 30
0.0
  3
*PAPER_SPACE
  1

  0
ENDBLK
  5
1D
330
1B
100
AcDbEntity
 67
     1
  8
0
100
AcDbBlockEnd
  0
ENDSEC
  0
SECTION
  2
ENTITIES
  0
MTEXT
  5
6F
330
1F
100
AcDbEntity
  8
0
 62
     7
100
AcDbMText
 10
348.0388423392608
 20
107.6018156988769
 30
0.0
 40
8.0
 41
0.0
 71
     1
 72
     1
  1
{\fＭＳ ゴシック;YHE}
  0
LINE
  5
70
330
1F
100
AcDbEntity
  8
0
  6
CONTINUOUS
 62
     7
100
AcDbLine
 10
382.3269143443031
 20
138.4737033550408
 30
0.0
 11
382.3811000821383
 21
139.1649807595925
 31
0.0
  0
LINE
  5
71
330
1F
100
AcDbEntity
  8
0
  6
CONTINUOUS
 62
     7
100
AcDbLine
 10
382.4355612196713
 20
138.9840586219503
 30
0.0
 11
382.5884452921944
 21
138.0432335549174
 31
0.0
  0
LINE
  5
72
330
1F
100
AcDbEntity
  8
0
  6
CONTINUOUS
 62
     7
100
AcDbLine
 10
382.5884452921944
 20
138.0432335549174
 30
0.0
 11
382.6071061430192
 21
137.9030071017488
 31
0.0
  0
LINE
  5
73
330
1F
100
AcDbEntity
  8
0
  6
CONTINUOUS
 62
     7
100
AcDbLine
 10
382.6071059180987
 20
133.7313334868212
 30
0.0
 11
382.6071061430192
 21
137.9030071017488
 31
0.0
  0
LINE
  5
74
330
1F
100
AcDbEntity
  8
0
  6
CONTINUOUS
 62
     7
100
AcDbLine
 10
382.6430003246152
 20
133.0213955225418
 30
0.0
 11
382.6071059180986
 21
133.7313334868212
 31
0.0
  0
LINE
  5
75
330
1F
100
AcDbEntity
  8
0
  6
CONTINUOUS
 62
     7
100
AcDbLine
 10
382.6430003246152
 20
133.0213955225418
 30
0.0
 11
382.3561611581493
 21
135.9469359129611
 31
0.0
  0
LINE
  5
76
330
1F
100
AcDbEntity
  8
0
  6
CONTINUOUS
 62
     7
100
AcDbLine
 10
382.3202904263687
 20
136.6566420032801
 30
0.0
 11
382.3561611581493
 21
135.9469359129611
 31
0.0
  0
LINE
  5
77
330
1F
100
AcDbEntity
  8
0
  6
CONTINUOUS
 62
     7
100
AcDbLine
 10
382.3202904263687
 20
136.6566420032801
 30
0.0
 11
382.3269143443031
 21
138.4737033550408
 31
0.0
  0
LINE
  5
78
330
1F
100
AcDbEntity
  8
0
  6
CONTINUOUS
 62
     7
100
AcDbLine
 10
403.8580511278891
 20
135.9469359129611
 30
0.0
 11
405.535535492715
 21
135.9469359129612
 31
0.0
  0
LINE
  5
79
330
1F
100
AcDbEntity
  8
0
  6
CONTINUOUS
 62
     7
100
AcDbLine
 10
403.8939218596697
 20
136.6566420032801
 30
0.0
 11
403.8580511278891
 21
135.9469359129611
 31
0.0
  0
LINE
  5
7A
330
1F
100
AcDbEntity
  8
0
  6
CONTINUOUS
 62
     7
100
AcDbLine
 10
403.5712119614232
 20
133.0213955225418
 30
0.0
 11
403.8580511278891
 21
135.9469359129611
 31
0.0
  0
LINE
  5
7B
330
1F
100
AcDbEntity
  8
0
  6
CONTINUOUS
 62
     7
100
AcDbLine
 10
403.5712119614232
 20
133.0213955225418
 30
0.0
 11
403.6071063679397
 21
133.7313334868212
 31
0.0
  0
LINE
  5
7C
330
1F
100
AcDbEntity
  8
0
  6
CONTINUOUS
 62
     7
100
AcDbLine
 10
403.6071063679397
 20
133.7313334868212
 30
0.0
 11
403.6071061430192
 21
137.9030071017486
 31
0.0
  0
LINE
  5
7D
330
1F
100
AcDbEntity
  8
0
  6
CONTINUOUS
 62
     7
100
AcDbLine
 10
403.625766993844
 20
138.0432335549174
 30
0.0
 11
403.6071061430192
 21
137.9030071017486
 31
0.0
  0
LINE
  5
7E
330
1F
100
AcDbEntity
  8
0
  6
CONTINUOUS
 62
     7
100
AcDbLine
 10
403.778651066367
 20
138.9840586219503
 30
0.0
 11
403.625766993844
 21
138.0432335549174
 31
0.0
  0
LINE
  5
7F
330
1F
100
AcDbEntity
  8
0
  6
CONTINUOUS
 62
     7
100
AcDbLine
 10
403.8872979417353
 20
138.4737033550408
 30
0.0
 11
403.8331122039
 21
139.1649807595925
 31
0.0
  0
LINE
  5
80
330
1F
100
AcDbEntity
  8
0
  6
CONTINUOUS
 62
     7
100
AcDbLine
 10
403.8939218596697
 20
136.6566420032801
 30
0.0
 11
403.8872979417353
 21
138.4737033550408
 31
0.0
  0
LINE
  5
81
330
1F
100
AcDbEntity
  8
0
  6
CONTINUOUS
 62
     7
100
AcDbLine
 10
382.3561611581493
 20
135.9469359129611
 30
0.0
 11
380.6786767933234
 21
135.9469359129612
 31
0.0
  0
LINE
  5
82
330
1F
100
AcDbEntity
  8
0
  6
CONTINUOUS
 62
     7
100
AcDbLine
 10
405.5499553691553
 20
138.9840586219503
 30
0.0
 11
405.5768192581731
 21
138.0432335549174
 31
0.0
  0
LINE
  5
83
330
1F
100
AcDbEntity
  8
0
  6
CONTINUOUS
 62
     7
100
AcDbLine
 10
405.5768192581731
 20
138.0432335549174
 30
0.0
 11
405.5838396075787
 21
137.6959371995835
 31
0.0
  0
LINE
  5
84
330
1F
100
AcDbEntity
  8
0
  6
CONTINUOUS
 62
     7
100
AcDbLine
 10
405.5838396075787
 20
137.6959371995835
 30
0.0
 11
405.6071061430192
 21
136.2571384927892
 31
0.0
  0
LINE
  5
85
330
1F
100
AcDbEntity
  8
0
  6
CONTINUOUS
 62
     7
100
AcDbLine
 10
405.6071061430192
 20
136.2571384927892
 30
0.0
 11
405.6071059877893
 21
132.2220418456742
 31
0.0
  0
LINE
  5
86
330
1F
100
AcDbEntity
  8
0
  6
CONTINUOUS
 62
     7
100
AcDbLine
 10
405.6071059877893
 20
132.2220418456742
 30
0.0
 11
405.6040167286807
 21
131.9666274597731
 31
0.0
  0
LINE
  5
87
330
1F
100
AcDbEntity
  8
0
  6
CONTINUOUS
 62
     7
100
AcDbLine
 10
398.4044111945587
 20
132.2846290997098
 30
0.0
 11
398.4525382280252
 21
133.0213955225418
 31
0.0
  0
LINE
  5
88
330
1F
100
AcDbEntity
  8
0
  6
CONTINUOUS
 62
     7
100
AcDbLine
 10
398.4525382280252
 20
133.0213955225418
 30
0.0
 11
403.5712119614232
 21
133.0213955225418
 31
0.0
  0
LINE
  5
89
330
1F
100
AcDbEntity
  8
0
  6
CONTINUOUS
 62
     7
100
AcDbLine
 10
387.7616740580132
 20
133.0213955225418
 30
0.0
 11
382.6430003246152
 21
133.0213955225418
 31
0.0
  0
LINE
  5
8A
330
1F
100
AcDbEntity
  8
0
  6
CONTINUOUS
 62
     7
100
AcDbLine
 10
387.8098010914796
 20
132.2846290997098
 30
0.0
 11
387.7616740580132
 21
133.0213955225418
 31
0.0
  0
LINE
  5
8B
330
1F
100
AcDbEntity
  8
0
  6
CONTINUOUS
 62
     7
100
AcDbLine
 10
380.6071062982491
 20
132.2220418456742
 30
0.0
 11
380.6095944732897
 21
131.9696340768189
 31
0.0
  0
LINE
  5
8C
330
1F
100
AcDbEntity
  8
0
  6
CONTINUOUS
 62
     7
100
AcDbLine
 10
380.6095944732897
 20
131.9696340768189
 30
0.0
 11
380.6101955573577
 21
131.9666274597731
 31
0.0
  0
LINE
  5
8D
330
1F
100
AcDbEntity
  8
0
  6
CONTINUOUS
 62
     7
100
AcDbLine
 10
380.6071061430192
 20
136.2571384927892
 30
0.0
 11
380.6071062982491
 21
132.2220418456742
 31
0.0
  0
LINE
  5
8E
330
1F
100
AcDbEntity
  8
0
  6
CONTINUOUS
 62
     7
100
AcDbLine
 10
380.6303726784597
 20
137.6959371995835
 30
0.0
 11
380.6071061430192
 21
136.2571384927892
 31
0.0
  0
LINE
  5
8F
330
1F
100
AcDbEntity
  8
0
  6
CONTINUOUS
 62
     7
100
AcDbLine
 10
380.6373930278652
 20
138.0432335549174
 30
0.0
 11
380.6352019163605
 21
137.9530890508283
 31
0.0
  0
LINE
  5
90
330
1F
100
AcDbEntity
  8
0
  6
CONTINUOUS
 62
     7
100
AcDbLine
 10
380.6352019163604
 20
137.9530890508283
 30
0.0
 11
380.6344693985952
 21
137.9189445613891
 31
0.0
  0
LINE
  5
91
330
1F
100
AcDbEntity
  8
0
  6
CONTINUOUS
 62
     7
100
AcDbLine
 10
380.6344693985952
 20
137.9189445613891
 30
0.0
 11
380.6337112841038
 21
137.8816655602354
 31
0.0
  0
LINE
  5
92
330
1F
100
AcDbEntity
  8
0
  6
CONTINUOUS
 62
     7
100
AcDbLine
 10
380.6337112841038
 20
137.8816655602354
 30
0.0
 11
380.6303726784597
 21
137.6959371995835
 31
0.0
  0
LINE
  5
93
330
1F
100
AcDbEntity
  8
0
  6
CONTINUOUS
 62
     7
100
AcDbLine
 10
380.6642569168831
 20
138.9840586219503
 30
0.0
 11
380.6373930278652
 21
138.0432335549174
 31
0.0
  0
LINE
  5
94
330
1F
100
AcDbEntity
  8
0
  6
CONTINUOUS
 62
     7
100
AcDbLine
 10
382.3841543986704
 20
139.1642293000068
 30
0.0
 11
382.4355612196713
 21
138.9840586219503
 31
0.0
  0
LINE
  5
95
330
1F
100
AcDbEntity
  8
0
  6
CONTINUOUS
 62
     7
100
AcDbLine
 10
380.6739839809264
 20
139.1649807595877
 30
0.0
 11
380.6721119508434
 21
139.1567622445673
 31
0.0
  0
LINE
  5
96
330
1F
100
AcDbEntity
  8
0
  6
CONTINUOUS
 62
     7
100
AcDbLine
 10
380.6721119508435
 20
139.1567622445673
 30
0.0
 11
380.6642569168831
 21
138.9840586219503
 31
0.0
  0
LINE
  5
97
330
1F
100
AcDbEntity
  8
0
  6
CONTINUOUS
 62
     7
100
AcDbLine
 10
403.8300578873679
 20
139.1642293000068
 30
0.0
 11
403.8018098505881
 21
139.0984566124679
 31
0.0
  0
LINE
  5
98
330
1F
100
AcDbEntity
  8
0
  6
CONTINUOUS
 62
     7
100
AcDbLine
 10
403.801809850588
 20
139.0984566124679
 30
0.0
 11
403.778651066367
 21
138.9840586219503
 31
0.0
  0
LINE
  5
99
330
1F
100
AcDbEntity
  8
0
  6
CONTINUOUS
 62
     7
100
AcDbLine
 10
405.540228305112
 20
139.1649807595877
 30
0.0
 11
405.5499553691553
 21
138.9840586219503
 31
0.0
  0
LINE
  5
9A
330
1F
100
AcDbEntity
  8
0
  6
CONTINUOUS
 62
     7
100
AcDbLine
 10
387.7377884303403
 20
133.7313334868212
 30
0.0
 11
387.7616740580132
 21
133.0213955225418
 31
0.0
  0
ARC
  5
9B
330
1F
100
AcDbEntity
  8
0
  6
CONTINUOUS
 62
     7
100
AcDbCircle
 10
573.1849349115403
 20
136.2203931899452
 30
0.0
 40
185.4638497287959
100
AcDbArc
 50
177.0097182131676
 51
180.7689741026852
  0
LINE
  5
9C
330
1F
100
AcDbEntity
  8
0
  6
CONTINUOUS
 62
     7
100
AcDbLine
 10
387.9736132532566
 20
145.8954066688579
 30
0.0
 11
387.9698751921504
 21
147.1505147832767
 31
0.0
  0
LINE
  5
9D
330
1F
100
AcDbEntity
  8
0
  6
CONTINUOUS
 62
     7
100
AcDbLine
 10
387.9698751921505
 20
147.1505147832767
 30
0.0
 11
387.532742140643
 21
165.0430136724593
 31
0.0
  0
LINE
  5
9E
330
1F
100
AcDbEntity
  8
0
  6
CONTINUOUS
 62
     7
100
AcDbLine
 10
387.5327421406429
 20
165.0430136724593
 30
0.0
 11
387.5262006120062
 21
166.1197777945577
 31
0.0
  0
LINE
  5
9F
330
1F
100
AcDbEntity
  8
0
  6
CONTINUOUS
 62
     7
100
AcDbLine
 10
387.5262006120063
 20
166.1197777945577
 30
0.0
 11
387.5312880770551
 21
166.2662244039707
 31
0.0
  0
LINE
  5
A0
330
1F
100
AcDbEntity
  8
0
  6
CONTINUOUS
 62
     7
100
AcDbLine
 10
387.8098010914796
 20
132.2846290997098
 30
0.0
 11
387.8447376160348
 21
131.9666274597724
 31
0.0
  0
LINE
  5
A1
330
1F
100
AcDbEntity
  8
0
  6
CONTINUOUS
 62
     7
100
AcDbLine
 10
398.476423855698
 20
133.7313334868212
 30
0.0
 11
398.4525382280252
 21
133.0213955225418
 31
0.0
  0
LINE
  5
A2
330
1F
100
AcDbEntity
  8
0
  6
CONTINUOUS
 62
     7
100
AcDbLine
 10
398.4044111945587
 20
132.2846290997098
 30
0.0
 11
398.3694746700036
 21
131.9666274597724
 31
0.0
  0
LINE
  5
A3
330
1F
100
AcDbEntity
  8
0
  6
CONTINUOUS
 62
     7
100
AcDbLine
 10
398.6880116740321
 20
166.1197777945577
 30
0.0
 11
398.6829242089832
 21
166.2662244039707
 31
0.0
  0
LINE
  5
A4
330
1F
100
AcDbEntity
  8
0
  6
CONTINUOUS
 62
     7
100
AcDbLine
 10
398.6814701453955
 20
165.0430136724593
 30
0.0
 11
398.6880116740322
 21
166.1197777945577
 31
0.0
  0
LINE
  5
A5
330
1F
100
AcDbEntity
  8
0
  6
CONTINUOUS
 62
     7
100
AcDbLine
 10
398.2443370938879
 20
147.1505147832767
 30
0.0
 11
398.6814701453954
 21
165.0430136724593
 31
0.0
  0
LINE
  5
A6
330
1F
100
AcDbEntity
  8
0
  6
CONTINUOUS
 62
     7
100
AcDbLine
 10
398.2405990327817
 20
145.8954066688579
 30
0.0
 11
398.244337093888
 21
147.1505147832767
 31
0.0
  0
ARC
  5
A7
330
1F
100
AcDbEntity
  8
0
  6
CONTINUOUS
 62
     7
100
AcDbCircle
 10
213.029277374498
 20
136.2203931899452
 30
0.0
 40
185.4638497287959
100
AcDbArc
 50
359.2310258973148
 51
2.990281786832611
  0
LINE
  5
A8
330
1F
100
AcDbEntity
  8
0
  6
CONTINUOUS
 62
   253
100
AcDbLine
 10
382.697295482999
 20
145.8954066688579
 30
0.0
 11
387.9736132532567
 21
145.8954066688579
 31
0.0
  0
LINE
  5
A9
330
1F
100
AcDbEntity
  8
0
  6
CONTINUOUS
 62
   253
100
AcDbLine
 10
403.5169168030394
 20
145.8954066688579
 30
0.0
 11
398.2405990327817
 21
145.8954066688579
 31
0.0
  0
LINE
  5
AA
330
1F
100
AcDbEntity
  8
0
  6
CONTINUOUS
 62
     7
100
AcDbLine
 10
405.6040167286807
 20
131.9666274597731
 30
0.0
 11
405.5952902621755
 21
132.2846290997099
 31
0.0
  0
LINE
  5
AB
330
1F
100
AcDbEntity
  8
0
  6
CONTINUOUS
 62
     7
100
AcDbLine
 10
382.6071061430192
 20
143.3107671203289
 30
0.0
 11
382.6071321544163
 21
138.1490820234971
 31
0.0
  0
LINE
  5
AC
330
1F
100
AcDbEntity
  8
0
  6
CONTINUOUS
 62
     7
100
AcDbLine
 10
382.6071321544163
 20
138.1490820234971
 30
0.0
 11
382.6071301339269
 21
138.0524054229453
 31
0.0
  0
LINE
  5
AD
330
1F
100
AcDbEntity
  8
0
  6
CONTINUOUS
 62
     7
100
AcDbLine
 10
382.6071301339269
 20
138.0524054229453
 30
0.0
 11
382.6071272422563
 21
137.9124249669524
 31
0.0
  0
LINE
  5
AE
330
1F
100
AcDbEntity
  8
0
  6
CONTINUOUS
 62
     7
100
AcDbLine
 10
398.3571061430192
 20
133.5405601222437
 30
0.0
 11
387.8571061430192
 21
133.5405601222437
 31
0.0
  0
LINE
  5
AF
330
1F
100
AcDbEntity
  8
0
  6
CONTINUOUS
 62
     7
100
AcDbLine
 10
403.6071061430192
 20
143.3107671203289
 30
0.0
 11
403.6070801316221
 21
138.1490820234971
 31
0.0
  0
LINE
  5
B0
330
1F
100
AcDbEntity
  8
0
  6
CONTINUOUS
 62
     7
100
AcDbLine
 10
403.6070801316221
 20
138.1490820234971
 30
0.0
 11
403.6070824385134
 21
138.0386432847356
 31
0.0
  0
LINE
  5
B1
330
1F
100
AcDbEntity
  8
0
  6
CONTINUOUS
 62
     7
100
AcDbLine
 10
403.6070824385135
 20
138.0386432847356
 30
0.0
 11
403.6070850437821
 21
137.9124249669524
 31
0.0
  0
LINE
  5
B2
330
1F
100
AcDbEntity
  8
0
  6
CONTINUOUS
 62
     7
100
AcDbLine
 10
387.7761174927927
 20
135.8756406421305
 30
0.0
 11
398.4380947932457
 21
135.8756406421305
 31
0.0
  0
LINE
  5
B3
330
1F
100
AcDbEntity
  8
0
  6
CONTINUOUS
 62
   253
100
AcDbLine
 10
398.2201303993054
 20
145.4106195685904
 30
0.0
 11
387.9940818867328
 21
145.4106195685904
 31
0.0
  0
LINE
  5
B4
330
1F
100
AcDbEntity
  8
0
  6
CONTINUOUS
 62
     7
100
AcDbLine
 10
373.1315720011805
 20
160.7962708017228
 30
0.0
 11
373.1071061430192
 21
157.9927611407652
 31
0.0
  0
LINE
  5
B5
330
1F
100
AcDbEntity
  8
0
  6
CONTINUOUS
 62
     7
100
AcDbLine
 10
381.117403765339
 20
160.7962708017228
 30
0.0
 11
373.1315720011805
 21
160.7962708017228
 31
0.0
  0
LINE
  5
B6
330
1F
100
AcDbEntity
  8
0
  6
CONTINUOUS
 62
     7
100
AcDbLine
 10
382.320881487095
 20
160.9927611407652
 30
0.0
 11
381.1071061430192
 21
160.9927611407652
 31
0.0
  0
LINE
  5
B7
330
1F
100
AcDbEntity
  8
0
  6
CONTINUOUS
 62
     7
100
AcDbLine
 10
382.2528309371541
 20
165.0430136724593
 30
0.0
 11
382.2594613469879
 21
164.6486566363845
 31
0.0
  0
LINE
  5
B8
330
1F
100
AcDbEntity
  8
0
  6
CONTINUOUS
 62
   253
100
AcDbLine
 10
382.7282094244447
 20
147.1505147832767
 30
0.0
 11
387.9698751921505
 21
147.1505147832767
 31
0.0
  0
LINE
  5
B9
330
1F
100
AcDbEntity
  8
0
  6
CONTINUOUS
 62
     7
100
AcDbLine
 10
382.4195160657031
 20
154.9927611407652
 30
0.0
 11
382.6071061430192
 21
143.3107671203289
 31
0.0
  0
LINE
  5
BA
330
1F
100
AcDbEntity
  8
0
  6
CONTINUOUS
 62
     7
100
AcDbLine
 10
382.4195160657031
 20
154.9927611407652
 30
0.0
 11
376.5213197053923
 21
154.9927611407652
 31
0.0
  0
ARC
  5
BB
330
1F
100
AcDbEntity
  8
0
  6
CONTINUOUS
 62
     7
100
AcDbCircle
 10
376.5213197053923
 20
155.9927611407652
 30
0.0
 40
1.0
100
AcDbArc
 50
225.0
 51
270.0
  0
LINE
  5
BC
330
1F
100
AcDbEntity
  8
0
  6
CONTINUOUS
 62
     7
100
AcDbLine
 10
373.1071061430192
 20
157.9927611407652
 30
0.0
 11
375.8142129242058
 21
155.2856543595786
 31
0.0
  0
ARC
  5
BD
330
1F
100
AcDbEntity
  8
0
  6
CONTINUOUS
 62
     7
100
AcDbCircle
 10
409.6928925806461
 20
155.9927611407652
 30
0.0
 40
1.0
100
AcDbArc
 50
270.0
 51
315.0
  0
LINE
  5
BE
330
1F
100
AcDbEntity
  8
0
  6
CONTINUOUS
 62
     7
100
AcDbLine
 10
403.7946962203353
 20
154.9927611407652
 30
0.0
 11
409.6928925806461
 21
154.9927611407652
 31
0.0
  0
LINE
  5
BF
330
1F
100
AcDbEntity
  8
0
  6
CONTINUOUS
 62
     7
100
AcDbLine
 10
403.7946962203353
 20
154.9927611407652
 30
0.0
 11
403.6071061430192
 21
143.3107671203289
 31
0.0
  0
LINE
  5
C0
330
1F
100
AcDbEntity
  8
0
  6
CONTINUOUS
 62
   253
100
AcDbLine
 10
403.4860028615936
 20
147.1505147832767
 30
0.0
 11
398.2443370938879
 21
147.1505147832767
 31
0.0
  0
LINE
  5
C1
330
1F
100
AcDbEntity
  8
0
  6
CONTINUOUS
 62
     7
100
AcDbLine
 10
403.9613813488842
 20
165.0430136724593
 30
0.0
 11
403.9547509390507
 21
164.6486566363943
 31
0.0
  0
LINE
  5
C2
330
1F
100
AcDbEntity
  8
0
  6
CONTINUOUS
 62
     7
100
AcDbLine
 10
403.8933307989337
 20
160.9927611407652
 30
0.0
 11
405.1071061430192
 21
160.9927611407652
 31
0.0
  0
LINE
  5
C3
330
1F
100
AcDbEntity
  8
0
  6
CONTINUOUS
 62
     7
100
AcDbLine
 10
405.0968085206994
 20
160.7962708017228
 30
0.0
 11
413.0826402848579
 21
160.7962708017228
 31
0.0
  0
LINE
  5
C4
330
1F
100
AcDbEntity
  8
0
  6
CONTINUOUS
 62
     7
100
AcDbLine
 10
413.0826402848579
 20
160.7962708017228
 30
0.0
 11
413.1071061430192
 21
157.9927611407652
 31
0.0
  0
LINE
  5
C5
330
1F
100
AcDbEntity
  8
0
  6
CONTINUOUS
 62
     7
100
AcDbLine
 10
413.1071061430192
 20
157.9927611407652
 30
0.0
 11
410.3999993618326
 21
155.2856543595786
 31
0.0
  0
LINE
  5
C6
330
1F
100
AcDbEntity
  8
0
  6
CONTINUOUS
 62
     7
100
AcDbLine
 10
403.9785093455305
 20
166.1197777945575
 30
0.0
 11
403.9613813488842
 21
165.0430136724593
 31
0.0
  0
LINE
  5
C7
330
1F
100
AcDbEntity
  8
0
  6
CONTINUOUS
 62
     7
100
AcDbLine
 10
403.9547509390507
 20
164.6486566363943
 30
0.0
 11
403.892164499852
 21
161.0566221950631
 31
0.0
  0
LINE
  5
C8
330
1F
100
AcDbEntity
  8
0
  6
CONTINUOUS
 62
     7
100
AcDbLine
 10
382.2357029405078
 20
166.1197777945575
 30
0.0
 11
382.2528309371541
 21
165.0430136724593
 31
0.0
  0
LINE
  5
C9
330
1F
100
AcDbEntity
  8
0
  6
CONTINUOUS
 62
     7
100
AcDbLine
 10
382.2594613469878
 20
164.6486566363845
 30
0.0
 11
382.3220477866384
 21
161.0566221691166
 31
0.0
  0
LINE
  5
CA
330
1F
100
AcDbEntity
  8
0
  6
CONTINUOUS
 62
   253
100
AcDbLine
 10
398.2248029756882
 20
146.9795047116139
 30
0.0
 11
387.9894093103501
 21
146.9795047116139
 31
0.0
  0
LINE
  5
CB
330
1F
100
AcDbEntity
  8
0
  6
CONTINUOUS
 62
     7
100
AcDbLine
 10
380.5306205709057
 20
171.9927611407652
 30
0.0
 11
381.117403765339
 21
160.7962708017228
 31
0.0
  0
LINE
  5
CC
330
1F
100
AcDbEntity
  8
0
  6
CONTINUOUS
 62
     7
100
AcDbLine
 10
373.2292822920899
 20
171.9927611407652
 30
0.0
 11
373.1315720011805
 21
160.7962708017228
 31
0.0
  0
LINE
  5
CD
330
1F
100
AcDbEntity
  8
0
  6
CONTINUOUS
 62
     7
100
AcDbLine
 10
405.6835917151326
 20
171.9927611407652
 30
0.0
 11
405.0968085206994
 21
160.7962708017228
 31
0.0
  0
LINE
  5
CE
330
1F
100
AcDbEntity
  8
0
  6
CONTINUOUS
 62
     7
100
AcDbLine
 10
412.9849299939485
 20
171.9927611407652
 30
0.0
 11
413.0826402848579
 21
160.7962708017228
 31
0.0
  0
LINE
  5
CF
330
1F
100
AcDbEntity
  8
0
  6
CONTINUOUS
 62
     7
100
AcDbLine
 10
380.2380698919285
 20
177.5749606344179
 30
0.0
 11
380.5306205709057
 21
171.9927611407652
 31
0.0
  0
LINE
  5
D0
330
1F
100
AcDbEntity
  8
0
  6
CONTINUOUS
 62
     7
100
AcDbLine
 10
373.2292822920899
 20
171.9927611407652
 30
0.0
 11
373.2779974090526
 21
177.5749606344179
 31
0.0
  0
LINE
  5
D1
330
1F
100
AcDbEntity
  8
0
  6
CONTINUOUS
 62
     7
100
AcDbLine
 10
405.9761423941099
 20
177.5749606344179
 30
0.0
 11
405.6835917151326
 21
171.9927611407652
 31
0.0
  0
LINE
  5
D2
330
1F
100
AcDbEntity
  8
0
  6
CONTINUOUS
 62
     7
100
AcDbLine
 10
412.9849299939485
 20
171.9927611407652
 30
0.0
 11
412.9362148769858
 21
177.5749606344179
 31
0.0
  0
LINE
  5
D3
330
1F
100
AcDbEntity
  8
0
  6
CONTINUOUS
 62
     7
100
AcDbLine
 10
373.2816434988343
 20
177.9927611407652
 30
0.0
 11
380.2161738952074
 21
177.9927611407652
 31
0.0
  0
LINE
  5
D4
330
1F
100
AcDbEntity
  8
0
  6
CONTINUOUS
 62
     7
100
AcDbLine
 10
380.2161738952074
 20
177.9927611407652
 30
0.0
 11
380.2380698919284
 21
177.5749606344179
 31
0.0
  0
LINE
  5
D5
330
1F
100
AcDbEntity
  8
0
  6
CONTINUOUS
 62
     7
100
AcDbLine
 10
373.2779974090525
 20
177.5749606344179
 30
0.0
 11
373.2816434988343
 21
177.9927611407652
 31
0.0
  0
LINE
  5
D6
330
1F
100
AcDbEntity
  8
0
  6
CONTINUOUS
 62
     7
100
AcDbLine
 10
412.932568787204
 20
177.9927611407652
 30
0.0
 11
405.9980383908309
 21
177.9927611407652
 31
0.0
  0
LINE
  5
D7
330
1F
100
AcDbEntity
  8
0
  6
CONTINUOUS
 62
     7
100
AcDbLine
 10
405.9980383908309
 20
177.9927611407652
 30
0.0
 11
405.97614239411
 21
177.5749606344179
 31
0.0
  0
LINE
  5
D8
330
1F
100
AcDbEntity
  8
0
  6
CONTINUOUS
 62
     7
100
AcDbLine
 10
412.9362148769858
 20
177.5749606344179
 30
0.0
 11
412.932568787204
 21
177.9927611407652
 31
0.0
  0
LINE
  5
D9
330
1F
100
AcDbEntity
  8
0
  6
CONTINUOUS
 62
     7
100
AcDbLine
 10
382.2336050187203
 20
166.2662244039644
 30
0.0
 11
382.2343866037119
 21
166.2037453176067
 31
0.0
  0
LINE
  5
DA
330
1F
100
AcDbEntity
  8
0
  6
CONTINUOUS
 62
     7
100
AcDbLine
 10
382.234386603712
 20
166.2037453176067
 30
0.0
 11
382.2357029405076
 21
166.1197777945821
 31
0.0
  0
LINE
  5
DB
330
1F
100
AcDbEntity
  8
0
  6
CONTINUOUS
 62
     7
100
AcDbLine
 10
403.9806072669377
 20
166.2662244039709
 30
0.0
 11
403.9798068865616
 21
166.202499231951
 31
0.0
  0
LINE
  5
DC
330
1F
100
AcDbEntity
  8
0
  6
CONTINUOUS
 62
     7
100
AcDbLine
 10
403.9798068865615
 20
166.202499231951
 30
0.0
 11
403.9785093455305
 21
166.1197777945576
 31
0.0
  0
LINE
  5
DD
330
1F
100
AcDbEntity
  8
0
  6
CONTINUOUS
 62
     7
100
AcDbLine
 10
398.6829242089832
 20
166.2662244039707
 30
0.0
 11
398.6803744226286
 21
166.2597077744289
 31
0.0
  0
LINE
  5
DE
330
1F
100
AcDbEntity
  8
0
  6
CONTINUOUS
 62
     7
100
AcDbLine
 10
382.3811294605027
 20
139.1649807595925
 30
0.0
 11
380.6739791993671
 21
139.1649807595925
 31
0.0
  0
LINE
  5
DF
330
1F
100
AcDbEntity
  8
0
  6
CONTINUOUS
 62
     7
100
AcDbLine
 10
405.5402330866713
 20
139.1649807595925
 30
0.0
 11
403.8330828255357
 21
139.1649807595925
 31
0.0
  0
LINE
  5
E0
330
1F
100
AcDbEntity
  8
0
  6
CONTINUOUS
 62
     7
100
AcDbLine
 10
398.3694827218408
 20
131.9666274597724
 30
0.0
 11
405.604014762542
 21
131.9666274597724
 31
0.0
  0
LINE
  5
E1
330
1F
100
AcDbEntity
  8
0
  6
CONTINUOUS
 62
     7
100
AcDbLine
 10
380.6101975234963
 20
131.9666274597724
 30
0.0
 11
387.8447295641976
 21
131.9666274597724
 31
0.0
  0
LINE
  5
E2
330
1F
100
AcDbEntity
  8
0
  6
CONTINUOUS
 62
     7
100
AcDbLine
 10
387.5312914265401
 20
166.2662244039644
 30
0.0
 11
382.2054316138194
 21
166.2662244039644
 31
0.0
  0
LINE
  5
E3
330
1F
100
AcDbEntity
  8
0
  6
CONTINUOUS
 62
     7
100
AcDbLine
 10
404.0088089400127
 20
166.2662244039644
 30
0.0
 11
398.6829208594983
 21
166.2662244039644
 31
0.0
  0
LINE
  5
E4
330
1F
100
AcDbEntity
  8
0
  6
CONTINUOUS
 62
     7
100
AcDbLine
 10
398.660661738082
 20
165.961389724384
 30
0.0
 11
387.5535505479564
 21
165.961389724384
 31
0.0
  0
LINE
  5
E5
330
1F
100
AcDbEntity
  8
0
  6
CONTINUOUS
 62
     7
100
AcDbLine
 10
307.5962003503159
 20
157.9927611407652
 30
0.0
 11
305.289831595552
 21
157.9927611407652
 31
0.0
  0
LINE
  5
E6
330
1F
100
AcDbEntity
  8
0
  6
CONTINUOUS
 62
     7
100
AcDbLine
 10
307.5489476256827
 20
155.2856543595786
 30
0.0
 11
307.5962003503159
 21
157.9927611407652
 31
0.0
  0
LINE
  5
E7
330
1F
100
AcDbEntity
  8
0
  6
CONTINUOUS
 62
     7
100
AcDbLine
 10
305.2898315955521
 20
157.9927611407652
 30
0.0
 11
304.30452530622
 21
155.2856543595786
 31
0.0
  0
LINE
  5
E8
330
1F
100
AcDbEntity
  8
0
  6
CONTINUOUS
 62
     7
100
AcDbLine
 10
318.0151219085931
 20
157.9927611407652
 30
0.0
 11
320.321490663357
 21
157.9927611407652
 31
0.0
  0
LINE
  5
E9
330
1F
100
AcDbEntity
  8
0
  6
CONTINUOUS
 62
     7
100
AcDbLine
 10
318.0623746332263
 20
155.2856543595786
 30
0.0
 11
318.0151219085931
 21
157.9927611407652
 31
0.0
  0
LINE
  5
EA
330
1F
100
AcDbEntity
  8
0
  6
CONTINUOUS
 62
     7
100
AcDbLine
 10
320.3214906633569
 20
157.9927611407652
 30
0.0
 11
321.306796952689
 21
155.2856543595786
 31
0.0
  0
ARC
  5
EB
330
1F
100
AcDbEntity
  8
0
  6
CONTINUOUS
 62
     7
100
AcDbCircle
 10
308.5028854917225
 20
176.9927611407652
 30
0.0
 40
1.0
100
AcDbArc
 50
56.30993247401955
 51
90.0
  0
LINE
  5
EC
330
1F
100
AcDbEntity
  8
0
  6
CONTINUOUS
 62
     7
100
AcDbLine
 10
309.0575856879477
 20
177.824811435103
 30
0.0
 11
311.3896359822856
 21
176.2701112388778
 31
0.0
  0
LINE
  5
ED
330
1F
100
AcDbEntity
  8
0
  6
CONTINUOUS
 62
     7
100
AcDbLine
 10
311.3896359822856
 20
176.2701112388778
 30
0.0
 11
311.8056611294545
 21
175.4927611407652
 31
0.0
  0
LINE
  5
EE
330
1F
100
AcDbEntity
  8
0
  6
CONTINUOUS
 62
     7
100
AcDbLine
 10
311.8056611294545
 20
174.8917406263315
 30
0.0
 11
311.8056611294545
 21
175.4927611407652
 31
0.0
  0
ARC
  5
EF
330
1F
100
AcDbEntity
  8
0
  6
CONTINUOUS
 62
     7
100
AcDbCircle
 10
312.8056611294545
 20
169.9927611407652
 30
0.0
 40
5.000000000000001
100
AcDbArc
 50
101.5369590328155
 51
180.0
  0
LINE
  5
F0
330
1F
100
AcDbEntity
  8
0
  6
CONTINUOUS
 62
     7
100
AcDbLine
 10
306.5056611294546
 20
171.9927611407652
 30
0.0
 11
306.3102256636184
 21
160.7962708017228
 31
0.0
  0
LINE
  5
F1
330
1F
100
AcDbEntity
  8
0
  6
CONTINUOUS
 62
     7
100
AcDbLine
 10
306.5056611294546
 20
171.9927611407652
 30
0.0
 11
307.43602771173
 21
177.5749606344179
 31
0.0
  0
LWPOLYLINE
  5
F2
330
1F
100
AcDbEntity
  8
0
  6
CONTINUOUS
 62
     7
100
AcDbPolyline
 90
       29
 70
     0
 43
0.0
 10
-307.4360277117299
 20
177.5749606344179
 10
-307.4407738827749
 20
177.5996060044572
 10
-307.4467507942978
 20
177.6239821594578
 10
-307.4539433863847
 20
177.6480276792699
 10
-307.4623335359935
 20
177.6716819768394
 10
-307.4719001026183
 20
177.6948854508676
 10
-307.4826189815574
 20
177.7175796359874
 10
-307.4944631646482
 20
177.739707350078
 10
-307.5074028083206
 20
177.7612128383449
 10
-307.5214053087922
 20
177.7820419138046
 10
-307.5364353842201
 20
177.8021420938186
 10
-307.5524551635994
 20
177.821462732333
 10
-307.5694242821866
 20
177.83995514749
 10
-307.5872999832055
 20
177.8575727442911
 10
-307.606037225581
 20
177.8742711320015
 10
-307.6255887974277
 20
177.8900082360008
 10
-307.6459054350098
 20
177.9047444037973
 10
-307.6669359468688
 20
177.9184425049398
 10
-307.6886273428107
 20
177.9310680245748
 10
-307.710924967424
 20
177.9425891504126
 10
-307.7337726377938
 20
177.9529768528841
 10
-307.7571127850651
 20
177.9622049582866
 10
-307.7808865994979
 20
177.9702502147323
 10
-307.8050341786491
 20
177.9770923507366
 10
-307.8294946783074
 20
177.9827141262951
 10
-307.8542064658014
 20
177.9871013763234
 10
-307.8791072752947
 20
177.9902430463482
 10
-307.9041343646752
 20
177.9921312203612
 10
-307.929224673646
 20
177.9927611407652
210
0.0
220
0.0
230
-1.0
  0
LINE
  5
F3
330
1F
100
AcDbEntity
  8
0
  6
CONTINUOUS
 62
     7
100
AcDbLine
 10
308.5028854917225
 20
177.9927611407652
 30
0.0
 11
307.929224673646
 21
177.9927611407652
 31
0.0
  0
LINE
  5
F4
330
1F
100
AcDbEntity
  8
0
  6
CONTINUOUS
 62
     7
100
AcDbLine
 10
307.5962003503159
 20
157.9927611407652
 30
0.0
 11
307.8056611294545
 21
169.9927611407652
 31
0.0
  0
LINE
  5
F5
330
1F
100
AcDbEntity
  8
0
  6
CONTINUOUS
 62
     7
100
AcDbLine
 10
306.3102256636184
 20
160.7962708017228
 30
0.0
 11
305.2898315955521
 21
157.9927611407652
 31
0.0
  0
LWPOLYLINE
  5
F6
330
1F
100
AcDbEntity
  8
0
  6
CONTINUOUS
 62
     7
100
AcDbPolyline
 90
       29
 70
     0
 43
0.0
 10
318.1752945471791
 20
177.5749606344179
 10
318.1705483761341
 20
177.5996060044572
 10
318.1645714646112
 20
177.6239821594578
 10
318.1573788725243
 20
177.6480276792699
 10
318.1489887229155
 20
177.6716819768394
 10
318.1394221562907
 20
177.6948854508676
 10
318.1287032773516
 20
177.7175796359874
 10
318.1168590942608
 20
177.739707350078
 10
318.1039194505884
 20
177.7612128383449
 10
318.0899169501168
 20
177.7820419138046
 10
318.0748868746889
 20
177.8021420938186
 10
318.0588670953096
 20
177.821462732333
 10
318.0418979767225
 20
177.83995514749
 10
318.0240222757035
 20
177.8575727442911
 10
318.0052850333281
 20
177.8742711320015
 10
317.9857334614813
 20
177.8900082360008
 10
317.9654168238993
 20
177.9047444037973
 10
317.9443863120403
 20
177.9184425049398
 10
317.9226949160983
 20
177.9310680245748
 10
317.900397291485
 20
177.9425891504126
 10
317.8775496211152
 20
177.9529768528841
 10
317.854209473844
 20
177.9622049582866
 10
317.8304356594111
 20
177.9702502147323
 10
317.8062880802599
 20
177.9770923507366
 10
317.7818275806017
 20
177.9827141262951
 10
317.7571157931076
 20
177.9871013763234
 10
317.7322149836143
 20
177.9902430463482
 10
317.7071878942338
 20
177.9921312203612
 10
317.682097585263
 20
177.9927611407652
  0
LINE
  5
F7
330
1F
100
AcDbEntity
  8
0
  6
CONTINUOUS
 62
     7
100
AcDbLine
 10
319.1056611294545
 20
171.9927611407652
 30
0.0
 11
318.175294547179
 21
177.5749606344179
 31
0.0
  0
LINE
  5
F8
330
1F
100
AcDbEntity
  8
0
  6
CONTINUOUS
 62
     7
100
AcDbLine
 10
319.1056611294545
 20
171.9927611407652
 30
0.0
 11
319.3010965952906
 21
160.7962708017228
 31
0.0
  0
ARC
  5
F9
330
1F
100
AcDbEntity
  8
0
  6
CONTINUOUS
 62
     7
100
AcDbCircle
 10
312.8056611294545
 20
169.9927611407652
 30
0.0
 40
5.000000000000001
100
AcDbArc
 50
0.0
 51
78.46304096718454
  0
LINE
  5
FA
330
1F
100
AcDbEntity
  8
0
  6
CONTINUOUS
 62
     7
100
AcDbLine
 10
313.8056611294545
 20
174.8917406263315
 30
0.0
 11
313.8056611294545
 21
175.4927611407652
 31
0.0
  0
LINE
  5
FB
330
1F
100
AcDbEntity
  8
0
  6
CONTINUOUS
 62
     7
100
AcDbLine
 10
314.2216862766234
 20
176.2701112388778
 30
0.0
 11
313.8056611294545
 21
175.4927611407652
 31
0.0
  0
LINE
  5
FC
330
1F
100
AcDbEntity
  8
0
  6
CONTINUOUS
 62
     7
100
AcDbLine
 10
316.5537365709613
 20
177.824811435103
 30
0.0
 11
314.2216862766234
 21
176.2701112388778
 31
0.0
  0
ARC
  5
FD
330
1F
100
AcDbEntity
  8
0
  6
CONTINUOUS
 62
     7
100
AcDbCircle
 10
317.1084367671865
 20
176.9927611407652
 30
0.0
 40
1.0
100
AcDbArc
 50
90.0
 51
123.6900675259804
  0
LINE
  5
FE
330
1F
100
AcDbEntity
  8
0
  6
CONTINUOUS
 62
     7
100
AcDbLine
 10
317.1084367671865
 20
177.9927611407652
 30
0.0
 11
317.682097585263
 21
177.9927611407652
 31
0.0
  0
LINE
  5
FF
330
1F
100
AcDbEntity
  8
0
  6
CONTINUOUS
 62
     7
100
AcDbLine
 10
318.0151219085931
 20
157.9927611407652
 30
0.0
 11
317.8056611294545
 21
169.9927611407652
 31
0.0
  0
LINE
  5
100
330
1F
100
AcDbEntity
  8
0
  6
CONTINUOUS
 62
     7
100
AcDbLine
 10
319.3010965952906
 20
160.7962708017228
 30
0.0
 11
320.3214906633569
 21
157.9927611407652
 31
0.0
  0
LINE
  5
101
330
1F
100
AcDbEntity
  8
0
  6
CONTINUOUS
 62
     7
100
AcDbLine
 10
304.1979208927534
 20
154.9927611407652
 30
0.0
 11
307.5438351555312
 21
154.9927611407652
 31
0.0
  0
LINE
  5
102
330
1F
100
AcDbEntity
  8
0
  6
CONTINUOUS
 62
     7
100
AcDbLine
 10
307.5438351555312
 20
154.9927611407652
 30
0.0
 11
307.5489476256826
 21
155.2856543595786
 31
0.0
  0
LINE
  5
103
330
1F
100
AcDbEntity
  8
0
  6
CONTINUOUS
 62
     7
100
AcDbLine
 10
304.30452530622
 20
155.2856543595786
 30
0.0
 11
304.1979208927534
 21
154.9927611407652
 31
0.0
  0
LINE
  5
104
330
1F
100
AcDbEntity
  8
0
  6
CONTINUOUS
 62
     7
100
AcDbLine
 10
321.4134013661556
 20
154.9927611407652
 30
0.0
 11
318.0674871033778
 21
154.9927611407652
 31
0.0
  0
LINE
  5
105
330
1F
100
AcDbEntity
  8
0
  6
CONTINUOUS
 62
     7
100
AcDbLine
 10
318.0674871033778
 20
154.9927611407652
 30
0.0
 11
318.0623746332264
 21
155.2856543595786
 31
0.0
  0
LINE
  5
106
330
1F
100
AcDbEntity
  8
0
  6
CONTINUOUS
 62
     7
100
AcDbLine
 10
321.306796952689
 20
155.2856543595786
 30
0.0
 11
321.4134013661556
 21
154.9927611407652
 31
0.0
  0
LINE
  5
107
330
1F
100
AcDbEntity
  8
0
  6
CONTINUOUS
 62
     7
100
AcDbLine
 10
274.6152753140634
 20
135.9469359129612
 30
0.0
 11
274.6432315491178
 21
136.6566420032801
 31
0.0
  0
LINE
  5
108
330
1F
100
AcDbEntity
  8
0
  6
CONTINUOUS
 62
     7
100
AcDbLine
 10
274.6432315491177
 20
136.6566420032801
 30
0.0
 11
276.7271680323361
 21
138.4737033550408
 31
0.0
  0
ARC
  5
109
330
1F
100
AcDbEntity
  8
0
  6
CONTINUOUS
 62
     7
100
AcDbCircle
 10
278.6432144456237
 20
136.1628237604188
 30
0.0
 40
3.001899125339341
100
AcDbArc
 50
70.02079251636042
 51
129.6635398500641
  0
LINE
  5
10A
330
1F
100
AcDbEntity
  8
0
  6
CONTINUOUS
 62
     7
100
AcDbLine
 10
279.66890066216
 20
138.9840586219503
 30
0.0
 11
282.2537962894898
 21
138.0432335549174
 31
0.0
  0
LINE
  5
10B
330
1F
100
AcDbEntity
  8
0
  6
CONTINUOUS
 62
     7
100
AcDbLine
 10
282.2537962894897
 20
138.0432335549174
 30
0.0
 11
282.8553312222116
 21
137.6959371995835
 31
0.0
  0
LINE
  5
10C
330
1F
100
AcDbEntity
  8
0
  6
CONTINUOUS
 62
     7
100
AcDbLine
 10
282.8553312222116
 20
137.6959371995835
 30
0.0
 11
284.5700247500535
 21
136.2571384927892
 31
0.0
  0
LWPOLYLINE
  5
10D
330
1F
100
AcDbEntity
  8
0
  6
CONTINUOUS
 62
     7
100
AcDbPolyline
 90
       33
 70
     0
 43
0.0
 10
-279.4293123447973
 20
132.2220418456742
 10
-279.3927619946556
 20
132.1908566541761
 10
-279.3546326712816
 20
132.1613958143055
 10
-279.3150654432487
 20
132.1337481940919
 10
-279.2742013791302
 20
132.1080026615651
 10
-279.2321815474995
 20
132.0842480847546
 10
-279.1891470169298
 20
132.0625733316901
 10
-279.1452388559946
 20
132.0430672704011
 10
-279.1004272254926
 20
132.0257376964841
 10
-279.0546964892199
 20
132.0105578878259
 10
-279.0082091643742
 20
131.9975649957327
 10
-278.9611277681529
 20
131.9867961715104
 10
-278.913614817754
 20
131.978288566465
 10
-278.8658328303749
 20
131.9720793319026
 10
-278.8179443232134
 20
131.9682056191292
 10
-278.7699221354824
 20
131.9666846335796
 10
-278.7217442423242
 20
131.9674964953702
 10
-278.6735762830264
 20
131.9706224701133
 10
-278.6255838968764
 20
131.9760438234212
 10
-278.577932723162
 20
131.9837418209059
 10
-278.5307884011708
 20
131.99369772818
 10
-278.4843165701903
 20
132.0058928108555
 10
-278.4384954570309
 20
132.0203529264446
 10
-278.3932995889313
 20
132.0370661667002
 10
-278.348879083196
 20
132.0559600287791
 10
-278.3053840571293
 20
132.0769620098386
 10
-278.2629646280354
 20
132.0999996070359
 10
-278.2217709132188
 20
132.1250003175279
 10
-278.1819530299838
 20
132.1518916384718
 10
-278.1416381275808
 20
132.182151286452
 10
-278.1028499680209
 20
132.2144451111707
 10
-278.0657329988177
 20
132.2486465648495
 10
-278.0304316674849
 20
132.2846290997098
210
0.0
220
0.0
230
-1.0
  0
LINE
  5
10E
330
1F
100
AcDbEntity
  8
0
  6
CONTINUOUS
 62
     7
100
AcDbLine
 10
278.0304316674849
 20
132.2846290997098
 30
0.0
 11
274.6152753140634
 21
135.9469359129612
 31
0.0
  0
ARC
  5
10F
330
1F
100
AcDbEntity
  8
0
  6
CONTINUOUS
 62
     7
100
AcDbCircle
 10
312.8056611294437
 20
94.99276114077767
 30
0.0
 40
49.99999999998349
100
AcDbArc
 50
124.3823449794639
 51
131.8764813422999
  0
LWPOLYLINE
  5
110
330
1F
100
AcDbEntity
  8
0
  6
CONTINUOUS
 62
     7
100
AcDbPolyline
 90
       33
 70
     0
 43
0.0
 10
346.1820099141117
 20
132.2220418456742
 10
346.2185602642534
 20
132.1908566541761
 10
346.2566895876273
 20
132.1613958143055
 10
346.2962568156603
 20
132.1337481940919
 10
346.3371208797788
 20
132.1080026615651
 10
346.3791407114095
 20
132.0842480847546
 10
346.4221752419792
 20
132.0625733316901
 10
346.4660834029145
 20
132.0430672704011
 10
346.5108950334164
 20
132.0257376964841
 10
346.556625769689
 20
132.0105578878259
 10
346.6031130945348
 20
131.9975649957327
 10
346.6501944907561
 20
131.9867961715104
 10
346.697707441155
 20
131.978288566465
 10
346.7454894285341
 20
131.9720793319026
 10
346.7933779356956
 20
131.9682056191292
 10
346.8414001234266
 20
131.9666846335796
 10
346.8895780165848
 20
131.9674964953702
 10
346.9377459758826
 20
131.9706224701133
 10
346.9857383620326
 20
131.9760438234212
 10
347.033389535747
 20
131.9837418209059
 10
347.0805338577382
 20
131.99369772818
 10
347.1270056887187
 20
132.0058928108555
 10
347.1728268018781
 20
132.0203529264446
 10
347.2180226699777
 20
132.0370661667002
 10
347.262443175713
 20
132.0559600287791
 10
347.3059382017797
 20
132.0769620098386
 10
347.3483576308736
 20
132.0999996070359
 10
347.3895513456902
 20
132.1250003175279
 10
347.4293692289252
 20
132.1518916384718
 10
347.4696841313282
 20
132.182151286452
 10
347.5084722908881
 20
132.2144451111707
 10
347.5455892600913
 20
132.2486465648495
 10
347.5808905914241
 20
132.2846290997098
  0
LINE
  5
111
330
1F
100
AcDbEntity
  8
0
  6
CONTINUOUS
 62
     7
100
AcDbLine
 10
342.7559910366975
 20
137.6959371995835
 30
0.0
 11
341.0412975088555
 21
136.2571384927892
 31
0.0
  0
LINE
  5
112
330
1F
100
AcDbEntity
  8
0
  6
CONTINUOUS
 62
     7
100
AcDbLine
 10
343.3575259694193
 20
138.0432335549174
 30
0.0
 11
342.7559910366975
 21
137.6959371995835
 31
0.0
  0
LINE
  5
113
330
1F
100
AcDbEntity
  8
0
  6
CONTINUOUS
 62
     7
100
AcDbLine
 10
345.9424215967491
 20
138.9840586219503
 30
0.0
 11
343.3575259694193
 21
138.0432335549174
 31
0.0
  0
ARC
  5
114
330
1F
100
AcDbEntity
  8
0
  6
CONTINUOUS
 62
     7
100
AcDbCircle
 10
346.9681078132853
 20
136.1628237604188
 30
0.0
 40
3.001899125339341
100
AcDbArc
 50
50.33646014993589
 51
109.9792074836394
  0
LINE
  5
115
330
1F
100
AcDbEntity
  8
0
  6
CONTINUOUS
 62
     7
100
AcDbLine
 10
350.9680907097913
 20
136.6566420032801
 30
0.0
 11
348.884154226573
 21
138.4737033550408
 31
0.0
  0
LINE
  5
116
330
1F
100
AcDbEntity
  8
0
  6
CONTINUOUS
 62
     7
100
AcDbLine
 10
350.9960469448457
 20
135.9469359129612
 30
0.0
 11
350.9680907097912
 21
136.6566420032801
 31
0.0
  0
LINE
  5
117
330
1F
100
AcDbEntity
  8
0
  6
CONTINUOUS
 62
     7
100
AcDbLine
 10
347.5808905914241
 20
132.2846290997098
 30
0.0
 11
350.9960469448457
 21
135.9469359129612
 31
0.0
  0
ARC
  5
118
330
1F
100
AcDbEntity
  8
0
  6
CONTINUOUS
 62
     7
100
AcDbCircle
 10
312.8056611294649
 20
94.99276114077709
 30
0.0
 40
49.99999999998425
100
AcDbArc
 50
48.12351865770017
 51
55.61765502053606
  0
LINE
  5
119
330
1F
100
AcDbEntity
  8
0
  6
CONTINUOUS
 62
     7
100
AcDbLine
 10
308.9326777832472
 20
166.1197777945575
 30
0.0
 11
307.8559136611486
 21
165.0430136724593
 31
0.0
  0
LWPOLYLINE
  5
11A
330
1F
100
AcDbEntity
  8
0
  6
CONTINUOUS
 62
     7
100
AcDbPolyline
 90
       32
 70
     0
 43
0.0
 10
309.6061793516235
 20
166.1504550164009
 10
309.5891779368106
 20
166.1639961549555
 10
309.5715960505579
 20
166.1767922963067
 10
309.5534834796287
 20
166.1888071828975
 10
309.5328739894506
 20
166.2011442667276
 10
309.5116292866574
 20
166.2125003103756
 10
309.4898262760047
 20
166.2228432059312
 10
309.4675418622481
 20
166.232140845484
 10
309.4448529501434
 20
166.2403611211236
 10
309.4218364444463
 20
166.2474719249397
 10
309.3985692499124
 20
166.2534411490219
 10
309.3750369291606
 20
166.2582625110508
 10
309.3512299113626
 20
166.2619477595949
 10
309.3272314139462
 20
166.2644920606851
 10
309.3031246543395
 20
166.2658905803525
 10
309.2789928499705
 20
166.2661384846281
 10
309.2549192182671
 20
166.265230939543
 10
309.2309869766573
 20
166.2631631111282
 10
309.2071832111934
 20
166.259924087788
 10
309.1834963787154
 20
166.255521895387
 10
309.1600066171819
 20
166.2499795352214
 10
309.1367940645511
 20
166.2433200085873
 10
309.1139388587816
 20
166.2355663167809
 10
309.0915211378315
 20
166.2267414610983
 10
309.0696210396595
 20
166.2168684428356
 10
309.0482315784799
 20
166.2059335759149
 10
309.0273375223196
 20
166.193939922137
 10
309.007006855934
 20
166.1809357084779
 10
308.9873075640785
 20
166.1669691619142
 10
308.9683076315085
 20
166.1520885094221
 10
308.9500750429796
 20
166.1363419779778
 10
308.9326777832472
 20
166.1197777945575
  0
ARC
  5
11B
330
1F
100
AcDbEntity
  8
0
  6
CONTINUOUS
 62
     7
100
AcDbCircle
 10
312.8056611294545
 20
169.9932820411859
 30
0.0
 40
5.000400302884866
100
AcDbArc
 50
230.2197278566652
 51
309.7802721433347
  0
LWPOLYLINE
  5
11C
330
1F
100
AcDbEntity
  8
0
  6
CONTINUOUS
 62
     7
100
AcDbPolyline
 90
       32
 70
     0
 43
0.0
 10
-316.0051429072855
 20
166.1504550164009
 10
-316.023974170593
 20
166.1653691983012
 10
-316.0435629892698
 20
166.1793931567389
 10
-316.0638372757754
 20
166.1924850438735
 10
-316.0847249425693
 20
166.2046030118644
 10
-316.1061539021113
 20
166.215705212871
 10
-316.1280520668608
 20
166.2257497990527
 10
-316.1503473492775
 20
166.2346949225691
 10
-316.1730546482049
 20
166.2425361500781
 10
-316.1961821590915
 20
166.2492864710173
 10
-316.2196479825108
 20
166.2549302624345
 10
-316.2433702190363
 20
166.2594519013771
 10
-316.2672669692412
 20
166.2628357648927
 10
-316.2912563336994
 20
166.2650662300287
 10
-316.315256412984
 20
166.2661276738327
 10
-316.3392777871511
 20
166.266011056263
 10
-316.3633344950352
 20
166.2647260798114
 10
-316.3873440993941
 20
166.2622851226776
 10
-316.4112241629857
 20
166.2587005630612
 10
-316.4348922485679
 20
166.2539847791616
 10
-316.4582659188985
 20
166.2481501491787
 10
-316.4812627367353
 20
166.2412090513118
 10
-316.5038908230746
 20
166.2331490433644
 10
-316.526165478694
 20
166.2239749701581
 10
-316.5480130338594
 20
166.2137257987176
 10
-316.5693598188366
 20
166.2024404960675
 10
-316.5901321638913
 20
166.1901580292329
 10
-316.6102563992893
 20
166.1769173652382
 10
-316.6296588552963
 20
166.1627574711084
 10
-316.6466022069216
 20
166.1491469887453
 10
-316.6629461707532
 20
166.1348068892804
 10
-316.6786444756619
 20
166.1197777945575
210
0.0
220
0.0
230
-1.0
  0
LINE
  5
11D
330
1F
100
AcDbEntity
  8
0
  6
CONTINUOUS
 62
     7
100
AcDbLine
 10
316.6786444756619
 20
166.1197777945575
 30
0.0
 11
317.7554085977604
 21
165.0430136724593
 31
0.0
  0
ARC
  5
11E
330
1F
100
AcDbEntity
  8
0
  6
CONTINUOUS
 62
     7
100
AcDbCircle
 10
312.8056611294545
 20
94.99253909590244
 30
0.0
 40
50.00021457533273
100
AcDbArc
 50
75.09650961864543
 51
104.9034903813546
  0
LINE
  5
11F
330
1F
100
AcDbEntity
  8
0
  6
CONTINUOUS
 62
     7
100
AcDbLine
 10
317.7554085977604
 20
165.0430136724593
 30
0.0
 11
317.898942820565
 21
164.6486566363845
 31
0.0
  0
LINE
  5
120
330
1F
100
AcDbEntity
  8
0
  6
CONTINUOUS
 62
     7
100
AcDbLine
 10
321.4134013661556
 20
154.9927611407652
 30
0.0
 11
325.6652994664702
 21
143.3107671203289
 31
0.0
  0
LINE
  5
121
330
1F
100
AcDbEntity
  8
0
  6
CONTINUOUS
 62
     7
100
AcDbLine
 10
304.1979208927534
 20
154.9927611407652
 30
0.0
 11
299.9460227924388
 21
143.3107671203289
 31
0.0
  0
LINE
  5
122
330
1F
100
AcDbEntity
  8
0
  6
CONTINUOUS
 62
     7
100
AcDbLine
 10
307.8559136611486
 20
165.0430136724593
 30
0.0
 11
307.7123794383476
 21
164.6486566363943
 31
0.0
  0
ARC
  5
123
330
1F
100
AcDbEntity
  8
0
  6
CONTINUOUS
 62
     7
100
AcDbCircle
 10
312.8056611294535
 20
94.9927611407669
 30
0.0
 40
52.49999999999804
100
AcDbArc
 50
104.169873403635
 51
125.1807998478445
  0
ARC
  5
124
330
1F
100
AcDbEntity
  8
0
  6
CONTINUOUS
 62
     7
100
AcDbCircle
 10
299.4639131317591
 20
147.8348632063576
 30
0.0
 40
2.000366891756922
100
AcDbArc
 50
284.1754408931688
 51
339.9944325104665
  0
ARC
  5
125
330
1F
100
AcDbEntity
  8
0
  6
CONTINUOUS
 62
     7
100
AcDbCircle
 10
312.8056611294533
 20
94.9927611407685
 30
0.0
 40
49.99999999999648
100
AcDbArc
 50
104.903555822402
 51
124.382344979467
  0
ARC
  5
126
330
1F
100
AcDbEntity
  8
0
  6
CONTINUOUS
 62
     7
100
AcDbCircle
 10
326.1471308516358
 20
147.8345550699281
 30
0.0
 40
2.000000000000012
100
AcDbArc
 50
199.9999999999999
 51
255.8301265963634
  0
ARC
  5
127
330
1F
100
AcDbEntity
  8
0
  6
CONTINUOUS
 62
     7
100
AcDbCircle
 10
312.8056611294556
 20
94.99276114076719
 30
0.0
 40
52.49999999999772
100
AcDbArc
 50
54.81920015215547
 51
75.83012659636518
  0
ARC
  5
128
330
1F
100
AcDbEntity
  8
0
  6
CONTINUOUS
 62
     7
100
AcDbCircle
 10
312.8056611294555
 20
94.99276114076774
 30
0.0
 40
49.99999999999727
100
AcDbArc
 50
55.61765502053322
 51
75.09644417759789
  0
ARC
  5
129
330
1F
100
AcDbEntity
  8
0
  6
CONTINUOUS
 62
     7
100
AcDbCircle
 10
325.1126646024798
 20
141.9053145301826
 30
0.0
 40
1.000000000000001
100
AcDbArc
 50
199.9999999999998
 51
255.3003136862006
  0
LINE
  5
12A
330
1F
100
AcDbEntity
  8
0
  6
CONTINUOUS
 62
     7
100
AcDbLine
 10
334.0327575649733
 20
137.9746259182962
 30
0.0
 11
336.1604931743514
 21
139.203074645135
 31
0.0
  0
ARC
  5
12B
330
1F
100
AcDbEntity
  8
0
  6
CONTINUOUS
 62
     7
100
AcDbCircle
 10
333.5327575649732
 20
138.8406513220807
 30
0.0
 40
0.9999999999999911
100
AcDbArc
 50
244.6996863137994
 51
300.0
  0
ARC
  5
12C
330
1F
100
AcDbEntity
  8
0
  6
CONTINUOUS
 62
     7
100
AcDbCircle
 10
312.8056611294545
 20
94.99276114076518
 30
0.0
 40
47.5
100
AcDbArc
 50
64.69968631379929
 51
75.3003136862006
  0
LINE
  5
12D
330
1F
100
AcDbEntity
  8
0
  6
CONTINUOUS
 62
     7
100
AcDbLine
 10
323.3326635624507
 20
143.8720227941054
 30
0.0
 11
324.1729719816939
 21
141.5632943868569
 31
0.0
  0
ARC
  5
12E
330
1F
100
AcDbEntity
  8
0
  6
CONTINUOUS
 62
     7
100
AcDbCircle
 10
311.8012017217107
 20
142.9822502117919
 30
0.0
 40
0.5000000000000016
100
AcDbArc
 50
180.5
 51
271.1990726237428
  0
ARC
  5
12F
330
1F
100
AcDbEntity
  8
0
  6
CONTINUOUS
 62
     7
100
AcDbCircle
 10
313.8101205371983
 20
142.9822502117919
 30
0.0
 40
0.5000000000000079
100
AcDbArc
 50
268.8009273762572
 51
359.5000000000001
  0
ARC
  5
130
330
1F
100
AcDbEntity
  8
0
  6
CONTINUOUS
 62
     7
100
AcDbCircle
 10
312.8056611294545
 20
94.99276114076518
 30
0.0
 40
47.49999999999999
100
AcDbArc
 50
88.8009273762572
 51
91.19907262374291
  0
LINE
  5
131
330
1F
100
AcDbEntity
  8
0
  6
CONTINUOUS
 62
     7
100
AcDbLine
 10
314.3101014987303
 20
142.9778869440427
 30
0.0
 11
314.3274828834826
 21
144.9695963601843
 31
0.0
  0
LINE
  5
132
330
1F
100
AcDbEntity
  8
0
  6
CONTINUOUS
 62
     7
100
AcDbLine
 10
311.2838393754263
 20
144.9695963601843
 30
0.0
 11
311.3012207601786
 21
142.9778869440427
 31
0.0
  0
ARC
  5
133
330
1F
100
AcDbEntity
  8
0
  6
CONTINUOUS
 62
     7
100
AcDbCircle
 10
292.0785646939357
 20
138.8406513220807
 30
0.0
 40
1.000000000000004
100
AcDbArc
 50
240.0
 51
295.3003136862006
  0
LINE
  5
134
330
1F
100
AcDbEntity
  8
0
  6
CONTINUOUS
 62
     7
100
AcDbLine
 10
291.5785646939357
 20
137.9746259182962
 30
0.0
 11
289.4508290845577
 21
139.203074645135
 31
0.0
  0
ARC
  5
135
330
1F
100
AcDbEntity
  8
0
  6
CONTINUOUS
 62
     7
100
AcDbCircle
 10
300.4986576564292
 20
141.9053145301826
 30
0.0
 40
0.9999999999999913
100
AcDbArc
 50
284.6996863137994
 51
340.0000000000001
  0
ARC
  5
136
330
1F
100
AcDbEntity
  8
0
  6
CONTINUOUS
 62
     7
100
AcDbCircle
 10
312.8056611294545
 20
94.99276114076518
 30
0.0
 40
47.5
100
AcDbArc
 50
104.6996863137994
 51
115.3003136862007
  0
LINE
  5
137
330
1F
100
AcDbEntity
  8
0
  6
CONTINUOUS
 62
     7
100
AcDbLine
 10
302.2786586964584
 20
143.8720227941054
 30
0.0
 11
301.4383502772151
 21
141.5632943868569
 31
0.0
  0
LINE
  5
138
330
1F
100
AcDbEntity
  8
0
  6
CONTINUOUS
 62
     7
100
AcDbLine
 10
313.8056611294545
 20
202.2197815006646
 30
0.0
 11
314.2216862766234
 21
202.1790423082971
 31
0.0
  0
LINE
  5
139
330
1F
100
AcDbEntity
  8
0
  6
CONTINUOUS
 62
     7
100
AcDbLine
 10
313.8056611294545
 20
202.2512796511297
 30
0.0
 11
313.8056611294545
 21
202.2197815006646
 31
0.0
  0
LWPOLYLINE
  5
13A
330
1F
100
AcDbEntity
  8
0
  6
CONTINUOUS
 62
     7
100
AcDbPolyline
 90
        8
 70
     0
 43
0.0
 10
313.8056611294545
 20
202.2512796511296
 10
314.7388911980417
 20
202.2663646259273
 10
315.5983670436987
 20
202.2906691037655
 10
316.3512989979046
 20
202.3232658500095
 10
316.9689621240342
 20
202.3629112735686
 10
317.4277920959163
 20
202.408092870859
 10
317.7102841951095
 20
202.4570869289853
 10
317.8056611294545
 20
202.5080242867213
  0
LINE
  5
13B
330
1F
100
AcDbEntity
  8
0
  6
CONTINUOUS
 62
     7
100
AcDbLine
 10
317.9627567138085
 20
202.9796943002687
 30
0.0
 11
317.8056611294545
 21
202.5080242867213
 31
0.0
  0
LINE
  5
13C
330
1F
100
AcDbEntity
  8
0
  6
CONTINUOUS
 62
     7
100
AcDbLine
 10
319.2295799605583
 20
202.9796943002687
 30
0.0
 11
317.9627567138085
 21
202.9796943002687
 31
0.0
  0
LINE
  5
13D
330
1F
100
AcDbEntity
  8
0
  6
CONTINUOUS
 62
     7
100
AcDbLine
 10
319.2295799605583
 20
202.9796943002687
 30
0.0
 11
319.3010965952906
 21
202.9899919225885
 31
0.0
  0
LINE
  5
13E
330
1F
100
AcDbEntity
  8
0
  6
CONTINUOUS
 62
     7
100
AcDbLine
 10
319.1056611294545
 20
202.4032087281553
 30
0.0
 11
319.3010965952906
 21
202.9899919225885
 31
0.0
  0
LINE
  5
13F
330
1F
100
AcDbEntity
  8
0
  6
CONTINUOUS
 62
     7
100
AcDbLine
 10
318.1752945471791
 20
202.110658049178
 30
0.0
 11
319.1056611294545
 21
202.4032087281553
 31
0.0
  0
LINE
  5
140
330
1F
100
AcDbEntity
  8
0
  6
CONTINUOUS
 62
     7
100
AcDbLine
 10
317.682097585263
 20
202.088762052457
 30
0.0
 11
318.1752945471791
 21
202.110658049178
 31
0.0
  0
LINE
  5
141
330
1F
100
AcDbEntity
  8
0
  6
CONTINUOUS
 62
     7
100
AcDbLine
 10
317.682097585263
 20
202.088762052457
 30
0.0
 11
317.1084367671865
 21
202.088762052457
 31
0.0
  0
LINE
  5
142
330
1F
100
AcDbEntity
  8
0
  6
CONTINUOUS
 62
     7
100
AcDbLine
 10
316.5537365709613
 20
202.097563923562
 30
0.0
 11
317.1084367671865
 21
202.088762052457
 31
0.0
  0
LINE
  5
143
330
1F
100
AcDbEntity
  8
0
  6
CONTINUOUS
 62
     7
100
AcDbLine
 10
314.2216862766234
 20
202.1790423082971
 30
0.0
 11
316.5537365709613
 21
202.097563923562
 31
0.0
  0
LINE
  5
144
330
1F
100
AcDbEntity
  8
0
  6
CONTINUOUS
 62
     7
100
AcDbLine
 10
316.5537365709613
 20
227.8618246769754
 30
0.0
 11
317.1084367671865
 21
227.8706265480804
 31
0.0
  0
LINE
  5
145
330
1F
100
AcDbEntity
  8
0
  6
CONTINUOUS
 62
     7
100
AcDbLine
 10
317.682097585263
 20
227.8706265480804
 30
0.0
 11
317.1084367671865
 21
227.8706265480804
 31
0.0
  0
LINE
  5
146
330
1F
100
AcDbEntity
  8
0
  6
CONTINUOUS
 62
     7
100
AcDbLine
 10
317.682097585263
 20
227.8706265480804
 30
0.0
 11
318.1752945471791
 21
227.8487305513594
 31
0.0
  0
LINE
  5
147
330
1F
100
AcDbEntity
  8
0
  6
CONTINUOUS
 62
     7
100
AcDbLine
 10
318.1752945471791
 20
227.8487305513594
 30
0.0
 11
319.1056611294545
 21
227.5561798723822
 31
0.0
  0
LINE
  5
148
330
1F
100
AcDbEntity
  8
0
  6
CONTINUOUS
 62
     7
100
AcDbLine
 10
319.1056611294545
 20
227.5561798723822
 30
0.0
 11
319.3010965952906
 21
226.9693966779489
 31
0.0
  0
LINE
  5
149
330
1F
100
AcDbEntity
  8
0
  6
CONTINUOUS
 62
     7
100
AcDbLine
 10
319.2295799605583
 20
226.9796943002687
 30
0.0
 11
319.3010965952906
 21
226.9693966779489
 31
0.0
  0
LINE
  5
14A
330
1F
100
AcDbEntity
  8
0
  6
CONTINUOUS
 62
     7
100
AcDbLine
 10
319.2295799605583
 20
226.9796943002687
 30
0.0
 11
317.9627567138085
 21
226.9796943002687
 31
0.0
  0
LINE
  5
14B
330
1F
100
AcDbEntity
  8
0
  6
CONTINUOUS
 62
     7
100
AcDbLine
 10
317.9627567138085
 20
226.9796943002687
 30
0.0
 11
317.8056611294545
 21
227.4513643138161
 31
0.0
  0
LWPOLYLINE
  5
14C
330
1F
100
AcDbEntity
  8
0
  6
CONTINUOUS
 62
     7
100
AcDbPolyline
 90
        8
 70
     0
 43
0.0
 10
317.8056611294545
 20
227.4513643138161
 10
317.7102841951095
 20
227.5023016715522
 10
317.4277920959163
 20
227.5512957296784
 10
316.9689621240342
 20
227.5964773269688
 10
316.3512989979046
 20
227.636122750528
 10
315.5983670436987
 20
227.6687194967719
 10
314.7388911980417
 20
227.6930239746101
 10
313.8056611294545
 20
227.7081089494078
  0
LINE
  5
14D
330
1F
100
AcDbEntity
  8
0
  6
CONTINUOUS
 62
     7
100
AcDbLine
 10
313.8056611294545
 20
227.7081089494078
 30
0.0
 11
313.8056611294545
 21
227.7396070998728
 31
0.0
  0
LINE
  5
14E
330
1F
100
AcDbEntity
  8
0
  6
CONTINUOUS
 62
     7
100
AcDbLine
 10
313.8056611294545
 20
227.7396070998728
 30
0.0
 11
314.2216862766234
 21
227.7803462922403
 31
0.0
  0
LINE
  5
14F
330
1F
100
AcDbEntity
  8
0
  6
CONTINUOUS
 62
     7
100
AcDbLine
 10
314.2216862766234
 20
227.7803462922403
 30
0.0
 11
316.5537365709613
 21
227.8618246769754
 31
0.0
  0
LINE
  5
150
330
1F
100
AcDbEntity
  8
0
  6
CONTINUOUS
 62
     7
100
AcDbLine
 10
307.929224673646
 20
227.8706265480804
 30
0.0
 11
308.5028854917225
 21
227.8706265480804
 31
0.0
  0
LINE
  5
151
330
1F
100
AcDbEntity
  8
0
  6
CONTINUOUS
 62
     7
100
AcDbLine
 10
307.5962003503159
 20
234.9796943002687
 30
0.0
 11
305.289831595552
 21
234.9796943002687
 31
0.0
  0
LINE
  5
152
330
1F
100
AcDbEntity
  8
0
  6
CONTINUOUS
 62
     7
100
AcDbLine
 10
307.5962003503159
 20
234.9796943002687
 30
0.0
 11
307.8056611294545
 21
234.8749718867796
 31
0.0
  0
LINE
  5
153
330
1F
100
AcDbEntity
  8
0
  6
CONTINUOUS
 62
     7
100
AcDbLine
 10
307.8056611294545
 20
234.8749718867796
 30
0.0
 11
311.8056611294545
 21
234.8322191404994
 31
0.0
  0
LINE
  5
154
330
1F
100
AcDbEntity
  8
0
  6
CONTINUOUS
 62
     7
100
AcDbLine
 10
311.8056611294545
 20
234.8322191404994
 30
0.0
 11
311.8056611294545
 21
234.8269741139305
 31
0.0
  0
LINE
  5
155
330
1F
100
AcDbEntity
  8
0
  6
CONTINUOUS
 62
     7
100
AcDbLine
 10
307.929224673646
 20
227.8706265480804
 30
0.0
 11
307.4360277117299
 21
227.8487305513594
 31
0.0
  0
LINE
  5
156
330
1F
100
AcDbEntity
  8
0
  6
CONTINUOUS
 62
     7
100
AcDbLine
 10
309.0575856879477
 20
227.8618246769754
 30
0.0
 11
308.5028854917225
 21
227.8706265480804
 31
0.0
  0
LINE
  5
157
330
1F
100
AcDbEntity
  8
0
  6
CONTINUOUS
 62
     7
100
AcDbLine
 10
309.0575856879477
 20
202.097563923562
 30
0.0
 11
308.5028854917225
 21
202.088762052457
 31
0.0
  0
LINE
  5
158
330
1F
100
AcDbEntity
  8
0
  6
CONTINUOUS
 62
     7
100
AcDbLine
 10
307.929224673646
 20
202.088762052457
 30
0.0
 11
308.5028854917225
 21
202.088762052457
 31
0.0
  0
LINE
  5
159
330
1F
100
AcDbEntity
  8
0
  6
CONTINUOUS
 62
     7
100
AcDbLine
 10
307.929224673646
 20
202.088762052457
 30
0.0
 11
307.4360277117299
 21
202.110658049178
 31
0.0
  0
LINE
  5
15A
330
1F
100
AcDbEntity
  8
0
  6
CONTINUOUS
 62
     7
100
AcDbLine
 10
307.4360277117299
 20
202.110658049178
 30
0.0
 11
306.5056611294545
 21
202.4032087281553
 31
0.0
  0
LINE
  5
15B
330
1F
100
AcDbEntity
  8
0
  6
CONTINUOUS
 62
     7
100
AcDbLine
 10
306.5056611294546
 20
202.4032087281553
 30
0.0
 11
306.3102256636184
 21
202.9899919225885
 31
0.0
  0
LINE
  5
15C
330
1F
100
AcDbEntity
  8
0
  6
CONTINUOUS
 62
     7
100
AcDbLine
 10
306.3817422983507
 20
202.9796943002687
 30
0.0
 11
306.3102256636184
 21
202.9899919225885
 31
0.0
  0
LINE
  5
15D
330
1F
100
AcDbEntity
  8
0
  6
CONTINUOUS
 62
     7
100
AcDbLine
 10
306.3817422983507
 20
202.9796943002687
 30
0.0
 11
307.6485655451006
 21
202.9796943002687
 31
0.0
  0
LINE
  5
15E
330
1F
100
AcDbEntity
  8
0
  6
CONTINUOUS
 62
     7
100
AcDbLine
 10
307.6485655451006
 20
202.9796943002687
 30
0.0
 11
307.8056611294545
 21
202.5080242867213
 31
0.0
  0
LWPOLYLINE
  5
15F
330
1F
100
AcDbEntity
  8
0
  6
CONTINUOUS
 62
     7
100
AcDbPolyline
 90
        8
 70
     0
 43
0.0
 10
307.8056611294545
 20
202.5080242867213
 10
307.9010380637995
 20
202.4570869289853
 10
308.1835301629927
 20
202.408092870859
 10
308.6423601348748
 20
202.3629112735686
 10
309.2600232610044
 20
202.3232658500095
 10
310.0129552152103
 20
202.2906691037655
 10
310.8724310608673
 20
202.2663646259273
 10
311.8056611294545
 20
202.2512796511296
  0
LINE
  5
160
330
1F
100
AcDbEntity
  8
0
  6
CONTINUOUS
 62
     7
100
AcDbLine
 10
311.8056611294545
 20
202.2512796511297
 30
0.0
 11
311.8056611294545
 21
202.2197815006646
 31
0.0
  0
LINE
  5
161
330
1F
100
AcDbEntity
  8
0
  6
CONTINUOUS
 62
     7
100
AcDbLine
 10
311.8056611294545
 20
202.2197815006646
 30
0.0
 11
311.3896359822856
 21
202.1790423082971
 31
0.0
  0
LINE
  5
162
330
1F
100
AcDbEntity
  8
0
  6
CONTINUOUS
 62
     7
100
AcDbLine
 10
311.3896359822856
 20
202.1790423082971
 30
0.0
 11
309.0575856879477
 21
202.097563923562
 31
0.0
  0
LINE
  5
163
330
1F
100
AcDbEntity
  8
0
  6
CONTINUOUS
 62
     7
100
AcDbLine
 10
313.8056611294545
 20
234.8322191404994
 30
0.0
 11
313.8056611294545
 21
234.8269741139305
 31
0.0
  0
LINE
  5
164
330
1F
100
AcDbEntity
  8
0
  6
CONTINUOUS
 62
     7
100
AcDbLine
 10
317.8056611294545
 20
234.8749718867796
 30
0.0
 11
313.8056611294545
 21
234.8322191404994
 31
0.0
  0
LINE
  5
165
330
1F
100
AcDbEntity
  8
0
  6
CONTINUOUS
 62
     7
100
AcDbLine
 10
318.0151219085931
 20
234.9796943002687
 30
0.0
 11
317.8056611294545
 21
234.8749718867796
 31
0.0
  0
LINE
  5
166
330
1F
100
AcDbEntity
  8
0
  6
CONTINUOUS
 62
     7
100
AcDbLine
 10
318.0151219085931
 20
234.9796943002687
 30
0.0
 11
320.321490663357
 21
234.9796943002687
 31
0.0
  0
LINE
  5
167
330
1F
100
AcDbEntity
  8
0
  6
CONTINUOUS
 62
     7
100
AcDbLine
 10
311.8056611294545
 20
195.127169460038
 30
0.0
 11
311.8056611294545
 21
195.132414486607
 31
0.0
  0
LINE
  5
168
330
1F
100
AcDbEntity
  8
0
  6
CONTINUOUS
 62
     7
100
AcDbLine
 10
307.8056611294545
 20
195.0844167137578
 30
0.0
 11
311.8056611294545
 21
195.127169460038
 31
0.0
  0
LINE
  5
169
330
1F
100
AcDbEntity
  8
0
  6
CONTINUOUS
 62
     7
100
AcDbLine
 10
307.5962003503159
 20
194.9796943002687
 30
0.0
 11
307.8056611294545
 21
195.0844167137578
 31
0.0
  0
LINE
  5
16A
330
1F
100
AcDbEntity
  8
0
  6
CONTINUOUS
 62
     7
100
AcDbLine
 10
307.5962003503159
 20
194.9796943002687
 30
0.0
 11
305.289831595552
 21
194.9796943002687
 31
0.0
  0
LINE
  5
16B
330
1F
100
AcDbEntity
  8
0
  6
CONTINUOUS
 62
     7
100
AcDbLine
 10
311.8056611294545
 20
227.7396070998728
 30
0.0
 11
311.3896359822856
 21
227.7803462922403
 31
0.0
  0
LINE
  5
16C
330
1F
100
AcDbEntity
  8
0
  6
CONTINUOUS
 62
     7
100
AcDbLine
 10
311.8056611294545
 20
227.7081089494078
 30
0.0
 11
311.8056611294545
 21
227.7396070998728
 31
0.0
  0
LWPOLYLINE
  5
16D
330
1F
100
AcDbEntity
  8
0
  6
CONTINUOUS
 62
     7
100
AcDbPolyline
 90
        8
 70
     0
 43
0.0
 10
311.8056611294545
 20
227.7081089494078
 10
310.8724310608673
 20
227.6930239746101
 10
310.0129552152103
 20
227.6687194967719
 10
309.2600232610044
 20
227.636122750528
 10
308.6423601348748
 20
227.5964773269688
 10
308.1835301629927
 20
227.5512957296784
 10
307.9010380637995
 20
227.5023016715522
 10
307.8056611294545
 20
227.4513643138161
  0
LINE
  5
16E
330
1F
100
AcDbEntity
  8
0
  6
CONTINUOUS
 62
     7
100
AcDbLine
 10
307.6485655451006
 20
226.9796943002687
 30
0.0
 11
307.8056611294545
 21
227.4513643138161
 31
0.0
  0
LINE
  5
16F
330
1F
100
AcDbEntity
  8
0
  6
CONTINUOUS
 62
     7
100
AcDbLine
 10
306.3817422983507
 20
226.9796943002687
 30
0.0
 11
307.6485655451006
 21
226.9796943002687
 31
0.0
  0
LINE
  5
170
330
1F
100
AcDbEntity
  8
0
  6
CONTINUOUS
 62
     7
100
AcDbLine
 10
306.3817422983507
 20
226.9796943002687
 30
0.0
 11
306.3102256636184
 21
226.9693966779489
 31
0.0
  0
LINE
  5
171
330
1F
100
AcDbEntity
  8
0
  6
CONTINUOUS
 62
     7
100
AcDbLine
 10
306.5056611294546
 20
227.5561798723822
 30
0.0
 11
306.3102256636184
 21
226.9693966779489
 31
0.0
  0
LINE
  5
172
330
1F
100
AcDbEntity
  8
0
  6
CONTINUOUS
 62
     7
100
AcDbLine
 10
307.4360277117299
 20
227.8487305513594
 30
0.0
 11
306.5056611294545
 21
227.5561798723822
 31
0.0
  0
LINE
  5
173
330
1F
100
AcDbEntity
  8
0
  6
CONTINUOUS
 62
     7
100
AcDbLine
 10
311.3896359822856
 20
227.7803462922403
 30
0.0
 11
309.0575856879477
 21
227.8618246769754
 31
0.0
  0
LINE
  5
174
330
1F
100
AcDbEntity
  8
0
  6
CONTINUOUS
 62
     7
100
AcDbLine
 10
318.0151219085931
 20
194.9796943002687
 30
0.0
 11
320.321490663357
 21
194.9796943002687
 31
0.0
  0
LINE
  5
175
330
1F
100
AcDbEntity
  8
0
  6
CONTINUOUS
 62
     7
100
AcDbLine
 10
318.0151219085931
 20
194.9796943002687
 30
0.0
 11
317.8056611294545
 21
195.0844167137578
 31
0.0
  0
LINE
  5
176
330
1F
100
AcDbEntity
  8
0
  6
CONTINUOUS
 62
     7
100
AcDbLine
 10
317.8056611294545
 20
195.0844167137578
 30
0.0
 11
313.8056611294545
 21
195.127169460038
 31
0.0
  0
LINE
  5
177
330
1F
100
AcDbEntity
  8
0
  6
CONTINUOUS
 62
     7
100
AcDbLine
 10
313.8056611294545
 20
195.127169460038
 30
0.0
 11
313.8056611294545
 21
195.132414486607
 31
0.0
  0
LINE
  5
178
330
1F
100
AcDbEntity
  8
0
  6
CONTINUOUS
 62
     7
100
AcDbLine
 10
311.8056611294545
 20
195.132414486607
 30
0.0
 11
311.8056611294545
 21
202.2197815006646
 31
0.0
  0
LINE
  5
179
330
1F
100
AcDbEntity
  8
0
  6
CONTINUOUS
 62
     7
100
AcDbLine
 10
311.8056611294545
 20
234.8269741139305
 30
0.0
 11
311.8056611294545
 21
227.7396070998728
 31
0.0
  0
LINE
  5
17A
330
1F
100
AcDbEntity
  8
0
  6
CONTINUOUS
 62
     7
100
AcDbLine
 10
313.8056611294545
 20
195.132414486607
 30
0.0
 11
313.8056611294545
 21
202.2197815006646
 31
0.0
  0
LINE
  5
17B
330
1F
100
AcDbEntity
  8
0
  6
CONTINUOUS
 62
     7
100
AcDbLine
 10
313.8056611294545
 20
234.8269741139305
 30
0.0
 11
313.8056611294545
 21
227.7396070998728
 31
0.0
  0
LINE
  5
17C
330
1F
100
AcDbEntity
  8
0
  6
CONTINUOUS
 62
     7
100
AcDbLine
 10
319.3010965952906
 20
226.9693966779489
 30
0.0
 11
319.3010965952906
 21
234.9552284421075
 31
0.0
  0
LINE
  5
17D
330
1F
100
AcDbEntity
  8
0
  6
CONTINUOUS
 62
     7
100
AcDbLine
 10
306.3102256636184
 20
226.9693966779489
 30
0.0
 11
306.3102256636184
 21
234.9552284421075
 31
0.0
  0
LINE
  5
17E
330
1F
100
AcDbEntity
  8
0
  6
CONTINUOUS
 62
     7
100
AcDbLine
 10
306.3102256636184
 20
202.9899919225885
 30
0.0
 11
306.3102256636184
 21
195.00416015843
 31
0.0
  0
LINE
  5
17F
330
1F
100
AcDbEntity
  8
0
  6
CONTINUOUS
 62
     7
100
AcDbLine
 10
319.3010965952906
 20
202.9899919225885
 30
0.0
 11
319.3010965952906
 21
195.00416015843
 31
0.0
  0
LINE
  5
180
330
1F
100
AcDbEntity
  8
0
  6
CONTINUOUS
 62
   253
100
AcDbLine
 10
309.6061793516235
 20
225.8507977725892
 30
0.0
 11
309.6061793516235
 21
220.5422342026183
 31
0.0
  0
LINE
  5
181
330
1F
100
AcDbEntity
  8
0
  6
CONTINUOUS
 62
     7
100
AcDbLine
 10
316.0051429072855
 20
225.8507977725893
 30
0.0
 11
309.6061793516235
 21
225.8507977725892
 31
0.0
  0
LINE
  5
182
330
1F
100
AcDbEntity
  8
0
  6
CONTINUOUS
 62
   253
100
AcDbLine
 10
316.0051429072855
 20
225.8507977725893
 30
0.0
 11
316.0051429072855
 21
220.5422342026183
 31
0.0
  0
LINE
  5
183
330
1F
100
AcDbEntity
  8
0
  6
CONTINUOUS
 62
   253
100
AcDbLine
 10
315.6394409967477
 20
220.5219986376951
 30
0.0
 11
315.6394409967477
 21
209.4373899628424
 31
0.0
  0
LINE
  5
184
330
1F
100
AcDbEntity
  8
0
  6
CONTINUOUS
 62
   253
100
AcDbLine
 10
316.0051429072855
 20
204.1085908279481
 30
0.0
 11
316.0051429072855
 21
209.4171543979191
 31
0.0
  0
LINE
  5
185
330
1F
100
AcDbEntity
  8
0
  6
CONTINUOUS
 62
   253
100
AcDbLine
 10
309.6061793516235
 20
204.1085908279483
 30
0.0
 11
309.6061793516235
 21
209.4171543979191
 31
0.0
  0
LINE
  5
186
330
1F
100
AcDbEntity
  8
0
  6
CONTINUOUS
 62
   253
100
AcDbLine
 10
309.9718812621613
 20
220.5219986376951
 30
0.0
 11
309.9718812621613
 21
209.4373899628424
 31
0.0
  0
LINE
  5
187
330
1F
100
AcDbEntity
  8
0
  6
CONTINUOUS
 62
     7
100
AcDbLine
 10
316.0051429072855
 20
204.1085908279481
 30
0.0
 11
309.6061793516235
 21
204.1085908279483
 31
0.0
  0
LINE
  5
188
330
1F
100
AcDbEntity
  8
0
  6
CONTINUOUS
 62
     7
100
AcDbLine
 10
316.2763723740558
 20
209.4210478906721
 30
0.0
 11
315.6394409967477
 21
209.4373899628424
 31
0.0
  0
LINE
  5
189
330
1F
100
AcDbEntity
  8
0
  6
CONTINUOUS
 62
     7
100
AcDbLine
 10
316.2763723740558
 20
209.4210478906721
 30
0.0
 11
317.3234743075133
 21
209.4274092163726
 31
0.0
  0
LINE
  5
18A
330
1F
100
AcDbEntity
  8
0
  6
CONTINUOUS
 62
     7
100
AcDbLine
 10
317.3234743075133
 20
209.4274092163726
 30
0.0
 11
323.797899299671
 21
209.8619974675997
 31
0.0
  0
LINE
  5
18B
330
1F
100
AcDbEntity
  8
0
  6
CONTINUOUS
 62
     7
100
AcDbLine
 10
323.797899299671
 20
209.8619974675997
 30
0.0
 11
325.5351368276825
 21
209.8666700439824
 31
0.0
  0
LINE
  5
18C
330
1F
100
AcDbEntity
  8
0
  6
CONTINUOUS
 62
     7
100
AcDbLine
 10
325.5351368276825
 20
209.8666700439824
 30
0.0
 11
344.4338410478799
 21
209.6406456558262
 31
0.0
  0
LINE
  5
18D
330
1F
100
AcDbEntity
  8
0
  6
CONTINUOUS
 62
     7
100
AcDbLine
 10
344.6297048948117
 20
209.6487056500422
 30
0.0
 11
344.4338410478799
 21
209.6406456558262
 31
0.0
  0
LINE
  5
18E
330
1F
100
AcDbEntity
  8
0
  6
CONTINUOUS
 62
     7
100
AcDbLine
 10
344.6297048948117
 20
209.6487056500422
 30
0.0
 11
344.6500828337896
 21
209.7296943002687
 31
0.0
  0
LINE
  5
18F
330
1F
100
AcDbEntity
  8
0
  6
CONTINUOUS
 62
     7
100
AcDbLine
 10
344.6500828337896
 20
209.7296943002687
 30
0.0
 11
346.1820099141114
 21
209.7296942391666
 31
0.0
  0
LINE
  5
190
330
1F
100
AcDbEntity
  8
0
  6
CONTINUOUS
 62
     7
100
AcDbLine
 10
347.5808905914241
 20
209.6823892487292
 30
0.0
 11
346.1820099141113
 21
209.7296942391666
 31
0.0
  0
LINE
  5
191
330
1F
100
AcDbEntity
  8
0
  6
CONTINUOUS
 62
     7
100
AcDbLine
 10
347.5808905914241
 20
209.6823892487292
 30
0.0
 11
348.2679363956745
 21
209.6342622152627
 31
0.0
  0
LINE
  5
192
330
1F
100
AcDbEntity
  8
0
  6
CONTINUOUS
 62
     7
100
AcDbLine
 10
278.0304316674849
 20
209.6823892487292
 30
0.0
 11
279.4293123447977
 21
209.7296942391666
 31
0.0
  0
LINE
  5
193
330
1F
100
AcDbEntity
  8
0
  6
CONTINUOUS
 62
     7
100
AcDbLine
 10
280.9612394251195
 20
209.7296943002687
 30
0.0
 11
279.4293123447976
 21
209.7296942391666
 31
0.0
  0
LINE
  5
194
330
1F
100
AcDbEntity
  8
0
  6
CONTINUOUS
 62
     7
100
AcDbLine
 10
280.9816173640973
 20
209.6487056500422
 30
0.0
 11
280.9612394251195
 21
209.7296943002687
 31
0.0
  0
LINE
  5
195
330
1F
100
AcDbEntity
  8
0
  6
CONTINUOUS
 62
     7
100
AcDbLine
 10
280.9816173640973
 20
209.6487056500422
 30
0.0
 11
281.1774812110291
 21
209.6406456558262
 31
0.0
  0
LINE
  5
196
330
1F
100
AcDbEntity
  8
0
  6
CONTINUOUS
 62
     7
100
AcDbLine
 10
300.0761854312265
 20
209.8666700439824
 30
0.0
 11
281.1774812110291
 21
209.6406456558262
 31
0.0
  0
LINE
  5
197
330
1F
100
AcDbEntity
  8
0
  6
CONTINUOUS
 62
     7
100
AcDbLine
 10
301.813422959238
 20
209.8619974675997
 30
0.0
 11
300.0761854312265
 21
209.8666700439824
 31
0.0
  0
LINE
  5
198
330
1F
100
AcDbEntity
  8
0
  6
CONTINUOUS
 62
     7
100
AcDbLine
 10
308.2878479513957
 20
209.4274092163726
 30
0.0
 11
301.8134229592381
 21
209.8619974675997
 31
0.0
  0
LINE
  5
199
330
1F
100
AcDbEntity
  8
0
  6
CONTINUOUS
 62
     7
100
AcDbLine
 10
309.3349498848532
 20
209.4210478906721
 30
0.0
 11
308.2878479513957
 21
209.4274092163726
 31
0.0
  0
LINE
  5
19A
330
1F
100
AcDbEntity
  8
0
  6
CONTINUOUS
 62
     7
100
AcDbLine
 10
309.3349498848532
 20
209.4210478906721
 30
0.0
 11
309.9718812621613
 21
209.4373899628424
 31
0.0
  0
LINE
  5
19B
330
1F
100
AcDbEntity
  8
0
  6
CONTINUOUS
 62
     7
100
AcDbLine
 10
278.0304316674849
 20
209.6823892487292
 30
0.0
 11
277.3433858632345
 21
209.6342622152627
 31
0.0
  0
LINE
  5
19C
330
1F
100
AcDbEntity
  8
0
  6
CONTINUOUS
 62
     7
100
AcDbLine
 10
316.0051429072855
 20
204.1085908279481
 30
0.0
 11
316.6786444756619
 21
204.1082910977574
 31
0.0
  0
LINE
  5
19D
330
1F
100
AcDbEntity
  8
0
  6
CONTINUOUS
 62
     7
100
AcDbLine
 10
347.5808905914241
 20
220.2769993518083
 30
0.0
 11
346.1820099141113
 21
220.2296943613709
 31
0.0
  0
LINE
  5
19E
330
1F
100
AcDbEntity
  8
0
  6
CONTINUOUS
 62
     7
100
AcDbLine
 10
344.6500828337896
 20
220.2296943002687
 30
0.0
 11
346.1820099141114
 21
220.2296943613709
 31
0.0
  0
LINE
  5
19F
330
1F
100
AcDbEntity
  8
0
  6
CONTINUOUS
 62
     7
100
AcDbLine
 10
344.6297048948117
 20
220.3106829504952
 30
0.0
 11
344.6500828337896
 21
220.2296943002687
 31
0.0
  0
LINE
  5
1A0
330
1F
100
AcDbEntity
  8
0
  6
CONTINUOUS
 62
     7
100
AcDbLine
 10
344.6297048948117
 20
220.3106829504952
 30
0.0
 11
344.4338410478799
 21
220.3187429447112
 31
0.0
  0
LINE
  5
1A1
330
1F
100
AcDbEntity
  8
0
  6
CONTINUOUS
 62
     7
100
AcDbLine
 10
325.5351368276825
 20
220.0927185565551
 30
0.0
 11
344.4338410478799
 21
220.3187429447112
 31
0.0
  0
LINE
  5
1A2
330
1F
100
AcDbEntity
  8
0
  6
CONTINUOUS
 62
     7
100
AcDbLine
 10
323.797899299671
 20
220.0973911329378
 30
0.0
 11
325.5351368276825
 21
220.0927185565551
 31
0.0
  0
LINE
  5
1A3
330
1F
100
AcDbEntity
  8
0
  6
CONTINUOUS
 62
     7
100
AcDbLine
 10
317.3234743075133
 20
220.5319793841649
 30
0.0
 11
323.797899299671
 21
220.0973911329378
 31
0.0
  0
LINE
  5
1A4
330
1F
100
AcDbEntity
  8
0
  6
CONTINUOUS
 62
     7
100
AcDbLine
 10
316.2763723740558
 20
220.5383407098654
 30
0.0
 11
317.3234743075133
 21
220.5319793841649
 31
0.0
  0
LINE
  5
1A5
330
1F
100
AcDbEntity
  8
0
  6
CONTINUOUS
 62
     7
100
AcDbLine
 10
316.2763723740558
 20
220.5383407098654
 30
0.0
 11
315.6394409967477
 21
220.5219986376951
 31
0.0
  0
LINE
  5
1A6
330
1F
100
AcDbEntity
  8
0
  6
CONTINUOUS
 62
     7
100
AcDbLine
 10
347.5808905914241
 20
220.2769993518083
 30
0.0
 11
348.2679363956745
 21
220.3251263852748
 31
0.0
  0
LINE
  5
1A7
330
1F
100
AcDbEntity
  8
0
  6
CONTINUOUS
 62
     7
100
AcDbLine
 10
309.3349498848532
 20
220.5383407098654
 30
0.0
 11
309.9718812621613
 21
220.5219986376951
 31
0.0
  0
LINE
  5
1A8
330
1F
100
AcDbEntity
  8
0
  6
CONTINUOUS
 62
     7
100
AcDbLine
 10
309.3349498848532
 20
220.5383407098654
 30
0.0
 11
308.2878479513957
 21
220.5319793841649
 31
0.0
  0
LINE
  5
1A9
330
1F
100
AcDbEntity
  8
0
  6
CONTINUOUS
 62
     7
100
AcDbLine
 10
308.2878479513957
 20
220.5319793841649
 30
0.0
 11
301.8134229592381
 21
220.0973911329378
 31
0.0
  0
LINE
  5
1AA
330
1F
100
AcDbEntity
  8
0
  6
CONTINUOUS
 62
     7
100
AcDbLine
 10
301.813422959238
 20
220.0973911329378
 30
0.0
 11
300.0761854312265
 21
220.0927185565551
 31
0.0
  0
LINE
  5
1AB
330
1F
100
AcDbEntity
  8
0
  6
CONTINUOUS
 62
     7
100
AcDbLine
 10
300.0761854312265
 20
220.0927185565551
 30
0.0
 11
281.1774812110291
 21
220.3187429447112
 31
0.0
  0
LINE
  5
1AC
330
1F
100
AcDbEntity
  8
0
  6
CONTINUOUS
 62
     7
100
AcDbLine
 10
280.9816173640973
 20
220.3106829504952
 30
0.0
 11
281.1774812110291
 21
220.3187429447112
 31
0.0
  0
LINE
  5
1AD
330
1F
100
AcDbEntity
  8
0
  6
CONTINUOUS
 62
     7
100
AcDbLine
 10
280.9816173640973
 20
220.3106829504952
 30
0.0
 11
280.9612394251195
 21
220.2296943002687
 31
0.0
  0
LINE
  5
1AE
330
1F
100
AcDbEntity
  8
0
  6
CONTINUOUS
 62
     7
100
AcDbLine
 10
280.9612394251195
 20
220.2296943002687
 30
0.0
 11
279.4293123447976
 21
220.2296943613709
 31
0.0
  0
LINE
  5
1AF
330
1F
100
AcDbEntity
  8
0
  6
CONTINUOUS
 62
     7
100
AcDbLine
 10
278.0304316674849
 20
220.2769993518083
 30
0.0
 11
279.4293123447977
 21
220.2296943613709
 31
0.0
  0
LINE
  5
1B0
330
1F
100
AcDbEntity
  8
0
  6
CONTINUOUS
 62
     7
100
AcDbLine
 10
278.0304316674849
 20
220.2769993518083
 30
0.0
 11
277.3433858632345
 21
220.3251263852748
 31
0.0
  0
LINE
  5
1B1
330
1F
100
AcDbEntity
  8
0
  6
CONTINUOUS
 62
     7
100
AcDbLine
 10
316.0051429072855
 20
225.8507977725893
 30
0.0
 11
316.6786444756619
 21
225.85109750278
 31
0.0
  0
LINE
  5
1B2
330
1F
100
AcDbEntity
  8
0
  6
CONTINUOUS
 62
     7
100
AcDbLine
 10
309.6061793516235
 20
204.1085908279483
 30
0.0
 11
308.9326777832471
 21
204.1082910977576
 31
0.0
  0
LINE
  5
1B3
330
1F
100
AcDbEntity
  8
0
  6
CONTINUOUS
 62
     7
100
AcDbLine
 10
309.6061793516235
 20
225.8507977725892
 30
0.0
 11
308.9326777832471
 21
225.8510975027799
 31
0.0
  0
LINE
  5
1B4
330
1F
100
AcDbEntity
  8
0
  6
CONTINUOUS
 62
     7
100
AcDbLine
 10
317.7554085977604
 20
204.1254190944036
 30
0.0
 11
317.7554085977604
 21
209.4053302978925
 31
0.0
  0
LINE
  5
1B5
330
1F
100
AcDbEntity
  8
0
  6
CONTINUOUS
 62
     7
100
AcDbLine
 10
316.6786444756619
 20
204.1082910977574
 30
0.0
 11
317.7554085977604
 21
204.1254190944036
 31
0.0
  0
LINE
  5
1B6
330
1F
100
AcDbEntity
  8
0
  6
CONTINUOUS
 62
     7
100
AcDbLine
 10
307.8559136611486
 20
204.1254190944039
 30
0.0
 11
307.8559136611486
 21
209.4053302978925
 31
0.0
  0
LINE
  5
1B7
330
1F
100
AcDbEntity
  8
0
  6
CONTINUOUS
 62
     7
100
AcDbLine
 10
308.9326777832472
 20
204.1082910977576
 30
0.0
 11
307.8559136611486
 21
204.1254190944039
 31
0.0
  0
LINE
  5
1B8
330
1F
100
AcDbEntity
  8
0
  6
CONTINUOUS
 62
     7
100
AcDbLine
 10
317.7554085977604
 20
225.8339695061338
 30
0.0
 11
317.7554085977604
 21
220.554058302645
 31
0.0
  0
LINE
  5
1B9
330
1F
100
AcDbEntity
  8
0
  6
CONTINUOUS
 62
     7
100
AcDbLine
 10
316.6786444756619
 20
225.85109750278
 30
0.0
 11
317.7554085977604
 21
225.8339695061338
 31
0.0
  0
LINE
  5
1BA
330
1F
100
AcDbEntity
  8
0
  6
CONTINUOUS
 62
     7
100
AcDbLine
 10
307.8559136611486
 20
225.8339695061336
 30
0.0
 11
307.8559136611486
 21
220.554058302645
 31
0.0
  0
LINE
  5
1BB
330
1F
100
AcDbEntity
  8
0
  6
CONTINUOUS
 62
     7
100
AcDbLine
 10
308.9326777832472
 20
225.8510975027799
 30
0.0
 11
307.8559136611486
 21
225.8339695061336
 31
0.0
  0
LINE
  5
1BC
330
1F
100
AcDbEntity
  8
0
  6
CONTINUOUS
 62
     7
100
AcDbLine
 10
308.2878479513957
 20
220.5319793841649
 30
0.0
 11
308.2878479513957
 21
209.4274092163726
 31
0.0
  0
LINE
  5
1BD
330
1F
100
AcDbEntity
  8
0
  6
CONTINUOUS
 62
     7
100
AcDbLine
 10
317.3234743075133
 20
220.5319793841649
 30
0.0
 11
317.3234743075133
 21
209.4274092163726
 31
0.0
  0
LINE
  5
1BE
330
1F
100
AcDbEntity
  8
0
  6
CONTINUOUS
 62
     7
100
AcDbLine
 10
306.3817422983506
 20
225.7659189561973
 30
0.0
 11
306.3817422983506
 21
226.9796943002687
 31
0.0
  0
LINE
  5
1BF
330
1F
100
AcDbEntity
  8
0
  6
CONTINUOUS
 62
   253
100
AcDbLine
 10
301.3435766488451
 20
225.3585910188439
 30
0.0
 11
301.3435766488451
 21
220.1169252511374
 31
0.0
  0
LINE
  5
1C0
330
1F
100
AcDbEntity
  8
0
  6
CONTINUOUS
 62
     7
100
AcDbLine
 10
304.1979208927534
 20
225.6672843775844
 30
0.0
 11
304.1979208927534
 21
231.5654807378957
 31
0.0
  0
LINE
  5
1C1
330
1F
100
AcDbEntity
  8
0
  6
CONTINUOUS
 62
     7
100
AcDbLine
 10
304.30452530622
 20
232.2725875190822
 30
0.0
 11
304.1979208927534
 21
231.5654807378957
 31
0.0
  0
LINE
  5
1C2
330
1F
100
AcDbEntity
  8
0
  6
CONTINUOUS
 62
     7
100
AcDbLine
 10
305.2898315955521
 20
234.9796943002687
 30
0.0
 11
304.30452530622
 21
232.2725875190822
 31
0.0
  0
LINE
  5
1C3
330
1F
100
AcDbEntity
  8
0
  6
CONTINUOUS
 62
     7
100
AcDbLine
 10
307.8559136611486
 20
225.8339695061336
 30
0.0
 11
307.712379438344
 21
225.8273390962997
 31
0.0
  0
LINE
  5
1C4
330
1F
100
AcDbEntity
  8
0
  6
CONTINUOUS
 62
     7
100
AcDbLine
 10
304.1979208927534
 20
225.6672843775844
 30
0.0
 11
299.9460227924388
 21
225.4796943002687
 31
0.0
  0
LINE
  5
1C5
330
1F
100
AcDbEntity
  8
0
  6
CONTINUOUS
 62
     7
100
AcDbLine
 10
319.2295799605583
 20
204.1934696443445
 30
0.0
 11
319.2295799605583
 21
202.9796943002687
 31
0.0
  0
LINE
  5
1C6
330
1F
100
AcDbEntity
  8
0
  6
CONTINUOUS
 62
   253
100
AcDbLine
 10
324.2677456100639
 20
204.6007975816943
 30
0.0
 11
324.2677456100639
 21
209.8424633494
 31
0.0
  0
LINE
  5
1C7
330
1F
100
AcDbEntity
  8
0
  6
CONTINUOUS
 62
     7
100
AcDbLine
 10
321.4134013661556
 20
204.2921042229526
 30
0.0
 11
321.4134013661556
 21
198.3939078626418
 31
0.0
  0
LINE
  5
1C8
330
1F
100
AcDbEntity
  8
0
  6
CONTINUOUS
 62
     7
100
AcDbLine
 10
321.306796952689
 20
197.6868010814553
 30
0.0
 11
321.4134013661556
 21
198.3939078626418
 31
0.0
  0
LINE
  5
1C9
330
1F
100
AcDbEntity
  8
0
  6
CONTINUOUS
 62
     7
100
AcDbLine
 10
320.3214906633569
 20
194.9796943002687
 30
0.0
 11
321.306796952689
 21
197.6868010814553
 31
0.0
  0
LINE
  5
1CA
330
1F
100
AcDbEntity
  8
0
  6
CONTINUOUS
 62
     7
100
AcDbLine
 10
321.4134013661556
 20
204.2921042229526
 30
0.0
 11
325.6652994664702
 21
204.4796943002687
 31
0.0
  0
LINE
  5
1CB
330
1F
100
AcDbEntity
  8
0
  6
CONTINUOUS
 62
     7
100
AcDbLine
 10
317.7554085977604
 20
204.1254190944036
 30
0.0
 11
317.898942820565
 21
204.1320495042374
 31
0.0
  0
LINE
  5
1CC
330
1F
100
AcDbEntity
  8
0
  6
CONTINUOUS
 62
     7
100
AcDbLine
 10
321.306796952689
 20
232.2725875190822
 30
0.0
 11
321.4134013661556
 21
231.5654807378957
 31
0.0
  0
LINE
  5
1CD
330
1F
100
AcDbEntity
  8
0
  6
CONTINUOUS
 62
     7
100
AcDbLine
 10
321.4134013661556
 20
225.6672843775848
 30
0.0
 11
321.4134013661556
 21
231.5654807378957
 31
0.0
  0
LINE
  5
1CE
330
1F
100
AcDbEntity
  8
0
  6
CONTINUOUS
 62
   253
100
AcDbLine
 10
324.2677456100639
 20
225.3585910188432
 30
0.0
 11
324.2677456100639
 21
220.1169252511374
 31
0.0
  0
LINE
  5
1CF
330
1F
100
AcDbEntity
  8
0
  6
CONTINUOUS
 62
     7
100
AcDbLine
 10
319.2295799605583
 20
225.7659189561833
 30
0.0
 11
319.2295799605583
 21
226.9796943002687
 31
0.0
  0
LINE
  5
1D0
330
1F
100
AcDbEntity
  8
0
  6
CONTINUOUS
 62
     7
100
AcDbLine
 10
320.3214906633569
 20
234.9796943002687
 30
0.0
 11
321.306796952689
 21
232.2725875190822
 31
0.0
  0
LINE
  5
1D1
330
1F
100
AcDbEntity
  8
0
  6
CONTINUOUS
 62
     7
100
AcDbLine
 10
321.4134013661556
 20
225.6672843775848
 30
0.0
 11
325.6652994664702
 21
225.4796943002687
 31
0.0
  0
LINE
  5
1D2
330
1F
100
AcDbEntity
  8
0
  6
CONTINUOUS
 62
     7
100
AcDbLine
 10
317.7554085977604
 20
225.8339695061338
 30
0.0
 11
317.8989428205614
 21
225.8273390963002
 31
0.0
  0
LINE
  5
1D3
330
1F
100
AcDbEntity
  8
0
  6
CONTINUOUS
 62
     7
100
AcDbLine
 10
304.30452530622
 20
197.6868010814553
 30
0.0
 11
304.1979208927534
 21
198.3939078626418
 31
0.0
  0
LINE
  5
1D4
330
1F
100
AcDbEntity
  8
0
  6
CONTINUOUS
 62
     7
100
AcDbLine
 10
304.1979208927534
 20
204.292104222953
 30
0.0
 11
304.1979208927534
 21
198.3939078626418
 31
0.0
  0
LINE
  5
1D5
330
1F
100
AcDbEntity
  8
0
  6
CONTINUOUS
 62
   253
100
AcDbLine
 10
301.3435766488451
 20
204.6007975816935
 30
0.0
 11
301.3435766488451
 21
209.8424633494
 31
0.0
  0
LINE
  5
1D6
330
1F
100
AcDbEntity
  8
0
  6
CONTINUOUS
 62
     7
100
AcDbLine
 10
306.3817422983506
 20
204.1934696443636
 30
0.0
 11
306.3817422983506
 21
202.9796943002687
 31
0.0
  0
LINE
  5
1D7
330
1F
100
AcDbEntity
  8
0
  6
CONTINUOUS
 62
     7
100
AcDbLine
 10
305.2898315955521
 20
194.9796943002687
 30
0.0
 11
304.30452530622
 21
197.6868010814553
 31
0.0
  0
LINE
  5
1D8
330
1F
100
AcDbEntity
  8
0
  6
CONTINUOUS
 62
     7
100
AcDbLine
 10
304.1979208927534
 20
204.292104222953
 30
0.0
 11
299.9460227924388
 21
204.4796943002687
 31
0.0
  0
LINE
  5
1D9
330
1F
100
AcDbEntity
  8
0
  6
CONTINUOUS
 62
     7
100
AcDbLine
 10
307.8559136611486
 20
204.1254190944039
 30
0.0
 11
307.7123794383476
 21
204.1320495042375
 31
0.0
  0
LINE
  5
1DA
330
1F
100
AcDbEntity
  8
0
  6
CONTINUOUS
 62
   253
100
AcDbLine
 10
323.797899299671
 20
220.0973911329378
 30
0.0
 11
323.797899299671
 21
209.8619974675997
 31
0.0
  0
LINE
  5
1DB
330
1F
100
AcDbEntity
  8
0
  6
CONTINUOUS
 62
   253
100
AcDbLine
 10
301.813422959238
 20
220.0973911329378
 30
0.0
 11
301.813422959238
 21
209.8619974675997
 31
0.0
  0
LINE
  5
1DC
330
1F
100
AcDbEntity
  8
0
  6
CONTINUOUS
 62
     7
100
AcDbLine
 10
307.7123794383475
 20
204.1320495042375
 30
0.0
 11
307.6485655451003
 21
204.1957486252337
 31
0.0
  0
LINE
  5
1DD
330
1F
100
AcDbEntity
  8
0
  6
CONTINUOUS
 62
     7
100
AcDbLine
 10
307.7123794383473
 20
225.8273390962998
 30
0.0
 11
307.6485655451006
 21
225.7636399753039
 31
0.0
  0
LINE
  5
1DE
330
1F
100
AcDbEntity
  8
0
  6
CONTINUOUS
 62
     7
100
AcDbLine
 10
317.8989428205616
 20
204.1320495042374
 30
0.0
 11
317.9627567138085
 21
204.1957486252332
 31
0.0
  0
LINE
  5
1DF
330
1F
100
AcDbEntity
  8
0
  6
CONTINUOUS
 62
     7
100
AcDbLine
 10
317.9627574992838
 20
225.7632686776869
 30
0.0
 11
317.9627567138084
 21
225.7636399753175
 31
0.0
  0
LINE
  5
1E0
330
1F
100
AcDbEntity
  8
0
  6
CONTINUOUS
 62
     7
100
AcDbLine
 10
317.8989428205614
 20
225.8273390963002
 30
0.0
 11
317.9627567138084
 21
225.7636399753175
 31
0.0
  0
LINE
  5
1E1
330
1F
100
AcDbEntity
  8
0
  6
CONTINUOUS
 62
     7
100
AcDbLine
 10
319.2295799605583
 20
204.1934696443445
 30
0.0
 11
317.9627574056177
 21
204.1961199230179
 31
0.0
  0
LINE
  5
1E2
330
1F
100
AcDbEntity
  8
0
  6
CONTINUOUS
 62
     7
100
AcDbLine
 10
306.3817422983506
 20
225.7659189561973
 30
0.0
 11
307.6485648532913
 21
225.763268677525
 31
0.0
  0
LINE
  5
1E3
330
1F
100
AcDbEntity
  8
0
  6
CONTINUOUS
 62
     7
100
AcDbLine
 10
306.3817422983506
 20
204.1934696443636
 30
0.0
 11
307.6485648532913
 21
204.196119923035
 31
0.0
  0
LINE
  5
1E4
330
1F
100
AcDbEntity
  8
0
  6
CONTINUOUS
 62
     7
100
AcDbLine
 10
319.2295799605583
 20
225.7659189561833
 30
0.0
 11
317.9627574992838
 21
225.7632686776869
 31
0.0
  0
LINE
  5
1E5
330
1F
100
AcDbEntity
  8
0
  6
CONTINUOUS
 62
     7
100
AcDbLine
 10
307.6485655451006
 20
204.1957486252335
 30
0.0
 11
307.6485655451006
 21
202.9796943002687
 31
0.0
  0
LINE
  5
1E6
330
1F
100
AcDbEntity
  8
0
  6
CONTINUOUS
 62
     7
100
AcDbLine
 10
317.9627567138085
 20
204.1957486252332
 30
0.0
 11
317.9627567138085
 21
202.9796943002687
 31
0.0
  0
LINE
  5
1E7
330
1F
100
AcDbEntity
  8
0
  6
CONTINUOUS
 62
     7
100
AcDbLine
 10
307.6485655451006
 20
225.7636399753039
 30
0.0
 11
307.6485655451006
 21
226.9796943002687
 31
0.0
  0
LINE
  5
1E8
330
1F
100
AcDbEntity
  8
0
  6
CONTINUOUS
 62
     7
100
AcDbLine
 10
317.9627567138085
 20
225.7636399753175
 30
0.0
 11
317.9627567138085
 21
226.9796943002687
 31
0.0
  0
LINE
  5
1E9
330
1F
100
AcDbEntity
  8
0
  6
CONTINUOUS
 62
     7
100
AcDbLine
 10
343.053979951629
 20
204.5852923917076
 30
0.0
 11
342.7559910366975
 21
204.5709368228958
 31
0.0
  0
LINE
  5
1EA
330
1F
100
AcDbEntity
  8
0
  6
CONTINUOUS
 62
     7
100
AcDbLine
 10
342.7559910366975
 20
204.5709368228958
 30
0.0
 11
341.0412975088556
 21
204.4796943002687
 31
0.0
  0
LINE
  5
1EB
330
1F
100
AcDbEntity
  8
0
  6
CONTINUOUS
 62
     7
100
AcDbLine
 10
325.6652994664702
 20
204.4796943002687
 30
0.0
 11
341.0412975088556
 21
204.4796943002687
 31
0.0
  0
LINE
  5
1EC
330
1F
100
AcDbEntity
  8
0
  6
CONTINUOUS
 62
   253
100
AcDbLine
 10
325.6575356324731
 20
204.5698836402485
 30
0.0
 11
325.6575356324731
 21
209.8462014105062
 31
0.0
  0
LINE
  5
1ED
330
1F
100
AcDbEntity
  8
0
  6
CONTINUOUS
 62
   253
100
AcDbLine
 10
299.9537866264359
 20
225.3895049602889
 30
0.0
 11
299.9537866264359
 21
220.1131871900313
 31
0.0
  0
LINE
  5
1EE
330
1F
100
AcDbEntity
  8
0
  6
CONTINUOUS
 62
     7
100
AcDbLine
 10
282.55734230728
 20
225.3740962088301
 30
0.0
 11
282.8553312222115
 21
225.3884517776419
 31
0.0
  0
LINE
  5
1EF
330
1F
100
AcDbEntity
  8
0
  6
CONTINUOUS
 62
     7
100
AcDbLine
 10
282.8553312222116
 20
225.3884517776419
 30
0.0
 11
284.5700247500535
 21
225.4796943002687
 31
0.0
  0
LINE
  5
1F0
330
1F
100
AcDbEntity
  8
0
  6
CONTINUOUS
 62
     7
100
AcDbLine
 10
284.5700247500535
 20
225.4796943002687
 30
0.0
 11
299.9460227924388
 21
225.4796943002687
 31
0.0
  0
LINE
  5
1F1
330
1F
100
AcDbEntity
  8
0
  6
CONTINUOUS
 62
     7
100
AcDbLine
 10
282.8553312222116
 20
204.5709368228956
 30
0.0
 11
284.5700247500535
 21
204.4796943002687
 31
0.0
  0
LINE
  5
1F2
330
1F
100
AcDbEntity
  8
0
  6
CONTINUOUS
 62
     7
100
AcDbLine
 10
282.5573423072801
 20
204.5852923917074
 30
0.0
 11
282.8553312222116
 21
204.5709368228956
 31
0.0
  0
LINE
  5
1F3
330
1F
100
AcDbEntity
  8
0
  6
CONTINUOUS
 62
     7
100
AcDbLine
 10
284.5700247500535
 20
204.4796943002687
 30
0.0
 11
299.9460227924388
 21
204.4796943002687
 31
0.0
  0
LINE
  5
1F4
330
1F
100
AcDbEntity
  8
0
  6
CONTINUOUS
 62
     7
100
AcDbLine
 10
342.7559910366975
 20
225.3884517776416
 30
0.0
 11
341.0412975088556
 21
225.4796943002687
 31
0.0
  0
LINE
  5
1F5
330
1F
100
AcDbEntity
  8
0
  6
CONTINUOUS
 62
     7
100
AcDbLine
 10
343.0539799516289
 20
225.3740962088298
 30
0.0
 11
342.7559910366975
 21
225.3884517776416
 31
0.0
  0
LINE
  5
1F6
330
1F
100
AcDbEntity
  8
0
  6
CONTINUOUS
 62
     7
100
AcDbLine
 10
325.6652994664702
 20
225.4796943002687
 30
0.0
 11
341.0412975088556
 21
225.4796943002687
 31
0.0
  0
LINE
  5
1F7
330
1F
100
AcDbEntity
  8
0
  6
CONTINUOUS
 62
   253
100
AcDbLine
 10
299.9537866264359
 20
204.5698836402485
 30
0.0
 11
299.9537866264359
 21
209.8462014105062
 31
0.0
  0
LINE
  5
1F8
330
1F
100
AcDbEntity
  8
0
  6
CONTINUOUS
 62
   253
100
AcDbLine
 10
325.6575356324731
 20
225.3895049602889
 30
0.0
 11
325.6575356324731
 21
220.1131871900313
 31
0.0
  0
LINE
  5
1F9
330
1F
100
AcDbEntity
  8
0
  6
CONTINUOUS
 62
   253
100
AcDbLine
 10
325.5351368276825
 20
220.0927185565551
 30
0.0
 11
325.5351368276825
 21
209.8666700439824
 31
0.0
  0
LINE
  5
1FA
330
1F
100
AcDbEntity
  8
0
  6
CONTINUOUS
 62
   253
100
AcDbLine
 10
300.0761854312265
 20
220.0927185565551
 30
0.0
 11
300.0761854312265
 21
209.8666700439824
 31
0.0
  0
LINE
  5
1FB
330
1F
100
AcDbEntity
  8
0
  6
CONTINUOUS
 62
     7
100
AcDbLine
 10
343.0539799516288
 20
204.4796943002687
 30
0.0
 11
343.053979951629
 21
204.5852923917076
 31
0.0
  0
LINE
  5
1FC
330
1F
100
AcDbEntity
  8
0
  6
CONTINUOUS
 62
     7
100
AcDbLine
 10
348.2397268373208
 20
204.4796940753482
 30
0.0
 11
343.0539799516288
 21
204.4796943002687
 31
0.0
  0
LINE
  5
1FD
330
1F
100
AcDbEntity
  8
0
  6
CONTINUOUS
 62
     7
100
AcDbLine
 10
343.0539799516289
 20
225.4796943002687
 30
0.0
 11
343.0539799516289
 21
225.3740962088298
 31
0.0
  0
LINE
  5
1FE
330
1F
100
AcDbEntity
  8
0
  6
CONTINUOUS
 62
     7
100
AcDbLine
 10
348.2397268373208
 20
225.4796945251892
 30
0.0
 11
343.0539799516289
 21
225.4796943002687
 31
0.0
  0
LINE
  5
1FF
330
1F
100
AcDbEntity
  8
0
  6
CONTINUOUS
 62
     7
100
AcDbLine
 10
282.5573423072801
 20
204.4796943002687
 30
0.0
 11
282.5573423072801
 21
204.5852923917074
 31
0.0
  0
LINE
  5
200
330
1F
100
AcDbEntity
  8
0
  6
CONTINUOUS
 62
     7
100
AcDbLine
 10
277.3715954215882
 20
204.4796940753482
 30
0.0
 11
282.5573423072801
 21
204.4796943002687
 31
0.0
  0
LINE
  5
201
330
1F
100
AcDbEntity
  8
0
  6
CONTINUOUS
 62
     7
100
AcDbLine
 10
282.5573423072802
 20
225.4796943002687
 30
0.0
 11
282.5573423072801
 21
225.3740962088301
 31
0.0
  0
LINE
  5
202
330
1F
100
AcDbEntity
  8
0
  6
CONTINUOUS
 62
     7
100
AcDbLine
 10
277.3715954215882
 20
225.4796945251892
 30
0.0
 11
282.5573423072802
 21
225.4796943002687
 31
0.0
  0
LINE
  5
203
330
1F
100
AcDbEntity
  8
0
  6
CONTINUOUS
 62
     7
100
AcDbLine
 10
348.2679363956746
 20
204.5155884818647
 30
0.0
 11
348.2397268373209
 21
204.4796940753482
 31
0.0
  0
LINE
  5
204
330
1F
100
AcDbEntity
  8
0
  6
CONTINUOUS
 62
     7
100
AcDbLine
 10
348.2679363956746
 20
204.5155884818647
 30
0.0
 11
350.9960469448457
 21
204.2287493153988
 31
0.0
  0
LINE
  5
205
330
1F
100
AcDbEntity
  8
0
  6
CONTINUOUS
 62
     7
100
AcDbLine
 10
346.1820099141117
 20
202.4796944554986
 30
0.0
 11
347.5808905914241
 21
202.4915101811124
 31
0.0
  0
LINE
  5
206
330
1F
100
AcDbEntity
  8
0
  6
CONTINUOUS
 62
     7
100
AcDbLine
 10
350.9960469448457
 20
202.5512649505729
 30
0.0
 11
350.9680907097913
 21
202.5572311533079
 31
0.0
  0
LINE
  5
207
330
1F
100
AcDbEntity
  8
0
  6
CONTINUOUS
 62
     7
100
AcDbLine
 10
347.5808905914241
 20
202.4915101811124
 30
0.0
 11
350.9960469448457
 21
202.5512649505729
 31
0.0
  0
LINE
  5
208
330
1F
100
AcDbEntity
  8
0
  6
CONTINUOUS
 62
     7
100
AcDbLine
 10
341.0412975088555
 20
202.4796943002687
 30
0.0
 11
346.1820099141117
 21
202.4796944554986
 31
0.0
  0
LINE
  5
209
330
1F
100
AcDbEntity
  8
0
  6
CONTINUOUS
 62
     7
100
AcDbLine
 10
277.3433858632345
 20
204.5155884818647
 30
0.0
 11
274.6152753140633
 21
204.2287493153988
 31
0.0
  0
LINE
  5
20A
330
1F
100
AcDbEntity
  8
0
  6
CONTINUOUS
 62
     7
100
AcDbLine
 10
277.3433858632345
 20
204.5155884818647
 30
0.0
 11
277.3715954215882
 21
204.4796940753482
 31
0.0
  0
LINE
  5
20B
330
1F
100
AcDbEntity
  8
0
  6
CONTINUOUS
 62
     7
100
AcDbLine
 10
279.4293123447973
 20
202.4796944554986
 30
0.0
 11
278.0304316674849
 21
202.4915101811124
 31
0.0
  0
LINE
  5
20C
330
1F
100
AcDbEntity
  8
0
  6
CONTINUOUS
 62
     7
100
AcDbLine
 10
278.0304316674849
 20
202.4915101811124
 30
0.0
 11
274.6152753140634
 21
202.5512649505729
 31
0.0
  0
LINE
  5
20D
330
1F
100
AcDbEntity
  8
0
  6
CONTINUOUS
 62
     7
100
AcDbLine
 10
284.5700247500535
 20
202.4796943002687
 30
0.0
 11
279.4293123447972
 21
202.4796944554986
 31
0.0
  0
LINE
  5
20E
330
1F
100
AcDbEntity
  8
0
  6
CONTINUOUS
 62
     7
100
AcDbLine
 10
346.1820099141117
 20
227.4796941450388
 30
0.0
 11
347.5808905914241
 21
227.467878419425
 31
0.0
  0
LINE
  5
20F
330
1F
100
AcDbEntity
  8
0
  6
CONTINUOUS
 62
     7
100
AcDbLine
 10
347.5808905914241
 20
227.467878419425
 30
0.0
 11
350.9960469448457
 21
227.4081236499645
 31
0.0
  0
LINE
  5
210
330
1F
100
AcDbEntity
  8
0
  6
CONTINUOUS
 62
     7
100
AcDbLine
 10
341.0412975088555
 20
227.4796943002687
 30
0.0
 11
346.1820099141117
 21
227.4796941450388
 31
0.0
  0
LINE
  5
211
330
1F
100
AcDbEntity
  8
0
  6
CONTINUOUS
 62
     7
100
AcDbLine
 10
277.3433858632345
 20
225.4438001186727
 30
0.0
 11
277.3715954215882
 21
225.4796945251892
 31
0.0
  0
LINE
  5
212
330
1F
100
AcDbEntity
  8
0
  6
CONTINUOUS
 62
     7
100
AcDbLine
 10
277.3433858632345
 20
225.4438001186727
 30
0.0
 11
274.6152753140633
 21
225.7306392851386
 31
0.0
  0
LINE
  5
213
330
1F
100
AcDbEntity
  8
0
  6
CONTINUOUS
 62
     7
100
AcDbLine
 10
350.9680907097913
 20
225.7665100169193
 30
0.0
 11
350.9960469448457
 21
225.7306392851386
 31
0.0
  0
LINE
  5
214
330
1F
100
AcDbEntity
  8
0
  6
CONTINUOUS
 62
     7
100
AcDbLine
 10
348.2679363956746
 20
225.4438001186727
 30
0.0
 11
350.9960469448457
 21
225.7306392851386
 31
0.0
  0
LINE
  5
215
330
1F
100
AcDbEntity
  8
0
  6
CONTINUOUS
 62
     7
100
AcDbLine
 10
348.2679363956746
 20
225.4438001186727
 30
0.0
 11
348.2397268373209
 21
225.4796945251892
 31
0.0
  0
LINE
  5
216
330
1F
100
AcDbEntity
  8
0
  6
CONTINUOUS
 62
     7
100
AcDbLine
 10
279.4293123447973
 20
227.4796941450388
 30
0.0
 11
278.0304316674849
 21
227.467878419425
 31
0.0
  0
LINE
  5
217
330
1F
100
AcDbEntity
  8
0
  6
CONTINUOUS
 62
     7
100
AcDbLine
 10
278.0304316674849
 20
227.467878419425
 30
0.0
 11
274.6152753140634
 21
227.4081236499645
 31
0.0
  0
LINE
  5
218
330
1F
100
AcDbEntity
  8
0
  6
CONTINUOUS
 62
     7
100
AcDbLine
 10
284.5700247500535
 20
227.4796943002687
 30
0.0
 11
279.4293123447972
 21
227.4796941450388
 31
0.0
  0
LINE
  5
219
330
1F
100
AcDbEntity
  8
0
  6
CONTINUOUS
 62
     7
100
AcDbLine
 10
284.5700247500535
 20
204.4796943002687
 30
0.0
 11
284.5700247500535
 21
202.4796943002687
 31
0.0
  0
LINE
  5
21A
330
1F
100
AcDbEntity
  8
0
  6
CONTINUOUS
 62
     7
100
AcDbLine
 10
284.5700247500535
 20
225.4796943002687
 30
0.0
 11
284.5700247500535
 21
227.4796943002687
 31
0.0
  0
LINE
  5
21B
330
1F
100
AcDbEntity
  8
0
  6
CONTINUOUS
 62
     7
100
AcDbLine
 10
341.0412975088555
 20
204.4796943002687
 30
0.0
 11
341.0412975088555
 21
202.4796943002687
 31
0.0
  0
LINE
  5
21C
330
1F
100
AcDbEntity
  8
0
  6
CONTINUOUS
 62
     7
100
AcDbLine
 10
341.0412975088555
 20
225.4796943002687
 30
0.0
 11
341.0412975088555
 21
227.4796943002687
 31
0.0
  0
LINE
  5
21D
330
1F
100
AcDbEntity
  8
0
  6
CONTINUOUS
 62
     7
100
AcDbLine
 10
274.6152753140634
 20
204.2287493153988
 30
0.0
 11
274.6152753140634
 21
202.5512649505729
 31
0.0
  0
LINE
  5
21E
330
1F
100
AcDbEntity
  8
0
  6
CONTINUOUS
 62
     7
100
AcDbLine
 10
350.9960469448457
 20
225.7306392851386
 30
0.0
 11
350.9960469448457
 21
227.4081236499645
 31
0.0
  0
LINE
  5
21F
330
1F
100
AcDbEntity
  8
0
  6
CONTINUOUS
 62
     7
100
AcDbLine
 10
350.9960469448457
 20
204.2287493153988
 30
0.0
 11
350.9960469448457
 21
202.5512649505729
 31
0.0
  0
LINE
  5
220
330
1F
100
AcDbEntity
  8
0
  6
CONTINUOUS
 62
     7
100
AcDbLine
 10
274.6152753140634
 20
225.7306392851386
 30
0.0
 11
274.6152753140634
 21
227.4081236499645
 31
0.0
  0
LINE
  5
221
330
1F
100
AcDbEntity
  8
0
  6
CONTINUOUS
 62
     7
100
AcDbLine
 10
344.6500828337896
 20
220.2296943002687
 30
0.0
 11
344.6500828337896
 21
209.7296943002687
 31
0.0
  0
LINE
  5
222
330
1F
100
AcDbEntity
  8
0
  6
CONTINUOUS
 62
     7
100
AcDbLine
 10
280.9612394251195
 20
220.2296943002687
 30
0.0
 11
280.9612394251195
 21
209.7296943002687
 31
0.0
  0
LINE
  5
223
330
1F
100
AcDbEntity
  8
0
  6
CONTINUOUS
 62
     7
100
AcDbLine
 10
348.2679363956746
 20
209.6342622152627
 30
0.0
 11
348.2679363956746
 21
204.5155884818647
 31
0.0
  0
LINE
  5
224
330
1F
100
AcDbEntity
  8
0
  6
CONTINUOUS
 62
     7
100
AcDbLine
 10
277.3433858632345
 20
220.3251263852748
 30
0.0
 11
277.3433858632345
 21
225.4438001186727
 31
0.0
  0
LINE
  5
225
330
1F
100
AcDbEntity
  8
0
  6
CONTINUOUS
 62
     7
100
AcDbLine
 10
348.2679363956746
 20
220.3251263852748
 30
0.0
 11
348.2679363956746
 21
225.4438001186727
 31
0.0
  0
LINE
  5
226
330
1F
100
AcDbEntity
  8
0
  6
CONTINUOUS
 62
     7
100
AcDbLine
 10
277.3433858632345
 20
209.6342622152627
 30
0.0
 11
277.3433858632345
 21
204.5155884818647
 31
0.0
  0
LINE
  5
227
330
1F
100
AcDbEntity
  8
0
  6
CENTER
 62
     1
100
AcDbLine
 10
312.8056611294545
 20
128.1063354094786
 30
0.0
 11
312.8056611294545
 21
180.7227375578997
 31
0.0
  0
LINE
  5
229
330
1F
100
AcDbEntity
  8
0
  6
CENTER
 62
     1
100
AcDbLine
 10
305.8056611294545
 20
169.9927611407652
 30
0.0
 11
319.8056611294545
 21
169.9927611407652
 31
0.0
  0
LINE
  5
22A
330
1F
100
AcDbEntity
  8
0
  6
CENTER
 62
     1
100
AcDbLine
 10
393.1071061430192
 20
128.9666274597724
 30
0.0
 11
393.1071061430192
 21
180.9927611407652
 31
0.0
  0
LINE
  5
22B
330
1F
100
AcDbEntity
  8
0
  6
CENTER
 62
     1
100
AcDbLine
 10
312.8056611294545
 20
191.9796943002687
 30
0.0
 11
312.8056611294545
 21
237.9796943002687
 31
0.0
  0
LINE
  5
22C
330
1F
100
AcDbEntity
  8
0
  6
CENTER
 62
     1
100
AcDbLine
 10
271.6152753140634
 20
214.9796943002687
 30
0.0
 11
353.9960469448457
 21
214.9796943002687
 31
0.0
  0
ENDSEC
  0
SECTION
  2
OBJECTS
  0
DICTIONARY
  5
C
330
0
100
AcDbDictionary
  3
ACAD_GROUP
350
D
  3
ACAD_LAYOUT
350
1A
  3
ACAD_MATERIAL
350
43
  3
ACAD_MLEADERSTYLE
350
6B
  3
ACAD_MLINESTYLE
350
17
  3
ACAD_PLOTSETTINGS
350
19
  3
ACAD_SCALELIST
350
47
  3
ACAD_VISUALSTYLE
350
2A
  3
ACDBHEADERROUNDTRIPXREC
350
22D
  3
ACDBVARIABLEDICTIONARY
350
24E
  0
DICTIONARY
  5
255
330
8
100
AcDbDictionary
280
     1
  3
ACAD_XREC_ROUNDTRIP
360
256
  0
DICTIONARY
  5
D
102
{ACAD_REACTORS
330
C
102
}
330
C
100
AcDbDictionary
  0
DICTIONARY
  5
1A
102
{ACAD_REACTORS
330
C
102
}
330
C
100
AcDbDictionary
  0
DICTIONARY
  5
43
102
{ACAD_REACTORS
330
C
102
}
330
C
100
AcDbDictionary
  3
BYBLOCK
350
45
  3
BYLAYER
350
44
  3
GLOBAL
350
46
  0
DICTIONARY
  5
6B
102
{ACAD_REACTORS
330
C
102
}
330
C
100
AcDbDictionary
  3
STANDARD
350
6C
  0
DICTIONARY
  5
17
102
{ACAD_REACTORS
330
C
102
}
330
C
100
AcDbDictionary
  3
STANDARD
350
18
  0
DICTIONARY
  5
19
102
{ACAD_REACTORS
330
C
102
}
330
C
100
AcDbDictionary
  0
DICTIONARY
  5
47
102
{ACAD_REACTORS
330
C
102
}
330
C
100
AcDbDictionary
  3
A0
350
48
  3
A1
350
49
  3
A2
350
4A
  3
A3
350
4B
  3
A4
350
4C
  3
A5
350
4D
  3
A6
350
4E
  3
A7
350
4F
  3
A8
350
50
  3
A9
350
51
  3
B0
350
52
  3
B1
350
53
  3
B2
350
54
  3
B3
350
55
  3
B4
350
56
  3
B5
350
57
  3
B6
350
58
  3
B7
350
59
  3
B8
350
5A
  3
B9
350
5B
  3
C0
350
5C
  3
C1
350
5D
  3
C2
350
5E
  3
C3
350
5F
  3
C4
350
60
  3
C5
350
61
  3
C6
350
62
  3
C7
350
63
  3
C8
350
64
  3
C9
350
65
  3
D0
350
66
  3
D1
350
67
  3
D2
350
68
  0
DICTIONARY
  5
2A
102
{ACAD_REACTORS
330
C
102
}
330
C
100
AcDbDictionary
  3
2DWIREFRAME
350
2F
  3
BASIC
350
32
  3
BRIGHTEN
350
36
  3
COLORCHANGE
350
3A
  3
CONCEPTUAL
350
34
  3
DIM
350
35
  3
EDGECOLOROFF
350
3D
  3
FACEPATTERN
350
39
  3
FLAT
350
2B
  3
FLATWITHEDGES
350
2C
  3
GOURAUD
350
2D
  3
GOURAUDWITHEDGES
350
2E
  3
HIDDEN
350
31
  3
JITTEROFF
350
3B
  3
LINEPATTERN
350
38
  3
OVERHANGOFF
350
3C
  3
REALISTIC
350
33
  3
SHADED
350
42
  3
SHADED_WITH_EDGES
350
41
  3
SHADES_OF_GRAY
350
3E
  3
SKETCHY
350
3F
  3
THICKEN
350
37
  3
WIREFRAME
350
30
  3
X-RAY
350
40
  0
DICTIONARY
  5
22D
102
{ACAD_REACTORS
330
C
102
}
330
C
100
AcDbDictionary
  3
CEPSNID
350
237
  3
CEPSNTYPE
350
236
  3
DIMSTYLEDATA
350
24D
  3
FINGERPRINTGUID
350
238
  3
HYPERLINKBASE
350
230
  3
INSUNITS
350
235
  3
LAYOUTDICT
350
232
  3
LWETCUNION
350
234
  3
PLOTSETDICT
350
233
  3
PSVPSCALE
350
23A
  3
PUCSBASE
350
23D
  3
PUCSORGBACK
350
243
  3
PUCSORGBOTTOM
350
23F
  3
PUCSORGFRONT
350
242
  3
PUCSORGLEFT
350
240
  3
PUCSORGRIGHT
350
241
  3
PUCSORGTOP
350
23E
  3
PUCSORTHOREF
350
23B
  3
PUCSORTHOVIEW
350
23C
  3
STYLESHEET
350
231
  3
TSTACKALIGN
350
22E
  3
TSTACKSIZE
350
22F
  3
UCSBASE
350
246
  3
UCSORGBACK
350
24C
  3
UCSORGBOTTOM
350
248
  3
UCSORGFRONT
350
24B
  3
UCSORGLEFT
350
249
  3
UCSORGRIGHT
350
24A
  3
UCSORGTOP
350
247
  3
UCSORTHOREF
350
244
  3
UCSORTHOVIEW
350
245
  3
VERSIONGUID
350
239
  0
DICTIONARY
  5
24E
102
{ACAD_REACTORS
330
C
102
}
330
C
100
AcDbDictionary
  3
CANNOSCALE
350
257
  3
CMLEADERSTYLE
350
250
  3
CTABLESTYLE
350
24F
  3
DIMASSOC
350
253
  3
HIDETEXT
350
254
  3
MSLTSCALE
350
258
  0
XRECORD
  5
256
102
{ACAD_REACTORS
330
255
102
}
330
255
100
AcDbXrecord
102
VTR_0.000_0.000_1.000_1.000_VISUALSTYLE
340
2F
102
VTR_0.000_0.000_1.000_1.000_GRIDDISPLAY
 70
     3
102
VTR_0.000_0.000_1.000_1.000_GRIDMAJOR
 70
     5
102
VTR_0.000_0.000_1.000_1.000_DEFAULTLIGHTING
280
     1
102
VTR_0.000_0.000_1.000_1.000_DEFAULTLIGHTINGTYPE
 70
     1
102
VTR_0.000_0.000_1.000_1.000_BRIGHTNESS
141
0.0
102
VTR_0.000_0.000_1.000_1.000_CONTRAST
142
0.0
  0
MATERIAL
  5
45
102
{ACAD_REACTORS
330
43
102
}
102
{ACAD_XDICTIONARY
360
25B
102
}
330
43
100
AcDbMaterial
  1
BYBLOCK
  0
MATERIAL
  5
44
102
{ACAD_REACTORS
330
43
102
}
102
{ACAD_XDICTIONARY
360
259
102
}
330
43
100
AcDbMaterial
  1
BYLAYER
  0
MATERIAL
  5
46
102
{ACAD_REACTORS
330
43
102
}
102
{ACAD_XDICTIONARY
360
25D
102
}
330
43
100
AcDbMaterial
  1
GLOBAL
  0
ACAD_PROXY_OBJECT
  5
6C
102
{ACAD_REACTORS
330
6B
102
}
330
6B
100
AcDbProxyObject
 90
      499
 91
      505
 93
      610
310
40901902A4063FBFFFFFE056BD1B81E855B9FC0AD7A3703D0AD73F4214DD185B99185C9900AD7A3703D0AC73F90141901A02B5E8DC0F42B1CFC02B5E8DC0F42B1CFE5764000000000000300FC0
340
14
340
0
340
11
340
0
 94
        0
1001
ACAD_MLEADERVER
1070
     2
  0
MLINESTYLE
  5
18
102
{ACAD_REACTORS
330
17
102
}
330
17
100
AcDbMlineStyle
  2
Standard
 70
     0
  3

 62
   256
 51
90.0
 52
90.0
 71
     2
 49
0.5
 62
   256
  6
BYLAYER
 49
-0.5
 62
   256
  6
BYLAYER
  0
ACAD_PROXY_OBJECT
  5
48
102
{ACAD_REACTORS
330
47
102
}
330
47
100
AcDbProxyObject
 90
      499
 91
      503
 93
       41
310
903313A31580
  0
ACAD_PROXY_OBJECT
  5
49
102
{ACAD_REACTORS
330
47
102
}
330
47
100
AcDbProxyObject
 90
      499
 91
      503
 93
      105
310
903313A324000000000000004000
  0
ACAD_PROXY_OBJECT
  5
4A
102
{ACAD_REACTORS
330
47
102
}
330
47
100
AcDbProxyObject
 90
      499
 91
      503
 93
      105
310
903313A344000000000000104000
  0
ACAD_PROXY_OBJECT
  5
4B
102
{ACAD_REACTORS
330
47
102
}
330
47
100
AcDbProxyObject
 90
      499
 91
      503
 93
      105
310
903313A354000000000000144000
  0
ACAD_PROXY_OBJECT
  5
4C
102
{ACAD_REACTORS
330
47
102
}
330
47
100
AcDbProxyObject
 90
      499
 91
      503
 93
      105
310
903313A384000000000000204000
  0
ACAD_PROXY_OBJECT
  5
4D
102
{ACAD_REACTORS
330
47
102
}
330
47
100
AcDbProxyObject
 90
      499
 91
      503
 93
      113
310
904313A31304000000000000244000
  0
ACAD_PROXY_OBJECT
  5
4E
102
{ACAD_REACTORS
330
47
102
}
330
47
100
AcDbProxyObject
 90
      499
 91
      503
 93
      113
310
904313A31364000000000000304000
  0
ACAD_PROXY_OBJECT
  5
4F
102
{ACAD_REACTORS
330
47
102
}
330
47
100
AcDbProxyObject
 90
      499
 91
      503
 93
      113
310
904313A32304000000000000344000
  0
ACAD_PROXY_OBJECT
  5
50
102
{ACAD_REACTORS
330
47
102
}
330
47
100
AcDbProxyObject
 90
      499
 91
      503
 93
      113
310
904313A333040000000000003E4000
  0
ACAD_PROXY_OBJECT
  5
51
102
{ACAD_REACTORS
330
47
102
}
330
47
100
AcDbProxyObject
 90
      499
 91
      503
 93
      113
310
904313A34304000000000000444000
  0
ACAD_PROXY_OBJECT
  5
52
102
{ACAD_REACTORS
330
47
102
}
330
47
100
AcDbProxyObject
 90
      499
 91
      503
 93
      113
310
904313A35304000000000000494000
  0
ACAD_PROXY_OBJECT
  5
53
102
{ACAD_REACTORS
330
47
102
}
330
47
100
AcDbProxyObject
 90
      499
 91
      503
 93
      121
310
905313A3130304000000000000594000
  0
ACAD_PROXY_OBJECT
  5
54
102
{ACAD_REACTORS
330
47
102
}
330
47
100
AcDbProxyObject
 90
      499
 91
      503
 93
      105
310
903323A310000000000000010100
  0
ACAD_PROXY_OBJECT
  5
55
102
{ACAD_REACTORS
330
47
102
}
330
47
100
AcDbProxyObject
 90
      499
 91
      503
 93
      105
310
903343A310000000000000410100
  0
ACAD_PROXY_OBJECT
  5
56
102
{ACAD_REACTORS
330
47
102
}
330
47
100
AcDbProxyObject
 90
      499
 91
      503
 93
      105
310
903383A310000000000000810100
  0
ACAD_PROXY_OBJECT
  5
57
102
{ACAD_REACTORS
330
47
102
}
330
47
100
AcDbProxyObject
 90
      499
 91
      503
 93
      113
310
90431303A310000000000000910100
  0
ACAD_PROXY_OBJECT
  5
58
102
{ACAD_REACTORS
330
47
102
}
330
47
100
AcDbProxyObject
 90
      499
 91
      503
 93
      121
310
9053130303A310000000000001650100
  0
ACAD_PROXY_OBJECT
  5
59
102
{ACAD_REACTORS
330
47
102
}
330
47
100
AcDbProxyObject
 90
      499
 91
      503
 93
      257
310
90E312F31323822203D2031272D3022000000000000200FC000000000000284000
  0
ACAD_PROXY_OBJECT
  5
5A
102
{ACAD_REACTORS
330
47
102
}
330
47
100
AcDbProxyObject
 90
      499
 91
      503
 93
      249
310
90D312F363422203D2031272D3022000000000000240FC000000000000284000
  0
ACAD_PROXY_OBJECT
  5
5B
102
{ACAD_REACTORS
330
47
102
}
330
47
100
AcDbProxyObject
 90
      499
 91
      503
 93
      249
310
90D312F333222203D2031272D3022000000000000280FC000000000000284000
  0
ACAD_PROXY_OBJECT
  5
5C
102
{ACAD_REACTORS
330
47
102
}
330
47
100
AcDbProxyObject
 90
      499
 91
      503
 93
      249
310
90D312F313622203D2031272D30220000000000002C0FC000000000000284000
  0
ACAD_PROXY_OBJECT
  5
5D
102
{ACAD_REACTORS
330
47
102
}
330
47
100
AcDbProxyObject
 90
      499
 91
      503
 93
      249
310
90D332F333222203D2031272D30220000000000002E0FC000000000000284000
  0
ACAD_PROXY_OBJECT
  5
5E
102
{ACAD_REACTORS
330
47
102
}
330
47
100
AcDbProxyObject
 90
      499
 91
      503
 93
      241
310
90C312F3822203D2031272D3022000000000000300FC000000000000284000
  0
ACAD_PROXY_OBJECT
  5
5F
102
{ACAD_REACTORS
330
47
102
}
330
47
100
AcDbProxyObject
 90
      499
 91
      503
 93
      249
310
90D332F313622203D2031272D3022000000000000320FC000000000000284000
  0
ACAD_PROXY_OBJECT
  5
60
102
{ACAD_REACTORS
330
47
102
}
330
47
100
AcDbProxyObject
 90
      499
 91
      503
 93
      241
310
90C312F3422203D2031272D3022000000000000340FC000000000000284000
  0
ACAD_PROXY_OBJECT
  5
61
102
{ACAD_REACTORS
330
47
102
}
330
47
100
AcDbProxyObject
 90
      499
 91
      503
 93
      241
310
90C332F3822203D2031272D3022000000000000360FC000000000000284000
  0
ACAD_PROXY_OBJECT
  5
62
102
{ACAD_REACTORS
330
47
102
}
330
47
100
AcDbProxyObject
 90
      499
 91
      503
 93
      241
310
90C312F3222203D2031272D3022000000000000380FC000000000000284000
  0
ACAD_PROXY_OBJECT
  5
63
102
{ACAD_REACTORS
330
47
102
}
330
47
100
AcDbProxyObject
 90
      499
 91
      503
 93
      241
310
90C332F3422203D2031272D30220000000000003A0FC000000000000284000
  0
ACAD_PROXY_OBJECT
  5
64
102
{ACAD_REACTORS
330
47
102
}
330
47
100
AcDbProxyObject
 90
      499
 91
      503
 93
      161
310
90A3122203D2031272D30224000000000000284000
  0
ACAD_PROXY_OBJECT
  5
65
102
{ACAD_REACTORS
330
47
102
}
330
47
100
AcDbProxyObject
 90
      499
 91
      503
 93
      257
310
90E312D312F3222203D2031272D30220000000000003E0FC000000000000284000
  0
ACAD_PROXY_OBJECT
  5
66
102
{ACAD_REACTORS
330
47
102
}
330
47
100
AcDbProxyObject
 90
      499
 91
      503
 93
      225
310
90A3322203D2031272D302200000000000002100000000000000284000
  0
ACAD_PROXY_OBJECT
  5
67
102
{ACAD_REACTORS
330
47
102
}
330
47
100
AcDbProxyObject
 90
      499
 91
      503
 93
      225
310
90A3622203D2031272D302200000000000006100000000000000284000
  0
ACAD_PROXY_OBJECT
  5
68
102
{ACAD_REACTORS
330
47
102
}
330
47
100
AcDbProxyObject
 90
      499
 91
      503
 93
      249
310
90D31272D3022203D2031272D30220000000000000A100000000000000284000
  0
ACAD_PROXY_OBJECT
  5
2F
102
{ACAD_REACTORS
330
2A
102
}
330
2A
100
AcDbProxyObject
 90
      499
 91
      501
 93
      436
310
42CC9915DA5C99599C985B595049028333333333333E33F0000000000000F90107901411070040501600405405064090741402480A0340
1001
ACAD
1000
AcDbSavedByObjectVersion
1070
     0
  0
ACAD_PROXY_OBJECT
  5
32
102
{ACAD_REACTORS
330
2A
102
}
330
2A
100
AcDbProxyObject
 90
      499
 91
      501
 93
      388
310
4150985CDA58D07406404333333333333E33F0000000000000F90107A41107004050150841D405064090741402480A0350
1001
ACAD
1000
AcDbSavedByObjectVersion
1070
     0
  0
ACAD_PROXY_OBJECT
  5
36
102
{ACAD_REACTORS
330
2A
102
}
330
2A
100
AcDbProxyObject
 90
      499
 91
      501
 93
      428
310
42109C9A59DA1D195B90C409028333333333333E33F0000000000000F9010790141107004050150841D405064090741402480A029950
1001
ACAD
1000
AcDbSavedByObjectVersion
1070
     0
  0
ACAD_PROXY_OBJECT
  5
3A
102
{ACAD_REACTORS
330
2A
102
}
330
2A
100
AcDbProxyObject
 90
      499
 91
      501
 93
      452
310
42D0DBDB1BDC90DA185B99D95104090240C333333333333E33F0000000000000F90108901411070040501508421405064090741402480A0350
1001
ACAD
1000
AcDbSavedByObjectVersion
1070
     0
  0
ACAD_PROXY_OBJECT
  5
34
102
{ACAD_REACTORS
330
2A
102
}
330
2A
100
AcDbProxyObject
 90
      499
 91
      501
 93
      500
310
4290DBDB98D95C1D1D585B10940D028333333333333E33F0000000000000F90107902409070040501000000000018199010841D405064090740C02480A0340
1001
ACAD
1000
AcDbSavedByObjectVersion
1070
     0
  0
ACAD_PROXY_OBJECT
  5
35
102
{ACAD_REACTORS
330
2A
102
}
330
2A
100
AcDbProxyObject
 90
      499
 91
      501
 93
      412
310
40D11A5B50B409028333333333333E33F0000000000000F9010790141107004050150841D405064090741402480A02677FFFFFD0
1001
ACAD
1000
AcDbSavedByObjectVersion
1070
     0
  0
ACAD_PROXY_OBJECT
  5
3D
102
{ACAD_REACTORS
330
2A
102
}
330
2A
100
AcDbProxyObject
 90
      499
 91
      501
 93
      452
310
43115919D950DBDB1BDC93D999916409028333333333333E33F0000000000000F9010790141107004050150841D405064090741402480A0350
1001
ACAD
1000
AcDbSavedByObjectVersion
1070
     0
  0
ACAD_PROXY_OBJECT
  5
39
102
{ACAD_REACTORS
330
2A
102
}
330
2A
100
AcDbProxyObject
 90
      499
 91
      501
 93
      444
310
42D19858D95C185D1D195C9B90F409028333333333333E33F0000000000000F9010790141107004050150841D405064090741402480A0350
1001
ACAD
1000
AcDbSavedByObjectVersion
1070
     0
  0
ACAD_PROXY_OBJECT
  5
2B
102
{ACAD_REACTORS
330
2A
102
}
330
2A
100
AcDbProxyObject
 90
      499
 91
      501
 93
      380
310
41119B185D240901404333333333333E33F0000000000000F9010740A907004050150841D405064090741402480A1B50
1001
ACAD
1000
AcDbSavedByObjectVersion
1070
     0
  0
ACAD_PROXY_OBJECT
  5
2C
102
{ACAD_REACTORS
330
2A
102
}
330
2A
100
AcDbProxyObject
 90
      499
 91
      501
 93
      468
310
43519B185D15DA5D1A115919D95CD0140901404333333333333E33F0000000000000F90107409019070040501600405405064090741402480A1B50
1001
ACAD
1000
AcDbSavedByObjectVersion
1070
     0
  0
ACAD_PROXY_OBJECT
  5
2D
102
{ACAD_REACTORS
330
2A
102
}
330
2A
100
AcDbProxyObject
 90
      499
 91
      501
 93
      404
310
41D1DBDD5C985D5910240902404333333333333E33F0000000000000F9010740A9070040501641D405064090741402480A1B50
1001
ACAD
1000
AcDbSavedByObjectVersion
1070
     0
  0
ACAD_PROXY_OBJECT
  5
2E
102
{ACAD_REACTORS
330
2A
102
}
330
2A
100
AcDbProxyObject
 90
      499
 91
      501
 93
      492
310
4411DBDD5C985D5915DA5D1A115919D95CD0340902404333333333333E33F0000000000000F90107409019070040501600405405064090741402480A1B50
1001
ACAD
1000
AcDbSavedByObjectVersion
1070
     0
  0
ACAD_PROXY_OBJECT
  5
31
102
{ACAD_REACTORS
330
2A
102
}
330
2A
100
AcDbProxyObject
 90
      499
 91
      501
 93
      476
310
41921A5919195B90640502408333333333333E33F0000000000000F901079024090700405020000000000001110200405405064090740C02480A0340
1001
ACAD
1000
AcDbSavedByObjectVersion
1070
     0
  0
ACAD_PROXY_OBJECT
  5
3B
102
{ACAD_REACTORS
330
2A
102
}
330
2A
100
AcDbProxyObject
 90
      499
 91
      501
 93
      428
310
42529A5D1D195C93D999914409028333333333333E33F0000000000000F9010790141107004050150A41D405064090741402480A0350
1001
ACAD
1000
AcDbSavedByObjectVersion
1070
     0
  0
ACAD_PROXY_OBJECT
  5
38
102
{ACAD_REACTORS
330
2A
102
}
330
2A
100
AcDbProxyObject
 90
      499
 91
      501
 93
      444
310
42D31A5B995C185D1D195C9B90E409028333333333333E33F0000000000000F9010790141107004050750841D405064090741402483A0350
1001
ACAD
1000
AcDbSavedByObjectVersion
1070
     0
  0
ACAD_PROXY_OBJECT
  5
3C
102
{ACAD_REACTORS
330
2A
102
}
330
2A
100
AcDbProxyObject
 90
      499
 91
      501
 93
      444
310
42D3DD995C9A185B99D3D999915409028333333333333E33F0000000000000F9010790141107004050150941D405064090741402480A0350
1001
ACAD
1000
AcDbSavedByObjectVersion
1070
     0
  0
ACAD_PROXY_OBJECT
  5
33
102
{ACAD_REACTORS
330
2A
102
}
330
2A
100
AcDbProxyObject
 90
      499
 91
      501
 93
      428
310
425499585B1A5CDD1A58D08409038333333333333E33F0000000000000F9010740A907004050150800405405064090740C02480A1B40
1001
ACAD
1000
AcDbSavedByObjectVersion
1070
     0
  0
ACAD_PROXY_OBJECT
  5
42
102
{ACAD_REACTORS
330
2A
102
}
330
2A
100
AcDbProxyObject
 90
      499
 91
      501
 93
      420
310
4194DA1859195911B40902404333333333333E33F0000000000000F9010740A41107004050150800405405064090840C02480A0B40
1001
ACAD
1000
AcDbSavedByObjectVersion
1070
     0
  0
ACAD_PROXY_OBJECT
  5
41
102
{ACAD_REACTORS
330
2A
102
}
330
2A
100
AcDbProxyObject
 90
      499
 91
      501
 93
      516
310
4454DA18591959081DDA5D1A08195919D95CD1A40902404333333333333E33F0000000000000F901074090142907004050250800405405064090740C02480A0B40
1001
ACAD
1000
AcDbSavedByObjectVersion
1070
     0
  0
ACAD_PROXY_OBJECT
  5
3E
102
{ACAD_REACTORS
330
2A
102
}
330
2A
100
AcDbProxyObject
 90
      499
 91
      501
 93
      532
310
4394DA1859195CC81BD98811DC985E5174090240C333333333333E33F0000000000000F901079024090741D01000000000000111010841D405064090740C02480A0340
1001
ACAD
1000
AcDbSavedByObjectVersion
1070
     0
  0
ACAD_PROXY_OBJECT
  5
3F
102
{ACAD_REACTORS
330
2A
102
}
330
2A
100
AcDbProxyObject
 90
      499
 91
      501
 93
      476
310
41D4DAD95D18DA1E51840502408333333333333E33F0000000000000F901079024090741D01000000000000111010B41D405064090741802480A0340
1001
ACAD
1000
AcDbSavedByObjectVersion
1070
     0
  0
ACAD_PROXY_OBJECT
  5
37
102
{ACAD_REACTORS
330
2A
102
}
330
2A
100
AcDbProxyObject
 90
      499
 91
      501
 93
      412
310
41D51A1A58DAD95B90D409028333333333333E33F0000000000000F9010790141107004050150C41D405064090741402480A0350
1001
ACAD
1000
AcDbSavedByObjectVersion
1070
     0
  0
ACAD_PROXY_OBJECT
  5
30
102
{ACAD_REACTORS
330
2A
102
}
330
2A
100
AcDbProxyObject
 90
      499
 91
      501
 93
      420
310
4255DA5C99599C985B595059028333333333333E33F0000000000000F90107901411070040501600405405064090740C02480A0340
1001
ACAD
1000
AcDbSavedByObjectVersion
1070
     0
  0
ACAD_PROXY_OBJECT
  5
40
102
{ACAD_REACTORS
330
2A
102
}
330
2A
100
AcDbProxyObject
 90
      499
 91
      501
 93
      404
310
41560B54985E51940902404000000000000E03F0000000000000F9010740501907004050150841D405064090740C02480A1B40
1001
ACAD
1000
AcDbSavedByObjectVersion
1070
     0
  0
XRECORD
  5
237
102
{ACAD_REACTORS
330
22D
102
}
330
22D
100
AcDbXrecord
340
0
  0
XRECORD
  5
236
102
{ACAD_REACTORS
330
22D
102
}
330
22D
100
AcDbXrecord
 90
        0
  0
XRECORD
  5
24D
102
{ACAD_REACTORS
330
22D
102
}
330
22D
100
AcDbXrecord
1000
DSTYLE
1002
{
1070
   179
 70
     2
1070
   171
 70
     2
1070
   143
 40
25.4
1070
   274
 70
     2
1070
    41
 40
3.0
1070
   141
 40
0.09
1070
    43
 40
0.38
1070
   278
 70
    46
1070
    44
 40
1.5
1070
    42
 40
0.0625
1070
   147
 40
1.5
1070
   272
 70
     4
1070
    73
 70
     1
1070
   172
 70
     0
1070
    74
 70
     1
1070
   283
 70
     1
1070
   340
340
6E
1070
   140
 40
3.0
1070
   284
 70
     0
1070
    78
 70
     0
1002
}
  0
XRECORD
  5
238
102
{ACAD_REACTORS
330
22D
102
}
330
22D
100
AcDbXrecord
  1
{D5DA0A96-B863-4791-BD0F-8CEF772F56AD}
  0
XRECORD
  5
230
102
{ACAD_REACTORS
330
22D
102
}
330
22D
100
AcDbXrecord
  1

  0
XRECORD
  5
235
102
{ACAD_REACTORS
330
22D
102
}
330
22D
100
AcDbXrecord
 90
        4
  0
XRECORD
  5
232
102
{ACAD_REACTORS
330
22D
102
}
330
22D
100
AcDbXrecord
340
1A
  0
XRECORD
  5
234
102
{ACAD_REACTORS
330
22D
102
}
330
22D
100
AcDbXrecord
 90
    10269
  0
XRECORD
  5
233
102
{ACAD_REACTORS
330
22D
102
}
330
22D
100
AcDbXrecord
340
19
  0
XRECORD
  5
23A
102
{ACAD_REACTORS
330
22D
102
}
330
22D
100
AcDbXrecord
 40
0.0
  0
XRECORD
  5
23D
102
{ACAD_REACTORS
330
22D
102
}
330
22D
100
AcDbXrecord
340
0
  0
XRECORD
  5
243
102
{ACAD_REACTORS
330
22D
102
}
330
22D
100
AcDbXrecord
 10
0.0
 20
0.0
 30
0.0
  0
XRECORD
  5
23F
102
{ACAD_REACTORS
330
22D
102
}
330
22D
100
AcDbXrecord
 10
0.0
 20
0.0
 30
0.0
  0
XRECORD
  5
242
102
{ACAD_REACTORS
330
22D
102
}
330
22D
100
AcDbXrecord
 10
0.0
 20
0.0
 30
0.0
  0
XRECORD
  5
240
102
{ACAD_REACTORS
330
22D
102
}
330
22D
100
AcDbXrecord
 10
0.0
 20
0.0
 30
0.0
  0
XRECORD
  5
241
102
{ACAD_REACTORS
330
22D
102
}
330
22D
100
AcDbXrecord
 10
0.0
 20
0.0
 30
0.0
  0
XRECORD
  5
23E
102
{ACAD_REACTORS
330
22D
102
}
330
22D
100
AcDbXrecord
 10
0.0
 20
0.0
 30
0.0
  0
XRECORD
  5
23B
102
{ACAD_REACTORS
330
22D
102
}
330
22D
100
AcDbXrecord
340
0
  0
XRECORD
  5
23C
102
{ACAD_REACTORS
330
22D
102
}
330
22D
100
AcDbXrecord
 70
     0
  0
XRECORD
  5
231
102
{ACAD_REACTORS
330
22D
102
}
330
22D
100
AcDbXrecord
  1

  0
XRECORD
  5
22E
102
{ACAD_REACTORS
330
22D
102
}
330
22D
100
AcDbXrecord
 90
        1
  0
XRECORD
  5
22F
102
{ACAD_REACTORS
330
22D
102
}
330
22D
100
AcDbXrecord
 90
       70
  0
XRECORD
  5
246
102
{ACAD_REACTORS
330
22D
102
}
330
22D
100
AcDbXrecord
340
0
  0
XRECORD
  5
24C
102
{ACAD_REACTORS
330
22D
102
}
330
22D
100
AcDbXrecord
 10
0.0
 20
0.0
 30
0.0
  0
XRECORD
  5
248
102
{ACAD_REACTORS
330
22D
102
}
330
22D
100
AcDbXrecord
 10
0.0
 20
0.0
 30
0.0
  0
XRECORD
  5
24B
102
{ACAD_REACTORS
330
22D
102
}
330
22D
100
AcDbXrecord
 10
0.0
 20
0.0
 30
0.0
  0
XRECORD
  5
249
102
{ACAD_REACTORS
330
22D
102
}
330
22D
100
AcDbXrecord
 10
0.0
 20
0.0
 30
0.0
  0
XRECORD
  5
24A
102
{ACAD_REACTORS
330
22D
102
}
330
22D
100
AcDbXrecord
 10
0.0
 20
0.0
 30
0.0
  0
XRECORD
  5
247
102
{ACAD_REACTORS
330
22D
102
}
330
22D
100
AcDbXrecord
 10
0.0
 20
0.0
 30
0.0
  0
XRECORD
  5
244
102
{ACAD_REACTORS
330
22D
102
}
330
22D
100
AcDbXrecord
340
0
  0
XRECORD
  5
245
102
{ACAD_REACTORS
330
22D
102
}
330
22D
100
AcDbXrecord
 70
     0
  0
XRECORD
  5
239
102
{ACAD_REACTORS
330
22D
102
}
330
22D
100
AcDbXrecord
  1
{FAEB1C32-E019-11D5-929B-00C0DF256EC4}
  0
DICTIONARYVAR
  5
257
102
{ACAD_REACTORS
330
24E
102
}
330
24E
100
DictionaryVariables
280
     0
  1
1:1
  0
DICTIONARYVAR
  5
250
102
{ACAD_REACTORS
330
24E
102
}
330
24E
100
DictionaryVariables
280
     0
  1
Standard
  0
DICTIONARYVAR
  5
24F
102
{ACAD_REACTORS
330
24E
102
}
330
24E
100
DictionaryVariables
280
     0
  1
Standard
  0
DICTIONARYVAR
  5
253
102
{ACAD_REACTORS
330
24E
102
}
330
24E
100
DictionaryVariables
280
     0
  1
2
  0
DICTIONARYVAR
  5
254
102
{ACAD_REACTORS
330
24E
102
}
330
24E
100
DictionaryVariables
280
     0
  1
1
  0
DICTIONARYVAR
  5
258
102
{ACAD_REACTORS
330
24E
102
}
330
24E
100
DictionaryVariables
280
     0
  1
1
  0
DICTIONARY
  5
25B
330
45
100
AcDbDictionary
280
     1
  3
ACAD_XREC_ROUNDTRIP
360
25C
  0
DICTIONARY
  5
259
330
44
100
AcDbDictionary
280
     1
  3
ACAD_XREC_ROUNDTRIP
360
25A
  0
DICTIONARY
  5
25D
330
46
100
AcDbDictionary
280
     1
  3
ACAD_XREC_ROUNDTRIP
360
25E
  0
XRECORD
  5
25C
102
{ACAD_REACTORS
330
25B
102
}
330
25B
100
AcDbXrecord
102
MATERIAL
148
0.0
149
0.0
149
0.0
 93
        0
 94
      127
282
     0
 72
     1
 77
     1
171
     1
175
     1
179
     1
273
     0
  0
XRECORD
  5
25A
102
{ACAD_REACTORS
330
259
102
}
330
259
100
AcDbXrecord
102
MATERIAL
148
0.0
149
0.0
149
0.0
 93
        0
 94
      127
282
     0
 72
     1
 77
     1
171
     1
175
     1
179
     1
273
     0
  0
XRECORD
  5
25E
102
{ACAD_REACTORS
330
25D
102
}
330
25D
100
AcDbXrecord
102
MATERIAL
148
0.0
149
0.0
149
0.0
 93
        0
 94
      127
282
     0
 72
     1
 77
     1
171
     1
175
     1
179
     1
273
     0
  0
ENDSEC
  0
EOF
