  0
SECTION
  2
HEADER
  9
$ACADVER
  1
AC1006
  9
$DWGCODEPAGE
  3
ansi_932
  9
$INSBASE
 10
0.0
 20
0.0
 30
0.0
  9
$EXTMIN
 10
0.0
 20
0.0
  9
$EXTMAX
 10
889.9154905622382
 20
327.0000000000001
  9
$LIMMIN
 10
0.0
 20
0.0
  9
$LIMMAX
 10
12.0
 20
9.0
  9
$ORTHOMODE
 70
     0
  9
$REGENMODE
 70
     1
  9
$FILLMODE
 70
     1
  9
$QTEXTMODE
 70
     0
  9
$MIRRTEXT
 70
     1
  9
$DRAGMODE
 70
     2
  9
$LTSCALE
 40
1.0
  9
$OSMODE
 70
    37
  9
$ATTMODE
 70
     1
  9
$TEXTSIZE
 40
0.2
  9
$TRACEWID
 40
0.05
  9
$TEXTSTYLE
  7
STANDARD
  9
$CLAYER
  8
0
  9
$CELTYPE
  6
BYLAYER
  9
$CECOLOR
 62
   256
  9
$DIMSCALE
 40
1.0
  9
$DIMASZ
 40
3.0
  9
$DIMEXO
 40
0.0625
  9
$DIMDLI
 40
0.38
  9
$DIMRND
 40
0.0
  9
$DIMDLE
 40
0.0
  9
$DIMEXE
 40
1.5
  9
$DIMTP
 40
0.0
  9
$DIMTM
 40
0.0
  9
$DIMTXT
 40
3.0
  9
$DIMCEN
 40
0.09
  9
$DIMTSZ
 40
0.0
  9
$DIMTOL
 70
     0
  9
$DIMLIM
 70
     0
  9
$DIMTIH
 70
     1
  9
$DIMTOH
 70
     1
  9
$DIMSE1
 70
     0
  9
$DIMSE2
 70
     0
  9
$DIMTAD
 70
     1
  9
$DIMZIN
 70
     0
  9
$DIMBLK
  1

  9
$DIMASO
 70
     1
  9
$DIMSHO
 70
     1
  9
$DIMPOST
  1

  9
$DIMAPOST
  1

  9
$DIMALT
 70
     0
  9
$DIMALTD
 70
     2
  9
$DIMALTF
 40
25.4
  9
$DIMLFAC
 40
1.0
  9
$DIMTOFL
 70
     0
  9
$DIMTVP
 40
0.0
  9
$DIMTIX
 70
     0
  9
$DIMSOXD
 70
     0
  9
$DIMSAH
 70
     0
  9
$DIMBLK1
  1

  9
$DIMBLK2
  1

  9
$LUNITS
 70
     2
  9
$LUPREC
 70
     4
  9
$SKETCHINC
 40
0.1
  9
$FILLETRAD
 40
0.5
  9
$AUNITS
 70
     0
  9
$AUPREC
 70
     0
  9
$MENU
  1
.
  9
$ELEVATION
 40
0.0
  9
$THICKNESS
 40
0.0
  9
$LIMCHECK
 70
     0
  9
$CHAMFERA
 40
0.0
  9
$CHAMFERB
 40
0.0
  9
$SKPOLY
 70
     0
  9
$TDCREATE
 40
2460455.751121447
  9
$TDUPDATE
 40
2460455.751121736
  9
$TDINDWG
 40
0.0000000116
  9
$TDUSRTIMER
 40
0.0000000116
  9
$USRTIMER
 70
     1
  9
$ANGBASE
 50
0.0
  9
$ANGDIR
 70
     0
  9
$PDMODE
 70
     0
  9
$PDSIZE
 40
0.0
  9
$PLINEWID
 40
0.0
  9
$COORDS
 70
     1
  9
$SPLFRAME
 70
     0
  9
$SPLINETYPE
 70
     6
  9
$SPLINESEGS
 70
     8
  9
$ATTDIA
 70
     0
  9
$ATTREQ
 70
     1
  9
$HANDLING
 70
     1
  9
$HANDSEED
  5
56A
  9
$SURFTAB1
 70
     6
  9
$SURFTAB2
 70
     6
  9
$SURFTYPE
 70
     6
  9
$SURFU
 70
     6
  9
$SURFV
 70
     6
  9
$UCSNAME
  2

  9
$UCSORG
 10
0.0
 20
0.0
 30
0.0
  9
$UCSXDIR
 10
1.0
 20
0.0
 30
0.0
  9
$UCSYDIR
 10
0.0
 20
1.0
 30
0.0
  9
$USERI1
 70
     0
  9
$USERI2
 70
     0
  9
$USERI3
 70
     0
  9
$USERI4
 70
     0
  9
$USERI5
 70
     0
  9
$USERR1
 40
0.0
  9
$USERR2
 40
0.0
  9
$USERR3
 40
0.0
  9
$USERR4
 40
0.0
  9
$USERR5
 40
0.0
  9
$WORLDVIEW
 70
     1
  0
ENDSEC
  0
SECTION
  2
TABLES
  0
TABLE
  2
VPORT
 70
     1
  0
VPORT
  2
*ACTIVE
 70
     0
 10
0.0
 20
0.0
 11
1.0
 21
1.0
 12
444.9577452811191
 22
163.5
 13
0.0
 23
0.0
 14
0.5
 24
0.5
 15
0.5
 25
0.5
 16
0.0
 26
0.0
 36
1.0
 17
0.0
 27
0.0
 37
0.0
 40
327.0000000000001
 41
1.6
 42
50.0
 43
0.0
 44
0.0
 50
0.0
 51
0.0
 71
     0
 72
   100
 73
     1
 74
     3
 75
     0
 76
     0
 77
     0
 78
     0
  0
ENDTAB
  0
TABLE
  2
LTYPE
 70
     2
  0
LTYPE
  2
CONTINUOUS
 70
     0
  3
Solid line
 72
    65
 73
     0
 40
0.0
  0
LTYPE
  2
CENTER
 70
     0
  3

 72
    65
 73
     0
 40
0.0
  0
ENDTAB
  0
TABLE
  2
LAYER
 70
     2
  0
LAYER
  2
0
 70
     0
 62
     7
  6
CONTINUOUS
  0
LAYER
  2
1
 70
     0
 62
     7
  6
CONTINUOUS
  0
ENDTAB
  0
TABLE
  2
STYLE
 70
     2
  0
STYLE
  2
STANDARD
 70
     0
 40
0.0
 41
1.0
 50
0.0
 71
     0
 42
0.2
  3
txt
  4

  0
STYLE
  2
ＭＳ_ゴシック
 70
     0
 40
0.0
 41
1.0
 50
0.0
 71
     0
 42
0.2
  3
ＭＳ ゴシック.shx
  4

  0
ENDTAB
  0
TABLE
  2
VIEW
 70
     0
  0
ENDTAB
  0
TABLE
  2
UCS
 70
     0
  0
ENDTAB
  0
ENDSEC
  0
SECTION
  2
BLOCKS
  0
BLOCK
  8
0
  2
D_FRAME_VIEW_2185
 70
     0
 10
0.0
 20
0.0
 30
0.0
  0
ARC
  5
73
  8
1
  6
CONTINUOUS
 62
     9
 10
600.0
 20
168.3371644455046
 30
0.0
 40
3.000000000000052
 50
354.2966587844267
 51
29.92643486661445
  0
LINE
  5
74
  8
1
  6
CONTINUOUS
 62
     7
 10
589.4999999999999
 20
143.1256516370223
 30
0.0
 11
589.4999999999999
 21
9.550000000000031
 31
0.0
  0
LINE
  5
75
  8
1
  6
CONTINUOUS
 62
     7
 10
610.5
 20
143.1256516370223
 30
0.0
 11
610.5
 21
9.550000000000031
 31
0.0
  0
LINE
  5
76
  8
1
  6
CONTINUOUS
 62
     7
 10
612.0999999999999
 20
143.1256516370224
 30
0.0
 11
612.0999999999999
 21
9.549999999999976
 31
0.0
  0
LINE
  5
77
  8
1
  6
CONTINUOUS
 62
     7
 10
587.9
 20
143.1256516370224
 30
0.0
 11
587.9
 21
9.549999999999976
 31
0.0
  0
ARC
  5
78
  8
1
  6
CONTINUOUS
 62
     7
 10
594.4433649313444
 20
130.5516260942061
 30
0.0
 40
4.660770128965022
 50
198.1431383970525
 51
276.859198647922
  0
POLYLINE
  5
79
  8
1
  6
CONTINUOUS
 62
     7
 66
     1
 10
0.0
 20
0.0
 30
0.0
  0
VERTEX
  5
263
  8
1
  6
CONTINUOUS
 62
     7
 10
590.0143210607814
 20
129.100299601758
 30
0.0
  0
VERTEX
  5
264
  8
1
  6
CONTINUOUS
 62
     7
 10
590.0035826823689
 20
129.2256827810045
 30
0.0
  0
VERTEX
  5
265
  8
1
  6
CONTINUOUS
 62
     7
 10
590.0
 20
129.3507981563941
 30
0.0
  0
SEQEND
  5
525
  8
1
  6
CONTINUOUS
 62
     7
  0
ARC
  5
7A
  8
1
  6
CONTINUOUS
 62
     7
 10
594.1922534179457
 20
130.4847950208186
 30
0.0
 40
4.280862037748401
 50
191.6778252796306
 51
273.423871506633
  0
POLYLINE
  5
7B
  8
1
  6
CONTINUOUS
 62
     7
 66
     1
 10
0.0
 20
0.0
 30
0.0
  0
VERTEX
  5
266
  8
1
  6
CONTINUOUS
 62
     7
 10
594.4479162226169
 20
126.2115741844302
 30
0.0
  0
VERTEX
  5
267
  8
1
  6
CONTINUOUS
 62
     7
 10
594.6315044295962
 20
126.1995279245955
 30
0.0
  0
VERTEX
  5
268
  8
1
  6
CONTINUOUS
 62
     7
 10
594.815657907155
 20
126.1922877627759
 30
0.0
  0
VERTEX
  5
269
  8
1
  6
CONTINUOUS
 62
     7
 10
595.0
 20
126.1898706161333
 30
0.0
  0
SEQEND
  5
526
  8
1
  6
CONTINUOUS
 62
     7
  0
ARC
  5
7C
  8
1
  6
CONTINUOUS
 62
     7
 10
605.55654198203
 20
130.8166506307214
 30
0.0
 40
4.660132217132211
 50
263.1410106447499
 51
341.8847447321037
  0
POLYLINE
  5
7D
  8
1
  6
CONTINUOUS
 62
     7
 66
     1
 10
0.0
 20
0.0
 30
0.0
  0
VERTEX
  5
26A
  8
1
  6
CONTINUOUS
 62
     7
 10
609.9856853271897
 20
129.3676780605248
 30
0.0
  0
VERTEX
  5
26B
  8
1
  6
CONTINUOUS
 62
     7
 10
609.996418900344
 20
129.4931279989616
 30
0.0
  0
VERTEX
  5
26C
  8
1
  6
CONTINUOUS
 62
     7
 10
610.0
 20
129.6183130152594
 30
0.0
  0
SEQEND
  5
527
  8
1
  6
CONTINUOUS
 62
     7
  0
LINE
  5
7E
  8
1
  6
CONTINUOUS
 62
     7
 10
595.0
 20
126.1898706161333
 30
0.0
 11
605.0
 21
126.1898706161333
 31
0.0
  0
ARC
  5
7F
  8
1
  6
CONTINUOUS
 62
     7
 10
605.8082444656287
 20
130.2189464724634
 30
0.0
 40
4.280712085462619
 50
266.5687803803369
 51
348.2989845545724
  0
POLYLINE
  5
80
  8
1
  6
CONTINUOUS
 62
     7
 66
     1
 10
0.0
 20
0.0
 30
0.0
  0
VERTEX
  5
26D
  8
1
  6
CONTINUOUS
 62
     7
 10
605.5520426024497
 20
125.9459081431327
 30
0.0
  0
VERTEX
  5
26E
  8
1
  6
CONTINUOUS
 62
     7
 10
605.3684680393619
 20
125.9338675479004
 30
0.0
  0
VERTEX
  5
26F
  8
1
  6
CONTINUOUS
 62
     7
 10
605.1843283099178
 20
125.9266307820444
 30
0.0
  0
VERTEX
  5
270
  8
1
  6
CONTINUOUS
 62
     7
 10
605.0
 20
125.9242147665419
 30
0.0
  0
SEQEND
  5
528
  8
1
  6
CONTINUOUS
 62
     7
  0
LINE
  5
81
  8
1
  6
CONTINUOUS
 62
     7
 10
595.0
 20
125.9242147665419
 30
0.0
 11
605.0
 21
125.9242147665419
 31
0.0
  0
LINE
  5
82
  8
1
  6
CONTINUOUS
 62
     7
 10
590.0
 20
9.26107831749845
 30
0.0
 11
610.0
 21
9.26107831749845
 31
0.0
  0
ARC
  5
83
  8
1
  6
CONTINUOUS
 62
     7
 10
600.0
 20
168.3371644455046
 30
0.0
 40
7.00000000000001
 50
242.7971055877856
 51
297.2028944122143
  0
POLYLINE
  5
84
  8
1
  6
CONTINUOUS
 62
     7
 66
     1
 10
0.0
 20
0.0
 30
0.0
  0
VERTEX
  5
271
  8
1
  6
CONTINUOUS
 62
     7
 10
600.0
 20
170.987107228133
 30
0.0
  0
VERTEX
  5
272
  8
1
  6
CONTINUOUS
 62
     7
 10
601.3656322541129
 20
171.0735641138958
 30
0.0
  0
VERTEX
  5
273
  8
1
  6
CONTINUOUS
 62
     7
 10
602.6787840265556
 20
171.32961228155
 30
0.0
  0
VERTEX
  5
274
  8
1
  6
CONTINUOUS
 62
     7
 10
603.8889916311372
 20
171.7454119436061
 30
0.0
  0
VERTEX
  5
275
  8
1
  6
CONTINUOUS
 62
     7
 10
604.9497474683059
 20
172.3049841522345
 30
0.0
  0
VERTEX
  5
276
  8
1
  6
CONTINUOUS
 62
     7
 10
605.8202872861178
 20
172.9868248612691
 30
0.0
  0
VERTEX
  5
277
  8
1
  6
CONTINUOUS
 62
     7
 10
606.467156727579
 20
173.7647313146426
 30
0.0
  0
VERTEX
  5
278
  8
1
  6
CONTINUOUS
 62
     7
 10
606.8654969628226
 20
174.6088090036067
 30
0.0
  0
VERTEX
  5
279
  8
1
  6
CONTINUOUS
 62
     7
 10
607.0
 20
175.4866204959388
 30
0.0
  0
SEQEND
  5
529
  8
1
  6
CONTINUOUS
 62
     7
  0
POLYLINE
  5
85
  8
1
  6
CONTINUOUS
 62
     7
 66
     1
 10
0.0
 20
0.0
 30
0.0
  0
VERTEX
  5
27A
  8
1
  6
CONTINUOUS
 62
     7
 10
593.0
 20
175.4866204959388
 30
0.0
  0
VERTEX
  5
27B
  8
1
  6
CONTINUOUS
 62
     7
 10
593.1345030371774
 20
174.6088090036067
 30
0.0
  0
VERTEX
  5
27C
  8
1
  6
CONTINUOUS
 62
     7
 10
593.532843272421
 20
173.7647313146426
 30
0.0
  0
VERTEX
  5
27D
  8
1
  6
CONTINUOUS
 62
     7
 10
594.1797127138822
 20
172.9868248612691
 30
0.0
  0
VERTEX
  5
27E
  8
1
  6
CONTINUOUS
 62
     7
 10
595.0502525316941
 20
172.3049841522345
 30
0.0
  0
VERTEX
  5
27F
  8
1
  6
CONTINUOUS
 62
     7
 10
596.1110083688628
 20
171.7454119436061
 30
0.0
  0
VERTEX
  5
280
  8
1
  6
CONTINUOUS
 62
     7
 10
597.3212159734444
 20
171.32961228155
 30
0.0
  0
VERTEX
  5
281
  8
1
  6
CONTINUOUS
 62
     7
 10
598.6343677458871
 20
171.0735641138958
 30
0.0
  0
VERTEX
  5
282
  8
1
  6
CONTINUOUS
 62
     7
 10
600.0
 20
170.987107228133
 30
0.0
  0
SEQEND
  5
52A
  8
1
  6
CONTINUOUS
 62
     7
  0
POLYLINE
  5
86
  8
1
  6
CONTINUOUS
 62
     7
 66
     1
 10
0.0
 20
0.0
 30
0.0
  0
VERTEX
  5
283
  8
1
  6
CONTINUOUS
 62
     7
 10
607.0
 20
175.4866204959388
 30
0.0
  0
VERTEX
  5
284
  8
1
  6
CONTINUOUS
 62
     7
 10
606.8654969628226
 20
176.3644319882708
 30
0.0
  0
VERTEX
  5
285
  8
1
  6
CONTINUOUS
 62
     7
 10
606.467156727579
 20
177.2085096772349
 30
0.0
  0
VERTEX
  5
286
  8
1
  6
CONTINUOUS
 62
     7
 10
605.8202872861178
 20
177.9864161306084
 30
0.0
  0
VERTEX
  5
287
  8
1
  6
CONTINUOUS
 62
     7
 10
604.9497474683059
 20
178.668256839643
 30
0.0
  0
VERTEX
  5
288
  8
1
  6
CONTINUOUS
 62
     7
 10
603.8889916311372
 20
179.2278290482714
 30
0.0
  0
VERTEX
  5
289
  8
1
  6
CONTINUOUS
 62
     7
 10
602.6787840265556
 20
179.6436287103275
 30
0.0
  0
VERTEX
  5
28A
  8
1
  6
CONTINUOUS
 62
     7
 10
601.3656322541129
 20
179.8996768779817
 30
0.0
  0
VERTEX
  5
28B
  8
1
  6
CONTINUOUS
 62
     7
 10
600.0
 20
179.9861337637445
 30
0.0
  0
VERTEX
  5
28C
  8
1
  6
CONTINUOUS
 62
     7
 10
598.6343677458871
 20
179.8996768779817
 30
0.0
  0
VERTEX
  5
28D
  8
1
  6
CONTINUOUS
 62
     7
 10
597.3212159734444
 20
179.6436287103275
 30
0.0
  0
VERTEX
  5
28E
  8
1
  6
CONTINUOUS
 62
     7
 10
596.1110083688627
 20
179.2278290482714
 30
0.0
  0
VERTEX
  5
28F
  8
1
  6
CONTINUOUS
 62
     7
 10
595.0502525316941
 20
178.668256839643
 30
0.0
  0
VERTEX
  5
290
  8
1
  6
CONTINUOUS
 62
     7
 10
594.1797127138822
 20
177.9864161306084
 30
0.0
  0
VERTEX
  5
291
  8
1
  6
CONTINUOUS
 62
     7
 10
593.532843272421
 20
177.2085096772349
 30
0.0
  0
VERTEX
  5
292
  8
1
  6
CONTINUOUS
 62
     7
 10
593.1345030371774
 20
176.3644319882708
 30
0.0
  0
VERTEX
  5
293
  8
1
  6
CONTINUOUS
 62
     7
 10
593.0
 20
175.4866204959388
 30
0.0
  0
SEQEND
  5
52B
  8
1
  6
CONTINUOUS
 62
     7
  0
POLYLINE
  5
87
  8
1
  6
CONTINUOUS
 62
     7
 66
     1
 10
0.0
 20
0.0
 30
0.0
  0
VERTEX
  5
294
  8
1
  6
CONTINUOUS
 62
     7
 10
593.0
 20
175.1035982743792
 30
0.0
  0
VERTEX
  5
295
  8
1
  6
CONTINUOUS
 62
     7
 10
593.1345030371774
 20
174.2257867820471
 30
0.0
  0
VERTEX
  5
296
  8
1
  6
CONTINUOUS
 62
     7
 10
593.532843272421
 20
173.381709093083
 30
0.0
  0
VERTEX
  5
297
  8
1
  6
CONTINUOUS
 62
     7
 10
594.1797127138822
 20
172.6038026397095
 30
0.0
  0
VERTEX
  5
298
  8
1
  6
CONTINUOUS
 62
     7
 10
595.0502525316941
 20
171.9219619306749
 30
0.0
  0
VERTEX
  5
299
  8
1
  6
CONTINUOUS
 62
     7
 10
596.1110083688628
 20
171.3623897220465
 30
0.0
  0
VERTEX
  5
29A
  8
1
  6
CONTINUOUS
 62
     7
 10
597.3212159734444
 20
170.9465900599905
 30
0.0
  0
VERTEX
  5
29B
  8
1
  6
CONTINUOUS
 62
     7
 10
598.6343677458871
 20
170.6905418923362
 30
0.0
  0
VERTEX
  5
29C
  8
1
  6
CONTINUOUS
 62
     7
 10
600.0
 20
170.6040850065734
 30
0.0
  0
SEQEND
  5
52C
  8
1
  6
CONTINUOUS
 62
     7
  0
POLYLINE
  5
88
  8
1
  6
CONTINUOUS
 62
     7
 66
     1
 10
0.0
 20
0.0
 30
0.0
  0
VERTEX
  5
29D
  8
1
  6
CONTINUOUS
 62
     7
 10
600.0
 20
170.6040850065734
 30
0.0
  0
VERTEX
  5
29E
  8
1
  6
CONTINUOUS
 62
     7
 10
601.3656322541129
 20
170.6905418923362
 30
0.0
  0
VERTEX
  5
29F
  8
1
  6
CONTINUOUS
 62
     7
 10
602.6787840265556
 20
170.9465900599905
 30
0.0
  0
VERTEX
  5
2A0
  8
1
  6
CONTINUOUS
 62
     7
 10
603.8889916311372
 20
171.3623897220465
 30
0.0
  0
VERTEX
  5
2A1
  8
1
  6
CONTINUOUS
 62
     7
 10
604.9497474683059
 20
171.9219619306749
 30
0.0
  0
VERTEX
  5
2A2
  8
1
  6
CONTINUOUS
 62
     7
 10
605.8202872861178
 20
172.6038026397095
 30
0.0
  0
VERTEX
  5
2A3
  8
1
  6
CONTINUOUS
 62
     7
 10
606.467156727579
 20
173.381709093083
 30
0.0
  0
VERTEX
  5
2A4
  8
1
  6
CONTINUOUS
 62
     7
 10
606.8654969628226
 20
174.2257867820471
 30
0.0
  0
VERTEX
  5
2A5
  8
1
  6
CONTINUOUS
 62
     7
 10
607.0
 20
175.1035982743792
 30
0.0
  0
SEQEND
  5
52D
  8
1
  6
CONTINUOUS
 62
     7
  0
LINE
  5
89
  8
1
  6
CONTINUOUS
 62
     7
 10
597.5
 20
170.8771021159626
 30
0.0
 11
597.598761631126
 21
170.8771021159626
 31
0.0
  0
LINE
  5
8A
  8
1
  6
CONTINUOUS
 62
     7
 10
602.4012383688739
 20
170.8771021159626
 30
0.0
 11
602.4999999999999
 21
170.8771021159626
 31
0.0
  0
POLYLINE
  5
8B
  8
1
  6
CONTINUOUS
 62
     7
 66
     1
 10
0.0
 20
0.0
 30
0.0
  0
VERTEX
  5
2A6
  8
1
  6
CONTINUOUS
 62
     7
 10
602.4999999999999
 20
170.8771021159626
 30
0.0
  0
VERTEX
  5
2A7
  8
1
  6
CONTINUOUS
 62
     7
 10
602.5937557559149
 20
170.8828028690013
 30
0.0
  0
VERTEX
  5
2A8
  8
1
  6
CONTINUOUS
 62
     7
 10
602.6841855086378
 20
170.8997028928239
 30
0.0
  0
VERTEX
  5
2A9
  8
1
  6
CONTINUOUS
 62
     7
 10
602.7680812455693
 20
170.9272026558858
 30
0.0
  0
VERTEX
  5
2AA
  8
1
  6
CONTINUOUS
 62
     7
 10
602.8424667495574
 20
170.9643265988855
 30
0.0
  0
VERTEX
  5
2AB
  8
1
  6
CONTINUOUS
 62
     7
 10
602.9047031807647
 20
171.0097577429164
 30
0.0
  0
SEQEND
  5
52E
  8
1
  6
CONTINUOUS
 62
     7
  0
POLYLINE
  5
8C
  8
1
  6
CONTINUOUS
 62
     7
 66
     1
 10
0.0
 20
0.0
 30
0.0
  0
VERTEX
  5
2AC
  8
1
  6
CONTINUOUS
 62
     7
 10
597.0952968192354
 20
171.0097577429164
 30
0.0
  0
VERTEX
  5
2AD
  8
1
  6
CONTINUOUS
 62
     7
 10
597.1575332504426
 20
170.9643265988855
 30
0.0
  0
VERTEX
  5
2AE
  8
1
  6
CONTINUOUS
 62
     7
 10
597.2319187544308
 20
170.9272026558858
 30
0.0
  0
VERTEX
  5
2AF
  8
1
  6
CONTINUOUS
 62
     7
 10
597.3158144913622
 20
170.899702892824
 30
0.0
  0
VERTEX
  5
2B0
  8
1
  6
CONTINUOUS
 62
     7
 10
597.406244244085
 20
170.8828028690013
 30
0.0
  0
VERTEX
  5
2B1
  8
1
  6
CONTINUOUS
 62
     7
 10
597.5
 20
170.8771021159626
 30
0.0
  0
SEQEND
  5
52F
  8
1
  6
CONTINUOUS
 62
     7
  0
ARC
  5
8D
  8
1
  6
CONTINUOUS
 62
     7
 10
600.0
 20
167.740897786791
 30
0.0
 40
2.600000000000047
 50
180.0
 51
0.0
  0
ARC
  5
8E
  8
1
  6
CONTINUOUS
 62
     7
 10
600.0
 20
167.740897786791
 30
0.0
 40
3.000000000000052
 50
150.0735651333857
 51
29.92643486661438
  0
ARC
  5
8F
  8
1
  6
CONTINUOUS
 62
     7
 10
600.0
 20
170.35
 30
0.0
 40
3.199999999999981
 50
166.910044422074
 51
180.0
  0
ARC
  5
90
  8
1
  6
CONTINUOUS
 62
     7
 10
600.0
 20
170.35
 30
0.0
 40
3.199999999999969
 50
0.0
 51
13.08995557792605
  0
LINE
  5
91
  8
1
  6
CONTINUOUS
 62
     7
 10
612.0
 20
166.7651171584502
 30
0.0
 11
604.1999999999999
 21
166.7651171584502
 31
0.0
  0
LINE
  5
92
  8
1
  6
CONTINUOUS
 62
     7
 10
612.0
 20
164.3137749404694
 30
0.0
 11
604.1999999999999
 21
164.3137749404694
 31
0.0
  0
LINE
  5
93
  8
1
  6
CONTINUOUS
 62
     7
 10
588.0
 20
164.3137749404694
 30
0.0
 11
595.8
 21
164.3137749404694
 31
0.0
  0
LINE
  5
94
  8
1
  6
CONTINUOUS
 62
     7
 10
588.0
 20
166.7651171584502
 30
0.0
 11
595.8
 21
166.7651171584502
 31
0.0
  0
POLYLINE
  5
95
  8
1
  6
CONTINUOUS
 62
     7
 66
     1
 10
0.0
 20
0.0
 30
0.0
  0
VERTEX
  5
2B2
  8
1
  6
CONTINUOUS
 62
     7
 10
603.1999999999999
 20
164.956562550156
 30
0.0
  0
VERTEX
  5
2B3
  8
1
  6
CONTINUOUS
 62
     7
 10
603.2192147195967
 20
164.8311609083943
 30
0.0
  0
VERTEX
  5
2B4
  8
1
  6
CONTINUOUS
 62
     7
 10
603.2761204674887
 20
164.7105783813994
 30
0.0
  0
VERTEX
  5
2B5
  8
1
  6
CONTINUOUS
 62
     7
 10
603.3685303876973
 20
164.5994488880604
 30
0.0
  0
VERTEX
  5
2B6
  8
1
  6
CONTINUOUS
 62
     7
 10
603.4928932188134
 20
164.502043072484
 30
0.0
  0
VERTEX
  5
2B7
  8
1
  6
CONTINUOUS
 62
     7
 10
603.6444297669804
 20
164.4221041855371
 30
0.0
  0
VERTEX
  5
2B8
  8
1
  6
CONTINUOUS
 62
     7
 10
603.8173165676349
 20
164.3627042338148
 30
0.0
  0
VERTEX
  5
2B9
  8
1
  6
CONTINUOUS
 62
     7
 10
604.0049096779838
 20
164.3261259241499
 30
0.0
  0
VERTEX
  5
2BA
  8
1
  6
CONTINUOUS
 62
     7
 10
604.1999999999999
 20
164.3137749404694
 30
0.0
  0
SEQEND
  5
530
  8
1
  6
CONTINUOUS
 62
     7
  0
POLYLINE
  5
96
  8
1
  6
CONTINUOUS
 62
     7
 66
     1
 10
0.0
 20
0.0
 30
0.0
  0
VERTEX
  5
2BB
  8
1
  6
CONTINUOUS
 62
     7
 10
603.1999999999999
 20
167.4079047681367
 30
0.0
  0
VERTEX
  5
2BC
  8
1
  6
CONTINUOUS
 62
     7
 10
603.2192147195967
 20
167.282503126375
 30
0.0
  0
VERTEX
  5
2BD
  8
1
  6
CONTINUOUS
 62
     7
 10
603.2761204674887
 20
167.1619205993801
 30
0.0
  0
VERTEX
  5
2BE
  8
1
  6
CONTINUOUS
 62
     7
 10
603.3685303876973
 20
167.0507911060411
 30
0.0
  0
VERTEX
  5
2BF
  8
1
  6
CONTINUOUS
 62
     7
 10
603.4928932188134
 20
166.9533852904647
 30
0.0
  0
VERTEX
  5
2C0
  8
1
  6
CONTINUOUS
 62
     7
 10
603.6444297669802
 20
166.8734464035178
 30
0.0
  0
VERTEX
  5
2C1
  8
1
  6
CONTINUOUS
 62
     7
 10
603.8173165676347
 20
166.8140464517955
 30
0.0
  0
VERTEX
  5
2C2
  8
1
  6
CONTINUOUS
 62
     7
 10
604.0049096779837
 20
166.7774681421306
 30
0.0
  0
VERTEX
  5
2C3
  8
1
  6
CONTINUOUS
 62
     7
 10
604.1999999999998
 20
166.7651171584502
 30
0.0
  0
SEQEND
  5
531
  8
1
  6
CONTINUOUS
 62
     7
  0
POLYLINE
  5
97
  8
1
  6
CONTINUOUS
 62
     7
 66
     1
 10
0.0
 20
0.0
 30
0.0
  0
VERTEX
  5
2C4
  8
1
  6
CONTINUOUS
 62
     7
 10
595.8
 20
164.3137749404694
 30
0.0
  0
VERTEX
  5
2C5
  8
1
  6
CONTINUOUS
 62
     7
 10
595.995090322016
 20
164.3261259241499
 30
0.0
  0
VERTEX
  5
2C6
  8
1
  6
CONTINUOUS
 62
     7
 10
596.182683432365
 20
164.3627042338148
 30
0.0
  0
VERTEX
  5
2C7
  8
1
  6
CONTINUOUS
 62
     7
 10
596.3555702330195
 20
164.4221041855371
 30
0.0
  0
VERTEX
  5
2C8
  8
1
  6
CONTINUOUS
 62
     7
 10
596.5071067811865
 20
164.502043072484
 30
0.0
  0
VERTEX
  5
2C9
  8
1
  6
CONTINUOUS
 62
     7
 10
596.6314696123026
 20
164.5994488880604
 30
0.0
  0
VERTEX
  5
2CA
  8
1
  6
CONTINUOUS
 62
     7
 10
596.7238795325112
 20
164.7105783813994
 30
0.0
  0
VERTEX
  5
2CB
  8
1
  6
CONTINUOUS
 62
     7
 10
596.7807852804032
 20
164.8311609083943
 30
0.0
  0
VERTEX
  5
2CC
  8
1
  6
CONTINUOUS
 62
     7
 10
596.8
 20
164.956562550156
 30
0.0
  0
SEQEND
  5
532
  8
1
  6
CONTINUOUS
 62
     7
  0
POLYLINE
  5
98
  8
1
  6
CONTINUOUS
 62
     7
 66
     1
 10
0.0
 20
0.0
 30
0.0
  0
VERTEX
  5
2CD
  8
1
  6
CONTINUOUS
 62
     7
 10
595.8000000000001
 20
166.7651171584502
 30
0.0
  0
VERTEX
  5
2CE
  8
1
  6
CONTINUOUS
 62
     7
 10
595.9950903220162
 20
166.7774681421306
 30
0.0
  0
VERTEX
  5
2CF
  8
1
  6
CONTINUOUS
 62
     7
 10
596.1826834323651
 20
166.8140464517955
 30
0.0
  0
VERTEX
  5
2D0
  8
1
  6
CONTINUOUS
 62
     7
 10
596.3555702330196
 20
166.8734464035178
 30
0.0
  0
VERTEX
  5
2D1
  8
1
  6
CONTINUOUS
 62
     7
 10
596.5071067811865
 20
166.9533852904647
 30
0.0
  0
VERTEX
  5
2D2
  8
1
  6
CONTINUOUS
 62
     7
 10
596.6314696123026
 20
167.0507911060411
 30
0.0
  0
VERTEX
  5
2D3
  8
1
  6
CONTINUOUS
 62
     7
 10
596.7238795325112
 20
167.1619205993801
 30
0.0
  0
VERTEX
  5
2D4
  8
1
  6
CONTINUOUS
 62
     7
 10
596.7807852804032
 20
167.282503126375
 30
0.0
  0
VERTEX
  5
2D5
  8
1
  6
CONTINUOUS
 62
     7
 10
596.8
 20
167.4079047681367
 30
0.0
  0
SEQEND
  5
533
  8
1
  6
CONTINUOUS
 62
     7
  0
POLYLINE
  5
99
  8
1
  6
CONTINUOUS
 62
     7
 66
     1
 10
0.0
 20
0.0
 30
0.0
  0
VERTEX
  5
2D6
  8
1
  6
CONTINUOUS
 62
     7
 10
612.0
 20
164.3137749404694
 30
0.0
  0
VERTEX
  5
2D7
  8
1
  6
CONTINUOUS
 62
     7
 10
612.9754516100807
 20
164.3755298588714
 30
0.0
  0
VERTEX
  5
2D8
  8
1
  6
CONTINUOUS
 62
     7
 10
613.9134171618255
 20
164.5584214071959
 30
0.0
  0
VERTEX
  5
2D9
  8
1
  6
CONTINUOUS
 62
     7
 10
614.777851165098
 20
164.8554211658074
 30
0.0
  0
VERTEX
  5
2DA
  8
1
  6
CONTINUOUS
 62
     7
 10
615.5355339059328
 20
165.2551156005419
 30
0.0
  0
VERTEX
  5
2DB
  8
1
  6
CONTINUOUS
 62
     7
 10
616.1573480615127
 20
165.7421446784238
 30
0.0
  0
VERTEX
  5
2DC
  8
1
  6
CONTINUOUS
 62
     7
 10
616.6193976625565
 20
166.2977921451191
 30
0.0
  0
VERTEX
  5
2DD
  8
1
  6
CONTINUOUS
 62
     7
 10
616.9039264020162
 20
166.9007047800935
 30
0.0
  0
VERTEX
  5
2DE
  8
1
  6
CONTINUOUS
 62
     7
 10
617.0
 20
167.5277129889021
 30
0.0
  0
SEQEND
  5
534
  8
1
  6
CONTINUOUS
 62
     7
  0
POLYLINE
  5
9A
  8
1
  6
CONTINUOUS
 62
     7
 66
     1
 10
0.0
 20
0.0
 30
0.0
  0
VERTEX
  5
2DF
  8
1
  6
CONTINUOUS
 62
     7
 10
612.0
 20
166.7651171584502
 30
0.0
  0
VERTEX
  5
2E0
  8
1
  6
CONTINUOUS
 62
     7
 10
612.9754516100807
 20
166.8268720768522
 30
0.0
  0
VERTEX
  5
2E1
  8
1
  6
CONTINUOUS
 62
     7
 10
613.9134171618255
 20
167.0097636251766
 30
0.0
  0
VERTEX
  5
2E2
  8
1
  6
CONTINUOUS
 62
     7
 10
614.777851165098
 20
167.3067633837881
 30
0.0
  0
VERTEX
  5
2E3
  8
1
  6
CONTINUOUS
 62
     7
 10
615.5355339059328
 20
167.7064578185226
 30
0.0
  0
VERTEX
  5
2E4
  8
1
  6
CONTINUOUS
 62
     7
 10
616.1573480615127
 20
168.1934868964045
 30
0.0
  0
VERTEX
  5
2E5
  8
1
  6
CONTINUOUS
 62
     7
 10
616.6193976625565
 20
168.7491343630999
 30
0.0
  0
VERTEX
  5
2E6
  8
1
  6
CONTINUOUS
 62
     7
 10
616.9039264020162
 20
169.3520469980742
 30
0.0
  0
VERTEX
  5
2E7
  8
1
  6
CONTINUOUS
 62
     7
 10
617.0
 20
169.9790552068828
 30
0.0
  0
SEQEND
  5
535
  8
1
  6
CONTINUOUS
 62
     7
  0
POLYLINE
  5
9B
  8
1
  6
CONTINUOUS
 62
     7
 66
     1
 10
0.0
 20
0.0
 30
0.0
  0
VERTEX
  5
2E8
  8
1
  6
CONTINUOUS
 62
     7
 10
583.0
 20
169.9790552068828
 30
0.0
  0
VERTEX
  5
2E9
  8
1
  6
CONTINUOUS
 62
     7
 10
583.0960735979838
 20
169.3520469980742
 30
0.0
  0
VERTEX
  5
2EA
  8
1
  6
CONTINUOUS
 62
     7
 10
583.3806023374435
 20
168.7491343630998
 30
0.0
  0
VERTEX
  5
2EB
  8
1
  6
CONTINUOUS
 62
     7
 10
583.8426519384873
 20
168.1934868964045
 30
0.0
  0
VERTEX
  5
2EC
  8
1
  6
CONTINUOUS
 62
     7
 10
584.4644660940672
 20
167.7064578185226
 30
0.0
  0
VERTEX
  5
2ED
  8
1
  6
CONTINUOUS
 62
     7
 10
585.222148834902
 20
167.3067633837881
 30
0.0
  0
VERTEX
  5
2EE
  8
1
  6
CONTINUOUS
 62
     7
 10
586.0865828381745
 20
167.0097636251766
 30
0.0
  0
VERTEX
  5
2EF
  8
1
  6
CONTINUOUS
 62
     7
 10
587.0245483899193
 20
166.8268720768522
 30
0.0
  0
VERTEX
  5
2F0
  8
1
  6
CONTINUOUS
 62
     7
 10
588.0
 20
166.7651171584502
 30
0.0
  0
SEQEND
  5
536
  8
1
  6
CONTINUOUS
 62
     7
  0
POLYLINE
  5
9C
  8
1
  6
CONTINUOUS
 62
     7
 66
     1
 10
0.0
 20
0.0
 30
0.0
  0
VERTEX
  5
2F1
  8
1
  6
CONTINUOUS
 62
     7
 10
583.0
 20
167.5277129889021
 30
0.0
  0
VERTEX
  5
2F2
  8
1
  6
CONTINUOUS
 62
     7
 10
583.0960735979838
 20
166.9007047800935
 30
0.0
  0
VERTEX
  5
2F3
  8
1
  6
CONTINUOUS
 62
     7
 10
583.3806023374435
 20
166.2977921451191
 30
0.0
  0
VERTEX
  5
2F4
  8
1
  6
CONTINUOUS
 62
     7
 10
583.8426519384873
 20
165.7421446784238
 30
0.0
  0
VERTEX
  5
2F5
  8
1
  6
CONTINUOUS
 62
     7
 10
584.4644660940672
 20
165.2551156005419
 30
0.0
  0
VERTEX
  5
2F6
  8
1
  6
CONTINUOUS
 62
     7
 10
585.222148834902
 20
164.8554211658074
 30
0.0
  0
VERTEX
  5
2F7
  8
1
  6
CONTINUOUS
 62
     7
 10
586.0865828381745
 20
164.5584214071959
 30
0.0
  0
VERTEX
  5
2F8
  8
1
  6
CONTINUOUS
 62
     7
 10
587.0245483899193
 20
164.3755298588714
 30
0.0
  0
VERTEX
  5
2F9
  8
1
  6
CONTINUOUS
 62
     7
 10
588.0
 20
164.3137749404694
 30
0.0
  0
SEQEND
  5
537
  8
1
  6
CONTINUOUS
 62
     7
  0
LINE
  5
9D
  8
1
  6
CONTINUOUS
 62
     7
 10
614.0
 20
146.2770364466614
 30
0.0
 11
610.0
 21
146.2770364466614
 31
0.0
  0
LINE
  5
9E
  8
1
  6
CONTINUOUS
 62
     7
 10
590.0
 20
146.2770364466614
 30
0.0
 11
586.0
 21
146.2770364466614
 31
0.0
  0
LINE
  5
9F
  8
1
  6
CONTINUOUS
 62
     7
 10
614.0
 20
143.1256516370223
 30
0.0
 11
610.0
 21
143.1256516370223
 31
0.0
  0
LINE
  5
A0
  8
1
  6
CONTINUOUS
 62
     7
 10
590.0
 20
143.1256516370223
 30
0.0
 11
586.0
 21
143.1256516370223
 31
0.0
  0
POLYLINE
  5
A1
  8
1
  6
CONTINUOUS
 62
     7
 66
     1
 10
0.0
 20
0.0
 30
0.0
  0
VERTEX
  5
2FA
  8
1
  6
CONTINUOUS
 62
     7
 10
583.0
 20
143.6465961700231
 30
0.0
  0
VERTEX
  5
2FB
  8
1
  6
CONTINUOUS
 62
     7
 10
583.0576441587903
 20
143.5449649333275
 30
0.0
  0
VERTEX
  5
2FC
  8
1
  6
CONTINUOUS
 62
     7
 10
583.2283614024661
 20
143.4472393280626
 30
0.0
  0
VERTEX
  5
2FD
  8
1
  6
CONTINUOUS
 62
     7
 10
583.5055911630924
 20
143.3571748944336
 30
0.0
  0
VERTEX
  5
2FE
  8
1
  6
CONTINUOUS
 62
     7
 10
583.8786796564403
 20
143.2782327581162
 30
0.0
  0
VERTEX
  5
2FF
  8
1
  6
CONTINUOUS
 62
     7
 10
584.3332893009411
 20
143.2134466211378
 30
0.0
  0
VERTEX
  5
300
  8
1
  6
CONTINUOUS
 62
     7
 10
584.8519497029047
 20
143.16530617841
 30
0.0
  0
VERTEX
  5
301
  8
1
  6
CONTINUOUS
 62
     7
 10
585.4147290339516
 20
143.1356614401494
 30
0.0
  0
VERTEX
  5
302
  8
1
  6
CONTINUOUS
 62
     7
 10
586.0
 20
143.1256516370223
 30
0.0
  0
SEQEND
  5
538
  8
1
  6
CONTINUOUS
 62
     7
  0
POLYLINE
  5
A2
  8
1
  6
CONTINUOUS
 62
     7
 66
     1
 10
0.0
 20
0.0
 30
0.0
  0
VERTEX
  5
303
  8
1
  6
CONTINUOUS
 62
     7
 10
583.0
 20
146.7979809796622
 30
0.0
  0
VERTEX
  5
304
  8
1
  6
CONTINUOUS
 62
     7
 10
583.0576441587903
 20
146.6963497429666
 30
0.0
  0
VERTEX
  5
305
  8
1
  6
CONTINUOUS
 62
     7
 10
583.2283614024661
 20
146.5986241377016
 30
0.0
  0
VERTEX
  5
306
  8
1
  6
CONTINUOUS
 62
     7
 10
583.5055911630924
 20
146.5085597040727
 30
0.0
  0
VERTEX
  5
307
  8
1
  6
CONTINUOUS
 62
     7
 10
583.8786796564403
 20
146.4296175677553
 30
0.0
  0
VERTEX
  5
308
  8
1
  6
CONTINUOUS
 62
     7
 10
584.3332893009411
 20
146.3648314307769
 30
0.0
  0
VERTEX
  5
309
  8
1
  6
CONTINUOUS
 62
     7
 10
584.8519497029047
 20
146.3166909880491
 30
0.0
  0
VERTEX
  5
30A
  8
1
  6
CONTINUOUS
 62
     7
 10
585.4147290339516
 20
146.2870462497885
 30
0.0
  0
VERTEX
  5
30B
  8
1
  6
CONTINUOUS
 62
     7
 10
586.0
 20
146.2770364466614
 30
0.0
  0
SEQEND
  5
539
  8
1
  6
CONTINUOUS
 62
     7
  0
POLYLINE
  5
A3
  8
1
  6
CONTINUOUS
 62
     7
 66
     1
 10
0.0
 20
0.0
 30
0.0
  0
VERTEX
  5
30C
  8
1
  6
CONTINUOUS
 62
     7
 10
610.2784997659176
 20
148.447638667498
 30
0.0
  0
VERTEX
  5
30D
  8
1
  6
CONTINUOUS
 62
     7
 10
610.2704765409753
 20
148.4631302386603
 30
0.0
  0
VERTEX
  5
30E
  8
1
  6
CONTINUOUS
 62
     7
 10
610.2466643547021
 20
148.478124640382
 30
0.0
  0
SEQEND
  5
53A
  8
1
  6
CONTINUOUS
 62
     7
  0
LINE
  5
A4
  8
1
  6
CONTINUOUS
 62
     7
 10
607.4999999999999
 20
149.75
 30
0.0
 11
610.246664354702
 21
148.478124640382
 31
0.0
  0
POLYLINE
  5
A5
  8
1
  6
CONTINUOUS
 62
     7
 66
     1
 10
0.0
 20
0.0
 30
0.0
  0
VERTEX
  5
30F
  8
1
  6
CONTINUOUS
 62
     7
 10
614.0
 20
146.2770364466614
 30
0.0
  0
VERTEX
  5
310
  8
1
  6
CONTINUOUS
 62
     7
 10
614.5852709660484
 20
146.2870462497885
 30
0.0
  0
VERTEX
  5
311
  8
1
  6
CONTINUOUS
 62
     7
 10
615.1480502970953
 20
146.3166909880491
 30
0.0
  0
VERTEX
  5
312
  8
1
  6
CONTINUOUS
 62
     7
 10
615.6667106990589
 20
146.3648314307769
 30
0.0
  0
VERTEX
  5
313
  8
1
  6
CONTINUOUS
 62
     7
 10
616.1213203435597
 20
146.4296175677553
 30
0.0
  0
VERTEX
  5
314
  8
1
  6
CONTINUOUS
 62
     7
 10
616.4944088369076
 20
146.5085597040727
 30
0.0
  0
VERTEX
  5
315
  8
1
  6
CONTINUOUS
 62
     7
 10
616.7716385975339
 20
146.5986241377016
 30
0.0
  0
VERTEX
  5
316
  8
1
  6
CONTINUOUS
 62
     7
 10
616.9423558412097
 20
146.6963497429666
 30
0.0
  0
VERTEX
  5
317
  8
1
  6
CONTINUOUS
 62
     7
 10
617.0
 20
146.7979809796622
 30
0.0
  0
SEQEND
  5
53B
  8
1
  6
CONTINUOUS
 62
     7
  0
LINE
  5
A6
  8
1
  6
CONTINUOUS
 62
     7
 10
592.5
 20
149.75
 30
0.0
 11
589.7533356452979
 21
148.478124640382
 31
0.0
  0
POLYLINE
  5
A7
  8
1
  6
CONTINUOUS
 62
     7
 66
     1
 10
0.0
 20
0.0
 30
0.0
  0
VERTEX
  5
318
  8
1
  6
CONTINUOUS
 62
     7
 10
589.7533356452977
 20
148.478124640382
 30
0.0
  0
VERTEX
  5
319
  8
1
  6
CONTINUOUS
 62
     7
 10
589.7295234590246
 20
148.4631302386603
 30
0.0
  0
VERTEX
  5
31A
  8
1
  6
CONTINUOUS
 62
     7
 10
589.7215002340823
 20
148.447638667498
 30
0.0
  0
SEQEND
  5
53C
  8
1
  6
CONTINUOUS
 62
     7
  0
LINE
  5
A8
  8
1
  6
CONTINUOUS
 62
     7
 10
590.2215002340822
 20
148.3608145786645
 30
0.0
 11
609.7784997659177
 21
148.3608145786645
 31
0.0
  0
LINE
  5
A9
  8
1
  6
CONTINUOUS
 62
     7
 10
589.5
 20
147.0584532461625
 30
0.0
 11
590.0
 21
147.0584532461625
 31
0.0
  0
LINE
  5
AA
  8
1
  6
CONTINUOUS
 62
     7
 10
610.0
 20
147.0584532461625
 30
0.0
 11
610.4999999999999
 21
147.0584532461625
 31
0.0
  0
LINE
  5
AB
  8
1
  6
CONTINUOUS
 62
     7
 10
610.4999999999999
 20
147.5793977791633
 30
0.0
 11
610.4999999999999
 21
147.0584532461625
 31
0.0
  0
LINE
  5
AC
  8
1
  6
CONTINUOUS
 62
     7
 10
589.5
 20
147.5793977791633
 30
0.0
 11
610.4999999999999
 21
147.5793977791633
 31
0.0
  0
LINE
  5
AD
  8
1
  6
CONTINUOUS
 62
     7
 10
589.5
 20
147.5793977791633
 30
0.0
 11
589.5
 21
147.0584532461625
 31
0.0
  0
POLYLINE
  5
AE
  8
1
  6
CONTINUOUS
 62
     7
 66
     1
 10
0.0
 20
0.0
 30
0.0
  0
VERTEX
  5
31B
  8
1
  6
CONTINUOUS
 62
     7
 10
614.0
 20
143.1256516370223
 30
0.0
  0
VERTEX
  5
31C
  8
1
  6
CONTINUOUS
 62
     7
 10
614.5852709660484
 20
143.1356614401494
 30
0.0
  0
VERTEX
  5
31D
  8
1
  6
CONTINUOUS
 62
     7
 10
615.1480502970953
 20
143.16530617841
 30
0.0
  0
VERTEX
  5
31E
  8
1
  6
CONTINUOUS
 62
     7
 10
615.6667106990589
 20
143.2134466211378
 30
0.0
  0
VERTEX
  5
31F
  8
1
  6
CONTINUOUS
 62
     7
 10
616.1213203435597
 20
143.2782327581162
 30
0.0
  0
VERTEX
  5
320
  8
1
  6
CONTINUOUS
 62
     7
 10
616.4944088369076
 20
143.3571748944336
 30
0.0
  0
VERTEX
  5
321
  8
1
  6
CONTINUOUS
 62
     7
 10
616.7716385975339
 20
143.4472393280626
 30
0.0
  0
VERTEX
  5
322
  8
1
  6
CONTINUOUS
 62
     7
 10
616.9423558412097
 20
143.5449649333275
 30
0.0
  0
VERTEX
  5
323
  8
1
  6
CONTINUOUS
 62
     7
 10
617.0
 20
143.6465961700231
 30
0.0
  0
SEQEND
  5
53D
  8
1
  6
CONTINUOUS
 62
     7
  0
POLYLINE
  5
AF
  8
1
  6
CONTINUOUS
 62
     7
 66
     1
 10
0.0
 20
0.0
 30
0.0
  0
VERTEX
  5
324
  8
1
  6
CONTINUOUS
 62
     7
 10
609.7784997659177
 20
148.3608145786646
 30
0.0
  0
VERTEX
  5
325
  8
1
  6
CONTINUOUS
 62
     7
 10
609.8760449269257
 20
148.3624828791858
 30
0.0
  0
VERTEX
  5
326
  8
1
  6
CONTINUOUS
 62
     7
 10
609.9698414821002
 20
148.3674236688959
 30
0.0
  0
VERTEX
  5
327
  8
1
  6
CONTINUOUS
 62
     7
 10
610.0562848824275
 20
148.3754470760172
 30
0.0
  0
VERTEX
  5
328
  8
1
  6
CONTINUOUS
 62
     7
 10
610.1320531565109
 20
148.3862447655136
 30
0.0
  0
VERTEX
  5
329
  8
1
  6
CONTINUOUS
 62
     7
 10
610.1942345720689
 20
148.3994017882331
 30
0.0
  0
VERTEX
  5
32A
  8
1
  6
CONTINUOUS
 62
     7
 10
610.2404395321732
 20
148.4144125271713
 30
0.0
  0
VERTEX
  5
32B
  8
1
  6
CONTINUOUS
 62
     7
 10
610.2688924061192
 20
148.4307001280488
 30
0.0
  0
VERTEX
  5
32C
  8
1
  6
CONTINUOUS
 62
     7
 10
610.2784997659176
 20
148.447638667498
 30
0.0
  0
SEQEND
  5
53E
  8
1
  6
CONTINUOUS
 62
     7
  0
POLYLINE
  5
B0
  8
1
  6
CONTINUOUS
 62
     7
 66
     1
 10
0.0
 20
0.0
 30
0.0
  0
VERTEX
  5
32D
  8
1
  6
CONTINUOUS
 62
     7
 10
589.7215002340823
 20
148.447638667498
 30
0.0
  0
VERTEX
  5
32E
  8
1
  6
CONTINUOUS
 62
     7
 10
589.7311075938807
 20
148.4307001280488
 30
0.0
  0
VERTEX
  5
32F
  8
1
  6
CONTINUOUS
 62
     7
 10
589.7595604678266
 20
148.4144125271713
 30
0.0
  0
VERTEX
  5
330
  8
1
  6
CONTINUOUS
 62
     7
 10
589.805765427931
 20
148.3994017882331
 30
0.0
  0
VERTEX
  5
331
  8
1
  6
CONTINUOUS
 62
     7
 10
589.867946843489
 20
148.3862447655136
 30
0.0
  0
VERTEX
  5
332
  8
1
  6
CONTINUOUS
 62
     7
 10
589.9437151175724
 20
148.3754470760172
 30
0.0
  0
VERTEX
  5
333
  8
1
  6
CONTINUOUS
 62
     7
 10
590.0301585178997
 20
148.3674236688959
 30
0.0
  0
VERTEX
  5
334
  8
1
  6
CONTINUOUS
 62
     7
 10
590.1239550730742
 20
148.3624828791858
 30
0.0
  0
VERTEX
  5
335
  8
1
  6
CONTINUOUS
 62
     7
 10
590.2215002340822
 20
148.3608145786646
 30
0.0
  0
SEQEND
  5
53F
  8
1
  6
CONTINUOUS
 62
     7
  0
LINE
  5
B1
  8
1
  6
CONTINUOUS
 62
     7
 10
607.4999999999999
 20
148.3608145786645
 30
0.0
 11
607.4999999999999
 21
149.25
 31
0.0
  0
POLYLINE
  5
B2
  8
1
  6
CONTINUOUS
 62
     7
 66
     1
 10
0.0
 20
0.0
 30
0.0
  0
VERTEX
  5
336
  8
1
  6
CONTINUOUS
 62
     7
 10
607.0
 20
149.75
 30
0.0
  0
VERTEX
  5
337
  8
1
  6
CONTINUOUS
 62
     7
 10
607.0245338371637
 20
149.7493977281026
 30
0.0
  0
VERTEX
  5
338
  8
1
  6
CONTINUOUS
 62
     7
 10
607.0490085701647
 20
149.7475923633361
 30
0.0
  0
VERTEX
  5
339
  8
1
  6
CONTINUOUS
 62
     7
 10
607.0733652372277
 20
149.7445882549824
 30
0.0
  0
VERTEX
  5
33A
  8
1
  6
CONTINUOUS
 62
     7
 10
607.097545161008
 20
149.7403926402016
 30
0.0
  0
VERTEX
  5
33B
  8
1
  6
CONTINUOUS
 62
     7
 10
607.1214900899516
 20
149.7350156265973
 30
0.0
  0
VERTEX
  5
33C
  8
1
  6
CONTINUOUS
 62
     7
 10
607.1451423386271
 20
149.7284701678661
 30
0.0
  0
VERTEX
  5
33D
  8
1
  6
CONTINUOUS
 62
     7
 10
607.1684449266961
 20
149.7207720325915
 30
0.0
  0
VERTEX
  5
33E
  8
1
  6
CONTINUOUS
 62
     7
 10
607.1913417161825
 20
149.7119397662556
 30
0.0
  0
VERTEX
  5
33F
  8
1
  6
CONTINUOUS
 62
     7
 10
607.2137775467152
 20
149.7019946465617
 30
0.0
  0
VERTEX
  5
340
  8
1
  6
CONTINUOUS
 62
     7
 10
607.235698368413
 20
149.6909606321742
 30
0.0
  0
VERTEX
  5
341
  8
1
  6
CONTINUOUS
 62
     7
 10
607.2570513720966
 20
149.6788643050001
 30
0.0
  0
VERTEX
  5
342
  8
1
  6
CONTINUOUS
 62
     7
 10
607.2777851165098
 20
149.6657348061513
 30
0.0
  0
VERTEX
  5
343
  8
1
  6
CONTINUOUS
 62
     7
 10
607.2978496522462
 20
149.6516037657403
 30
0.0
  0
VERTEX
  5
344
  8
1
  6
CONTINUOUS
 62
     7
 10
607.3171966420819
 20
149.6365052266814
 30
0.0
  0
VERTEX
  5
345
  8
1
  6
CONTINUOUS
 62
     7
 10
607.3357794774234
 20
149.6204755626775
 30
0.0
  0
VERTEX
  5
346
  8
1
  6
CONTINUOUS
 62
     7
 10
607.3535533905932
 20
149.6035533905933
 30
0.0
  0
VERTEX
  5
347
  8
1
  6
CONTINUOUS
 62
     7
 10
607.3704755626774
 20
149.5857794774235
 30
0.0
  0
VERTEX
  5
348
  8
1
  6
CONTINUOUS
 62
     7
 10
607.3865052266814
 20
149.5671966420818
 30
0.0
  0
VERTEX
  5
349
  8
1
  6
CONTINUOUS
 62
     7
 10
607.4016037657402
 20
149.5478496522462
 30
0.0
  0
VERTEX
  5
34A
  8
1
  6
CONTINUOUS
 62
     7
 10
607.4157348061512
 20
149.5277851165098
 30
0.0
  0
VERTEX
  5
34B
  8
1
  6
CONTINUOUS
 62
     7
 10
607.428864305
 20
149.5070513720966
 30
0.0
  0
VERTEX
  5
34C
  8
1
  6
CONTINUOUS
 62
     7
 10
607.4409606321741
 20
149.485698368413
 30
0.0
  0
VERTEX
  5
34D
  8
1
  6
CONTINUOUS
 62
     7
 10
607.4519946465617
 20
149.4637775467151
 30
0.0
  0
VERTEX
  5
34E
  8
1
  6
CONTINUOUS
 62
     7
 10
607.4619397662556
 20
149.4413417161825
 30
0.0
  0
VERTEX
  5
34F
  8
1
  6
CONTINUOUS
 62
     7
 10
607.4707720325914
 20
149.4184449266961
 30
0.0
  0
VERTEX
  5
350
  8
1
  6
CONTINUOUS
 62
     7
 10
607.478470167866
 20
149.3951423386272
 30
0.0
  0
VERTEX
  5
351
  8
1
  6
CONTINUOUS
 62
     7
 10
607.4850156265973
 20
149.3714900899516
 30
0.0
  0
VERTEX
  5
352
  8
1
  6
CONTINUOUS
 62
     7
 10
607.4903926402015
 20
149.3475451610081
 30
0.0
  0
VERTEX
  5
353
  8
1
  6
CONTINUOUS
 62
     7
 10
607.4945882549823
 20
149.3233652372277
 30
0.0
  0
VERTEX
  5
354
  8
1
  6
CONTINUOUS
 62
     7
 10
607.4975923633361
 20
149.2990085701648
 30
0.0
  0
VERTEX
  5
355
  8
1
  6
CONTINUOUS
 62
     7
 10
607.4993977281025
 20
149.2745338371637
 30
0.0
  0
VERTEX
  5
356
  8
1
  6
CONTINUOUS
 62
     7
 10
607.4999999999999
 20
149.25
 30
0.0
  0
SEQEND
  5
540
  8
1
  6
CONTINUOUS
 62
     7
  0
POLYLINE
  5
B3
  8
1
  6
CONTINUOUS
 62
     7
 66
     1
 10
0.0
 20
0.0
 30
0.0
  0
VERTEX
  5
357
  8
1
  6
CONTINUOUS
 62
     7
 10
593.0
 20
149.75
 30
0.0
  0
VERTEX
  5
358
  8
1
  6
CONTINUOUS
 62
     7
 10
592.9754661628363
 20
149.7493977281026
 30
0.0
  0
VERTEX
  5
359
  8
1
  6
CONTINUOUS
 62
     7
 10
592.9509914298352
 20
149.7475923633361
 30
0.0
  0
VERTEX
  5
35A
  8
1
  6
CONTINUOUS
 62
     7
 10
592.9266347627723
 20
149.7445882549824
 30
0.0
  0
VERTEX
  5
35B
  8
1
  6
CONTINUOUS
 62
     7
 10
592.902454838992
 20
149.7403926402016
 30
0.0
  0
VERTEX
  5
35C
  8
1
  6
CONTINUOUS
 62
     7
 10
592.8785099100483
 20
149.7350156265973
 30
0.0
  0
VERTEX
  5
35D
  8
1
  6
CONTINUOUS
 62
     7
 10
592.8548576613728
 20
149.7284701678661
 30
0.0
  0
VERTEX
  5
35E
  8
1
  6
CONTINUOUS
 62
     7
 10
592.8315550733039
 20
149.7207720325915
 30
0.0
  0
VERTEX
  5
35F
  8
1
  6
CONTINUOUS
 62
     7
 10
592.8086582838174
 20
149.7119397662556
 30
0.0
  0
VERTEX
  5
360
  8
1
  6
CONTINUOUS
 62
     7
 10
592.7862224532848
 20
149.7019946465617
 30
0.0
  0
VERTEX
  5
361
  8
1
  6
CONTINUOUS
 62
     7
 10
592.7643016315869
 20
149.6909606321742
 30
0.0
  0
VERTEX
  5
362
  8
1
  6
CONTINUOUS
 62
     7
 10
592.7429486279033
 20
149.6788643050001
 30
0.0
  0
VERTEX
  5
363
  8
1
  6
CONTINUOUS
 62
     7
 10
592.7222148834902
 20
149.6657348061513
 30
0.0
  0
VERTEX
  5
364
  8
1
  6
CONTINUOUS
 62
     7
 10
592.7021503477538
 20
149.6516037657403
 30
0.0
  0
VERTEX
  5
365
  8
1
  6
CONTINUOUS
 62
     7
 10
592.6828033579181
 20
149.6365052266814
 30
0.0
  0
VERTEX
  5
366
  8
1
  6
CONTINUOUS
 62
     7
 10
592.6642205225764
 20
149.6204755626775
 30
0.0
  0
VERTEX
  5
367
  8
1
  6
CONTINUOUS
 62
     7
 10
592.6464466094067
 20
149.6035533905933
 30
0.0
  0
VERTEX
  5
368
  8
1
  6
CONTINUOUS
 62
     7
 10
592.6295244373225
 20
149.5857794774235
 30
0.0
  0
VERTEX
  5
369
  8
1
  6
CONTINUOUS
 62
     7
 10
592.6134947733186
 20
149.5671966420818
 30
0.0
  0
VERTEX
  5
36A
  8
1
  6
CONTINUOUS
 62
     7
 10
592.5983962342597
 20
149.5478496522462
 30
0.0
  0
VERTEX
  5
36B
  8
1
  6
CONTINUOUS
 62
     7
 10
592.5842651938486
 20
149.5277851165098
 30
0.0
  0
VERTEX
  5
36C
  8
1
  6
CONTINUOUS
 62
     7
 10
592.5711356949998
 20
149.5070513720966
 30
0.0
  0
VERTEX
  5
36D
  8
1
  6
CONTINUOUS
 62
     7
 10
592.5590393678258
 20
149.485698368413
 30
0.0
  0
VERTEX
  5
36E
  8
1
  6
CONTINUOUS
 62
     7
 10
592.5480053534382
 20
149.4637775467151
 30
0.0
  0
VERTEX
  5
36F
  8
1
  6
CONTINUOUS
 62
     7
 10
592.5380602337443
 20
149.4413417161825
 30
0.0
  0
VERTEX
  5
370
  8
1
  6
CONTINUOUS
 62
     7
 10
592.5292279674085
 20
149.4184449266961
 30
0.0
  0
VERTEX
  5
371
  8
1
  6
CONTINUOUS
 62
     7
 10
592.5215298321339
 20
149.3951423386272
 30
0.0
  0
VERTEX
  5
372
  8
1
  6
CONTINUOUS
 62
     7
 10
592.5149843734026
 20
149.3714900899516
 30
0.0
  0
VERTEX
  5
373
  8
1
  6
CONTINUOUS
 62
     7
 10
592.5096073597985
 20
149.3475451610081
 30
0.0
  0
VERTEX
  5
374
  8
1
  6
CONTINUOUS
 62
     7
 10
592.5054117450176
 20
149.3233652372277
 30
0.0
  0
VERTEX
  5
375
  8
1
  6
CONTINUOUS
 62
     7
 10
592.5024076366639
 20
149.2990085701648
 30
0.0
  0
VERTEX
  5
376
  8
1
  6
CONTINUOUS
 62
     7
 10
592.5006022718974
 20
149.2745338371637
 30
0.0
  0
VERTEX
  5
377
  8
1
  6
CONTINUOUS
 62
     7
 10
592.5
 20
149.25
 30
0.0
  0
SEQEND
  5
541
  8
1
  6
CONTINUOUS
 62
     7
  0
LINE
  5
B4
  8
1
  6
CONTINUOUS
 62
     7
 10
592.5
 20
148.3608145786645
 30
0.0
 11
592.5
 21
149.25
 31
0.0
  0
LINE
  5
B5
  8
1
  6
CONTINUOUS
 62
     7
 10
608.7763932022501
 20
180.7154994724605
 30
0.0
 11
608.1617834407456
 21
180.75
 31
0.0
  0
LINE
  5
B6
  8
1
  6
CONTINUOUS
 62
     7
 10
590.7763932022501
 20
180.7154994724605
 30
0.0
 11
590.1617834407455
 21
180.75
 31
0.0
  0
LINE
  5
B7
  8
1
  6
CONTINUOUS
 62
     7
 10
609.22360679775
 20
180.7154994724605
 30
0.0
 11
608.77639320225
 21
180.7154994724605
 31
0.0
  0
LINE
  5
B8
  8
1
  6
CONTINUOUS
 62
     7
 10
609.8382165592545
 20
180.75
 30
0.0
 11
609.2236067977499
 21
180.7154994724605
 31
0.0
  0
LINE
  5
B9
  8
1
  6
CONTINUOUS
 62
     7
 10
591.22360679775
 20
180.7154994724605
 30
0.0
 11
590.77639320225
 21
180.7154994724605
 31
0.0
  0
LINE
  5
BA
  8
1
  6
CONTINUOUS
 62
     7
 10
591.8382165592544
 20
180.75
 30
0.0
 11
591.2236067977499
 21
180.7154994724605
 31
0.0
  0
ARC
  5
BB
  8
1
  6
CONTINUOUS
 62
     7
 10
589.0
 20
165.75
 30
0.0
 40
1.999999999999984
 50
225.4710554572673
 51
314.1011335330016
  0
ARC
  5
BC
  8
1
  6
CONTINUOUS
 62
     7
 10
600.0
 20
159.7499999999999
 30
0.0
 40
3.199999999999981
 50
179.999999999998
 51
0.0
  0
ARC
  5
BD
  8
1
  6
CONTINUOUS
 62
     7
 10
611.0
 20
165.75
 30
0.0
 40
1.999999999999964
 50
225.8988664669984
 51
314.5289445427338
  0
ARC
  5
BE
  8
1
  6
CONTINUOUS
 62
     7
 10
589.1999999999999
 20
9.550000000000031
 30
0.0
 40
0.2999999999999947
 50
269.999999999997
 51
359.9999999999894
  0
ARC
  5
BF
  8
1
  6
CONTINUOUS
 62
     7
 10
610.8
 20
9.550000000000031
 30
0.0
 40
0.299999999999967
 50
180.0000000000106
 51
270.000000000003
  0
LINE
  5
C0
  8
1
  6
CONTINUOUS
 62
     7
 10
610.8
 20
9.249999999999995
 30
0.0
 11
611.8
 21
9.249999999999995
 31
0.0
  0
ARC
  5
C1
  8
1
  6
CONTINUOUS
 62
     7
 10
611.8
 20
9.550000000000031
 30
0.0
 40
0.3000000000000086
 50
270.0000000000032
 51
359.9999999999947
  0
ARC
  5
C2
  8
1
  6
CONTINUOUS
 62
     7
 10
588.1999999999999
 20
9.550000000000031
 30
0.0
 40
0.299999999999967
 50
180.0000000000053
 51
269.9999999999967
  0
LINE
  5
C3
  8
1
  6
CONTINUOUS
 62
     7
 10
588.1999999999999
 20
9.249999999999995
 30
0.0
 11
589.1999999999999
 21
9.249999999999995
 31
0.0
  0
LINE
  5
C4
  8
1
  6
CONTINUOUS
 62
     7
 10
589.4999999999999
 20
9.750000000000009
 30
0.0
 11
590.0
 21
9.750000000000009
 31
0.0
  0
LINE
  5
C5
  8
1
  6
CONTINUOUS
 62
     7
 10
610.0
 20
9.750000000000009
 30
0.0
 11
610.5
 21
9.750000000000009
 31
0.0
  0
LINE
  5
C6
  8
1
  6
CONTINUOUS
 62
     7
 10
610.0
 20
147.4584532461626
 30
0.0
 11
590.0
 21
147.4584532461626
 31
0.0
  0
LINE
  5
C7
  8
1
  6
CONTINUOUS
 62
     7
 10
593.0
 20
175.4866204959387
 30
0.0
 11
593.0
 21
175.1035982743792
 31
0.0
  0
LINE
  5
C8
  8
1
  6
CONTINUOUS
 62
     7
 10
607.0
 20
175.1035982743792
 30
0.0
 11
607.0
 21
175.4866204959387
 31
0.0
  0
LINE
  5
C9
  8
1
  6
CONTINUOUS
 62
     7
 10
590.1617834407456
 20
180.75
 30
0.0
 11
583.0
 21
180.75
 31
0.0
  0
LINE
  5
CA
  8
1
  6
CONTINUOUS
 62
     7
 10
608.1617834407456
 20
180.75
 30
0.0
 11
591.8382165592544
 21
180.75
 31
0.0
  0
LINE
  5
CB
  8
1
  6
CONTINUOUS
 62
     7
 10
617.0
 20
180.75
 30
0.0
 11
609.8382165592544
 21
180.75
 31
0.0
  0
ENDBLK
  8
0
  0
BLOCK
  8
0
  2
D_FRAME_VIEW_1933
 70
     0
 10
0.0
 20
0.0
 30
0.0
  0
LINE
  5
D0
  8
1
  6
CONTINUOUS
 62
     7
 10
834.3794600215766
 20
313.2
 30
0.0
 11
834.3794600215766
 21
306.8000000000001
 31
0.0
  0
LINE
  5
D1
  8
1
  6
CONTINUOUS
 62
     7
 10
446.3794600215755
 20
320.5000000000002
 30
0.0
 11
446.3794600215755
 21
299.5000000000001
 31
0.0
  0
CIRCLE
  5
D2
  8
1
  6
CONTINUOUS
 62
     7
 10
801.879460021576
 20
310.0000000000001
 30
0.0
 40
3.499999999999948
  0
CIRCLE
  5
D3
  8
1
  6
CONTINUOUS
 62
     7
 10
816.879460021576
 20
310.0000000000001
 30
0.0
 40
3.499999999999948
  0
LINE
  5
D4
  8
1
  6
CONTINUOUS
 62
     7
 10
834.2794600215761
 20
313.2
 30
0.0
 11
834.279460021576
 21
306.8000000000001
 31
0.0
  0
LINE
  5
D5
  8
1
  6
CONTINUOUS
 62
     7
 10
792.879460021576
 20
315.0000000000001
 30
0.0
 11
792.879460021576
 21
305.0000000000001
 31
0.0
  0
ARC
  5
D6
  8
1
  6
CONTINUOUS
 62
     7
 10
797.879460021576
 20
315.0000000000001
 30
0.0
 40
5.000000000000004
 50
90.0
 51
180.0
  0
ARC
  5
D7
  8
1
  6
CONTINUOUS
 62
     7
 10
797.879460021576
 20
305.0000000000001
 30
0.0
 40
5.000000000000004
 50
180.0
 51
270.0
  0
CIRCLE
  5
D8
  8
1
  6
CONTINUOUS
 62
     7
 10
478.8794600215761
 20
310.0000000000001
 30
0.0
 40
3.500000000000003
  0
CIRCLE
  5
D9
  8
1
  6
CONTINUOUS
 62
     7
 10
463.8794600215761
 20
310.0000000000001
 30
0.0
 40
3.500000000000003
  0
LINE
  5
DA
  8
1
  6
CONTINUOUS
 62
     7
 10
446.479460021576
 20
320.0000000000001
 30
0.0
 11
446.479460021576
 21
300.0000000000001
 31
0.0
  0
LINE
  5
DB
  8
1
  6
CONTINUOUS
 62
     7
 10
446.479460021576
 20
320.0000000000001
 30
0.0
 11
446.6848673109083
 21
320.0000000000001
 31
0.0
  0
LINE
  5
DC
  8
1
  6
CONTINUOUS
 62
     7
 10
446.479460021576
 20
300.0000000000001
 30
0.0
 11
446.6848673109083
 21
300.0000000000001
 31
0.0
  0
LINE
  5
DD
  8
1
  6
CONTINUOUS
 62
     7
 10
487.879460021576
 20
315.0000000000001
 30
0.0
 11
487.879460021576
 21
305.0000000000001
 31
0.0
  0
ARC
  5
DE
  8
1
  6
CONTINUOUS
 62
     7
 10
482.879460021576
 20
315.0000000000001
 30
0.0
 40
5.000000000000004
 50
0.0
 51
90.0
  0
ARC
  5
DF
  8
1
  6
CONTINUOUS
 62
     7
 10
482.879460021576
 20
305.0000000000001
 30
0.0
 40
5.000000000000004
 50
270.0
 51
0.0
  0
POLYLINE
  5
E0
  8
1
  6
CONTINUOUS
 62
     7
 66
     1
 10
0.0
 20
0.0
 30
0.0
  0
VERTEX
  5
378
  8
1
  6
CONTINUOUS
 62
     7
 10
858.4098568748116
 20
303.0000000000001
 30
0.0
  0
VERTEX
  5
379
  8
1
  6
CONTINUOUS
 62
     7
 10
858.6469964271015
 20
303.1345030371774
 30
0.0
  0
VERTEX
  5
37A
  8
1
  6
CONTINUOUS
 62
     7
 10
858.8750228393862
 20
303.532843272421
 30
0.0
  0
VERTEX
  5
37B
  8
1
  6
CONTINUOUS
 62
     7
 10
859.0851731845205
 20
304.1797127138822
 30
0.0
  0
VERTEX
  5
37C
  8
1
  6
CONTINUOUS
 62
     7
 10
859.2693715025944
 20
305.0502525316942
 30
0.0
  0
VERTEX
  5
37D
  8
1
  6
CONTINUOUS
 62
     7
 10
859.4205391555439
 20
306.1110083688628
 30
0.0
  0
VERTEX
  5
37E
  8
1
  6
CONTINUOUS
 62
     7
 10
859.5328668552421
 20
307.3212159734445
 30
0.0
  0
VERTEX
  5
37F
  8
1
  6
CONTINUOUS
 62
     7
 10
859.6020379111835
 20
308.6343677458872
 30
0.0
  0
VERTEX
  5
380
  8
1
  6
CONTINUOUS
 62
     7
 10
859.6253941184801
 20
310.0000000000001
 30
0.0
  0
VERTEX
  5
381
  8
1
  6
CONTINUOUS
 62
     7
 10
859.6020379111835
 20
311.3656322541129
 30
0.0
  0
VERTEX
  5
382
  8
1
  6
CONTINUOUS
 62
     7
 10
859.5328668552421
 20
312.6787840265557
 30
0.0
  0
VERTEX
  5
383
  8
1
  6
CONTINUOUS
 62
     7
 10
859.4205391555439
 20
313.8889916311373
 30
0.0
  0
VERTEX
  5
384
  8
1
  6
CONTINUOUS
 62
     7
 10
859.2693715025944
 20
314.9497474683059
 30
0.0
  0
VERTEX
  5
385
  8
1
  6
CONTINUOUS
 62
     7
 10
859.0851731845205
 20
315.8202872861179
 30
0.0
  0
VERTEX
  5
386
  8
1
  6
CONTINUOUS
 62
     7
 10
858.8750228393862
 20
316.4671567275791
 30
0.0
  0
VERTEX
  5
387
  8
1
  6
CONTINUOUS
 62
     7
 10
858.6469964271015
 20
316.8654969628226
 30
0.0
  0
VERTEX
  5
388
  8
1
  6
CONTINUOUS
 62
     7
 10
858.4098568748116
 20
317.0000000000001
 30
0.0
  0
SEQEND
  5
542
  8
1
  6
CONTINUOUS
 62
     7
  0
POLYLINE
  5
E1
  8
1
  6
CONTINUOUS
 62
     7
 66
     1
 10
0.0
 20
0.0
 30
0.0
  0
VERTEX
  5
389
  8
1
  6
CONTINUOUS
 62
     7
 10
858.4098568748116
 20
317.0000000000001
 30
0.0
  0
VERTEX
  5
38A
  8
1
  6
CONTINUOUS
 62
     7
 10
858.1827024682144
 20
316.8766849326442
 30
0.0
  0
VERTEX
  5
38B
  8
1
  6
CONTINUOUS
 62
     7
 10
857.9635513647457
 20
316.5110844751015
 30
0.0
  0
VERTEX
  5
38C
  8
1
  6
CONTINUOUS
 62
     7
 10
857.7601248881442
 20
315.9160797830997
 30
0.0
  0
VERTEX
  5
38D
  8
1
  6
CONTINUOUS
 62
     7
 10
857.579590338314
 20
315.112634583402
 30
0.0
  0
VERTEX
  5
38E
  8
1
  6
CONTINUOUS
 62
     7
 10
857.4283084667327
 20
314.1290565614135
 30
0.0
  0
VERTEX
  5
38F
  8
1
  6
CONTINUOUS
 62
     7
 10
857.3116093688814
 20
313.0000000000002
 30
0.0
  0
SEQEND
  5
543
  8
1
  6
CONTINUOUS
 62
     7
  0
POLYLINE
  5
E2
  8
1
  6
CONTINUOUS
 62
     7
 66
     1
 10
0.0
 20
0.0
 30
0.0
  0
VERTEX
  5
390
  8
1
  6
CONTINUOUS
 62
     7
 10
857.3116093688814
 20
306.9999999999999
 30
0.0
  0
VERTEX
  5
391
  8
1
  6
CONTINUOUS
 62
     7
 10
857.4283084667326
 20
305.8709434385866
 30
0.0
  0
VERTEX
  5
392
  8
1
  6
CONTINUOUS
 62
     7
 10
857.5795903383139
 20
304.8873654165981
 30
0.0
  0
VERTEX
  5
393
  8
1
  6
CONTINUOUS
 62
     7
 10
857.7601248881442
 20
304.0839202169004
 30
0.0
  0
VERTEX
  5
394
  8
1
  6
CONTINUOUS
 62
     7
 10
857.9635513647457
 20
303.4889155248986
 30
0.0
  0
VERTEX
  5
395
  8
1
  6
CONTINUOUS
 62
     7
 10
858.1827024682144
 20
303.1233150673559
 30
0.0
  0
VERTEX
  5
396
  8
1
  6
CONTINUOUS
 62
     7
 10
858.4098568748116
 20
303.0000000000001
 30
0.0
  0
SEQEND
  5
544
  8
1
  6
CONTINUOUS
 62
     7
  0
POLYLINE
  5
E3
  8
1
  6
CONTINUOUS
 62
     7
 66
     1
 10
0.0
 20
0.0
 30
0.0
  0
VERTEX
  5
397
  8
1
  6
CONTINUOUS
 62
     7
 10
859.6901069537274
 20
303.0000000000001
 30
0.0
  0
VERTEX
  5
398
  8
1
  6
CONTINUOUS
 62
     7
 10
859.9272465060174
 20
303.1345030371774
 30
0.0
  0
VERTEX
  5
399
  8
1
  6
CONTINUOUS
 62
     7
 10
860.1552729183021
 20
303.532843272421
 30
0.0
  0
VERTEX
  5
39A
  8
1
  6
CONTINUOUS
 62
     7
 10
860.3654232634364
 20
304.1797127138822
 30
0.0
  0
VERTEX
  5
39B
  8
1
  6
CONTINUOUS
 62
     7
 10
860.5496215815102
 20
305.0502525316942
 30
0.0
  0
VERTEX
  5
39C
  8
1
  6
CONTINUOUS
 62
     7
 10
860.7007892344598
 20
306.1110083688628
 30
0.0
  0
VERTEX
  5
39D
  8
1
  6
CONTINUOUS
 62
     7
 10
860.813116934158
 20
307.3212159734445
 30
0.0
  0
VERTEX
  5
39E
  8
1
  6
CONTINUOUS
 62
     7
 10
860.8822879900994
 20
308.6343677458872
 30
0.0
  0
VERTEX
  5
39F
  8
1
  6
CONTINUOUS
 62
     7
 10
860.905644197396
 20
310.0000000000001
 30
0.0
  0
VERTEX
  5
3A0
  8
1
  6
CONTINUOUS
 62
     7
 10
860.8822879900994
 20
311.3656322541129
 30
0.0
  0
VERTEX
  5
3A1
  8
1
  6
CONTINUOUS
 62
     7
 10
860.813116934158
 20
312.6787840265557
 30
0.0
  0
VERTEX
  5
3A2
  8
1
  6
CONTINUOUS
 62
     7
 10
860.7007892344598
 20
313.8889916311373
 30
0.0
  0
VERTEX
  5
3A3
  8
1
  6
CONTINUOUS
 62
     7
 10
860.5496215815102
 20
314.9497474683059
 30
0.0
  0
VERTEX
  5
3A4
  8
1
  6
CONTINUOUS
 62
     7
 10
860.3654232634364
 20
315.8202872861179
 30
0.0
  0
VERTEX
  5
3A5
  8
1
  6
CONTINUOUS
 62
     7
 10
860.1552729183021
 20
316.4671567275791
 30
0.0
  0
VERTEX
  5
3A6
  8
1
  6
CONTINUOUS
 62
     7
 10
859.9272465060174
 20
316.8654969628226
 30
0.0
  0
VERTEX
  5
3A7
  8
1
  6
CONTINUOUS
 62
     7
 10
859.6901069537274
 20
317.0000000000001
 30
0.0
  0
SEQEND
  5
545
  8
1
  6
CONTINUOUS
 62
     7
  0
LINE
  5
E4
  8
1
  6
CONTINUOUS
 62
     7
 10
865.1769065364589
 20
310.0000000000001
 30
0.0
 11
860.905644197396
 21
310.0000000000001
 31
0.0
  0
ARC
  5
E5
  8
1
  6
CONTINUOUS
 62
     7
 10
857.8549234259855
 20
308.1888396337038
 30
0.0
 40
7.542661237421552
 50
354.7601155497055
 51
13.89375247157489
  0
ARC
  5
E6
  8
1
  6
CONTINUOUS
 62
     7
 10
856.9541129608284
 20
308.4778282247535
 30
0.0
 40
8.468593436607017
 50
335.7528401783617
 51
353.3695395535046
  0
ARC
  5
E7
  8
1
  6
CONTINUOUS
 62
     7
 10
857.119321317334
 20
311.5677981573425
 30
0.0
 40
8.299263310345713
 50
6.449269371743369
 51
24.42835089639034
  0
ARC
  5
E8
  8
1
  6
CONTINUOUS
 62
     7
 10
857.7415002797491
 20
311.819742317609
 30
0.0
 40
7.654849985781423
 50
346.2477463090205
 51
5.098385669698587
  0
POLYLINE
  5
E9
  8
1
  6
CONTINUOUS
 62
     7
 66
     1
 10
0.0
 20
0.0
 30
0.0
  0
VERTEX
  5
3A8
  8
1
  6
CONTINUOUS
 62
     7
 10
865.3660643846907
 20
307.5000000000001
 30
0.0
  0
VERTEX
  5
3A9
  8
1
  6
CONTINUOUS
 62
     7
 10
865.4398918733532
 20
308.4549150281253
 30
0.0
  0
VERTEX
  5
3AA
  8
1
  6
CONTINUOUS
 62
     7
 10
865.4776302926914
 20
309.4773576836618
 30
0.0
  0
VERTEX
  5
3AB
  8
1
  6
CONTINUOUS
 62
     7
 10
865.4776302926914
 20
310.5226423163383
 30
0.0
  0
VERTEX
  5
3AC
  8
1
  6
CONTINUOUS
 62
     7
 10
865.4398918733532
 20
311.5450849718748
 30
0.0
  0
VERTEX
  5
3AD
  8
1
  6
CONTINUOUS
 62
     7
 10
865.3660643846907
 20
312.5000000000001
 30
0.0
  0
SEQEND
  5
546
  8
1
  6
CONTINUOUS
 62
     7
  0
POLYLINE
  5
EA
  8
1
  6
CONTINUOUS
 62
     7
 66
     1
 10
0.0
 20
0.0
 30
0.0
  0
VERTEX
  5
3AE
  8
1
  6
CONTINUOUS
 62
     7
 10
865.3660643846907
 20
312.5000000000001
 30
0.0
  0
VERTEX
  5
3AF
  8
1
  6
CONTINUOUS
 62
     7
 10
865.2738262566365
 20
313.2508441890618
 30
0.0
  0
VERTEX
  5
3B0
  8
1
  6
CONTINUOUS
 62
     7
 10
865.159266721768
 20
313.8916905663476
 30
0.0
  0
VERTEX
  5
3B1
  8
1
  6
CONTINUOUS
 62
     7
 10
865.0262620957188
 20
314.4008550107228
 30
0.0
  0
VERTEX
  5
3B2
  8
1
  6
CONTINUOUS
 62
     7
 10
864.8793128149823
 20
314.7611090819859
 30
0.0
  0
SEQEND
  5
547
  8
1
  6
CONTINUOUS
 62
     7
  0
POLYLINE
  5
EB
  8
1
  6
CONTINUOUS
 62
     7
 66
     1
 10
0.0
 20
0.0
 30
0.0
  0
VERTEX
  5
3B3
  8
1
  6
CONTINUOUS
 62
     7
 10
864.8793128149823
 20
305.2388909180142
 30
0.0
  0
VERTEX
  5
3B4
  8
1
  6
CONTINUOUS
 62
     7
 10
865.0262620957188
 20
305.5991449892773
 30
0.0
  0
VERTEX
  5
3B5
  8
1
  6
CONTINUOUS
 62
     7
 10
865.159266721768
 20
306.1083094336525
 30
0.0
  0
VERTEX
  5
3B6
  8
1
  6
CONTINUOUS
 62
     7
 10
865.2738262566365
 20
306.7491558109383
 30
0.0
  0
VERTEX
  5
3B7
  8
1
  6
CONTINUOUS
 62
     7
 10
865.3660643846907
 20
307.5000000000001
 30
0.0
  0
SEQEND
  5
548
  8
1
  6
CONTINUOUS
 62
     7
  0
POLYLINE
  5
EC
  8
1
  6
CONTINUOUS
 62
     7
 66
     1
 10
0.0
 20
0.0
 30
0.0
  0
VERTEX
  5
3B8
  8
1
  6
CONTINUOUS
 62
     7
 10
835.164184191663
 20
310.0000000000001
 30
0.0
  0
VERTEX
  5
3B9
  8
1
  6
CONTINUOUS
 62
     7
 10
835.2806672387447
 20
308.6343677458872
 30
0.0
  0
VERTEX
  5
3BA
  8
1
  6
CONTINUOUS
 62
     7
 10
835.6256400018152
 20
307.3212159734445
 30
0.0
  0
VERTEX
  5
3BB
  8
1
  6
CONTINUOUS
 62
     7
 10
836.1858453710524
 20
306.1110083688628
 30
0.0
  0
VERTEX
  5
3BC
  8
1
  6
CONTINUOUS
 62
     7
 10
836.9397549682835
 20
305.0502525316942
 30
0.0
  0
VERTEX
  5
3BD
  8
1
  6
CONTINUOUS
 62
     7
 10
837.8583964704842
 20
304.1797127138822
 30
0.0
  0
VERTEX
  5
3BE
  8
1
  6
CONTINUOUS
 62
     7
 10
838.906466999905
 20
303.532843272421
 30
0.0
  0
VERTEX
  5
3BF
  8
1
  6
CONTINUOUS
 62
     7
 10
840.0436897938649
 20
303.1345030371774
 30
0.0
  0
VERTEX
  5
3C0
  8
1
  6
CONTINUOUS
 62
     7
 10
841.2263620181541
 20
303.0000000000001
 30
0.0
  0
SEQEND
  5
549
  8
1
  6
CONTINUOUS
 62
     7
  0
POLYLINE
  5
ED
  8
1
  6
CONTINUOUS
 62
     7
 66
     1
 10
0.0
 20
0.0
 30
0.0
  0
VERTEX
  5
3C1
  8
1
  6
CONTINUOUS
 62
     7
 10
841.2263620181541
 20
317.0000000000001
 30
0.0
  0
VERTEX
  5
3C2
  8
1
  6
CONTINUOUS
 62
     7
 10
840.0436897938649
 20
316.8654969628227
 30
0.0
  0
VERTEX
  5
3C3
  8
1
  6
CONTINUOUS
 62
     7
 10
838.906466999905
 20
316.4671567275791
 30
0.0
  0
VERTEX
  5
3C4
  8
1
  6
CONTINUOUS
 62
     7
 10
837.8583964704842
 20
315.8202872861179
 30
0.0
  0
VERTEX
  5
3C5
  8
1
  6
CONTINUOUS
 62
     7
 10
836.9397549682835
 20
314.9497474683059
 30
0.0
  0
VERTEX
  5
3C6
  8
1
  6
CONTINUOUS
 62
     7
 10
836.1858453710524
 20
313.8889916311373
 30
0.0
  0
VERTEX
  5
3C7
  8
1
  6
CONTINUOUS
 62
     7
 10
835.6256400018152
 20
312.6787840265557
 30
0.0
  0
VERTEX
  5
3C8
  8
1
  6
CONTINUOUS
 62
     7
 10
835.2806672387447
 20
311.3656322541129
 30
0.0
  0
VERTEX
  5
3C9
  8
1
  6
CONTINUOUS
 62
     7
 10
835.164184191663
 20
310.0000000000001
 30
0.0
  0
SEQEND
  5
54A
  8
1
  6
CONTINUOUS
 62
     7
  0
POLYLINE
  5
EE
  8
1
  6
CONTINUOUS
 62
     7
 66
     1
 10
0.0
 20
0.0
 30
0.0
  0
VERTEX
  5
3CA
  8
1
  6
CONTINUOUS
 62
     7
 10
841.2263620181541
 20
303.0000000000001
 30
0.0
  0
VERTEX
  5
3CB
  8
1
  6
CONTINUOUS
 62
     7
 10
842.4090342424432
 20
303.1345030371774
 30
0.0
  0
VERTEX
  5
3CC
  8
1
  6
CONTINUOUS
 62
     7
 10
843.5462570364032
 20
303.532843272421
 30
0.0
  0
VERTEX
  5
3CD
  8
1
  6
CONTINUOUS
 62
     7
 10
844.594327565824
 20
304.1797127138822
 30
0.0
  0
VERTEX
  5
3CE
  8
1
  6
CONTINUOUS
 62
     7
 10
845.5129690680246
 20
305.0502525316942
 30
0.0
  0
VERTEX
  5
3CF
  8
1
  6
CONTINUOUS
 62
     7
 10
846.2668786652557
 20
306.1110083688628
 30
0.0
  0
VERTEX
  5
3D0
  8
1
  6
CONTINUOUS
 62
     7
 10
846.8270840344929
 20
307.3212159734445
 30
0.0
  0
VERTEX
  5
3D1
  8
1
  6
CONTINUOUS
 62
     7
 10
847.1720567975634
 20
308.6343677458872
 30
0.0
  0
VERTEX
  5
3D2
  8
1
  6
CONTINUOUS
 62
     7
 10
847.2885398446451
 20
310.0000000000001
 30
0.0
  0
VERTEX
  5
3D3
  8
1
  6
CONTINUOUS
 62
     7
 10
847.1720567975634
 20
311.3656322541129
 30
0.0
  0
VERTEX
  5
3D4
  8
1
  6
CONTINUOUS
 62
     7
 10
846.8270840344929
 20
312.6787840265557
 30
0.0
  0
VERTEX
  5
3D5
  8
1
  6
CONTINUOUS
 62
     7
 10
846.2668786652557
 20
313.8889916311373
 30
0.0
  0
VERTEX
  5
3D6
  8
1
  6
CONTINUOUS
 62
     7
 10
845.5129690680246
 20
314.9497474683059
 30
0.0
  0
VERTEX
  5
3D7
  8
1
  6
CONTINUOUS
 62
     7
 10
844.594327565824
 20
315.8202872861179
 30
0.0
  0
VERTEX
  5
3D8
  8
1
  6
CONTINUOUS
 62
     7
 10
843.5462570364032
 20
316.4671567275791
 30
0.0
  0
VERTEX
  5
3D9
  8
1
  6
CONTINUOUS
 62
     7
 10
842.4090342424432
 20
316.8654969628227
 30
0.0
  0
VERTEX
  5
3DA
  8
1
  6
CONTINUOUS
 62
     7
 10
841.2263620181541
 20
317.0000000000001
 30
0.0
  0
SEQEND
  5
54B
  8
1
  6
CONTINUOUS
 62
     7
  0
POLYLINE
  5
EF
  8
1
  6
CONTINUOUS
 62
     7
 66
     1
 10
0.0
 20
0.0
 30
0.0
  0
VERTEX
  5
3DB
  8
1
  6
CONTINUOUS
 62
     7
 10
841.4763620181542
 20
303.0000000000001
 30
0.0
  0
VERTEX
  5
3DC
  8
1
  6
CONTINUOUS
 62
     7
 10
842.6590342424433
 20
303.1345030371774
 30
0.0
  0
VERTEX
  5
3DD
  8
1
  6
CONTINUOUS
 62
     7
 10
843.7962570364033
 20
303.532843272421
 30
0.0
  0
VERTEX
  5
3DE
  8
1
  6
CONTINUOUS
 62
     7
 10
844.8443275658241
 20
304.1797127138822
 30
0.0
  0
VERTEX
  5
3DF
  8
1
  6
CONTINUOUS
 62
     7
 10
845.7629690680247
 20
305.0502525316942
 30
0.0
  0
VERTEX
  5
3E0
  8
1
  6
CONTINUOUS
 62
     7
 10
846.5168786652558
 20
306.1110083688628
 30
0.0
  0
VERTEX
  5
3E1
  8
1
  6
CONTINUOUS
 62
     7
 10
847.077084034493
 20
307.3212159734445
 30
0.0
  0
VERTEX
  5
3E2
  8
1
  6
CONTINUOUS
 62
     7
 10
847.4220567975635
 20
308.6343677458872
 30
0.0
  0
VERTEX
  5
3E3
  8
1
  6
CONTINUOUS
 62
     7
 10
847.5385398446452
 20
310.0000000000001
 30
0.0
  0
VERTEX
  5
3E4
  8
1
  6
CONTINUOUS
 62
     7
 10
847.4220567975635
 20
311.3656322541129
 30
0.0
  0
VERTEX
  5
3E5
  8
1
  6
CONTINUOUS
 62
     7
 10
847.077084034493
 20
312.6787840265557
 30
0.0
  0
VERTEX
  5
3E6
  8
1
  6
CONTINUOUS
 62
     7
 10
846.5168786652558
 20
313.8889916311373
 30
0.0
  0
VERTEX
  5
3E7
  8
1
  6
CONTINUOUS
 62
     7
 10
845.7629690680247
 20
314.9497474683059
 30
0.0
  0
VERTEX
  5
3E8
  8
1
  6
CONTINUOUS
 62
     7
 10
844.8443275658241
 20
315.8202872861179
 30
0.0
  0
VERTEX
  5
3E9
  8
1
  6
CONTINUOUS
 62
     7
 10
843.7962570364033
 20
316.4671567275791
 30
0.0
  0
VERTEX
  5
3EA
  8
1
  6
CONTINUOUS
 62
     7
 10
842.6590342424433
 20
316.8654969628227
 30
0.0
  0
VERTEX
  5
3EB
  8
1
  6
CONTINUOUS
 62
     7
 10
841.4763620181542
 20
317.0000000000001
 30
0.0
  0
SEQEND
  5
54C
  8
1
  6
CONTINUOUS
 62
     7
  0
POLYLINE
  5
F0
  8
1
  6
CONTINUOUS
 62
     7
 66
     1
 10
0.0
 20
0.0
 30
0.0
  0
VERTEX
  5
3EC
  8
1
  6
CONTINUOUS
 62
     7
 10
886.9154905622383
 20
310.0000000000001
 30
0.0
  0
VERTEX
  5
3ED
  8
1
  6
CONTINUOUS
 62
     7
 10
886.9054807591112
 20
310.5852709660484
 30
0.0
  0
VERTEX
  5
3EE
  8
1
  6
CONTINUOUS
 62
     7
 10
886.8758360208507
 20
311.1480502970953
 30
0.0
  0
VERTEX
  5
3EF
  8
1
  6
CONTINUOUS
 62
     7
 10
886.8276955781229
 20
311.6667106990589
 30
0.0
  0
VERTEX
  5
3F0
  8
1
  6
CONTINUOUS
 62
     7
 10
886.7629094411444
 20
312.1213203435597
 30
0.0
  0
VERTEX
  5
3F1
  8
1
  6
CONTINUOUS
 62
     7
 10
886.6839673048271
 20
312.4944088369077
 30
0.0
  0
VERTEX
  5
3F2
  8
1
  6
CONTINUOUS
 62
     7
 10
886.5939028711981
 20
312.7716385975339
 30
0.0
  0
VERTEX
  5
3F3
  8
1
  6
CONTINUOUS
 62
     7
 10
886.4961772659332
 20
312.9423558412097
 30
0.0
  0
VERTEX
  5
3F4
  8
1
  6
CONTINUOUS
 62
     7
 10
886.3945460292375
 20
313.0000000000001
 30
0.0
  0
SEQEND
  5
54D
  8
1
  6
CONTINUOUS
 62
     7
  0
POLYLINE
  5
F1
  8
1
  6
CONTINUOUS
 62
     7
 66
     1
 10
0.0
 20
0.0
 30
0.0
  0
VERTEX
  5
3F5
  8
1
  6
CONTINUOUS
 62
     7
 10
886.3945460292375
 20
307.0000000000001
 30
0.0
  0
VERTEX
  5
3F6
  8
1
  6
CONTINUOUS
 62
     7
 10
886.4961772659332
 20
307.0576441587904
 30
0.0
  0
VERTEX
  5
3F7
  8
1
  6
CONTINUOUS
 62
     7
 10
886.5939028711981
 20
307.2283614024662
 30
0.0
  0
VERTEX
  5
3F8
  8
1
  6
CONTINUOUS
 62
     7
 10
886.6839673048271
 20
307.5055911630924
 30
0.0
  0
VERTEX
  5
3F9
  8
1
  6
CONTINUOUS
 62
     7
 10
886.7629094411444
 20
307.8786796564404
 30
0.0
  0
VERTEX
  5
3FA
  8
1
  6
CONTINUOUS
 62
     7
 10
886.8276955781229
 20
308.3332893009413
 30
0.0
  0
VERTEX
  5
3FB
  8
1
  6
CONTINUOUS
 62
     7
 10
886.8758360208507
 20
308.8519497029048
 30
0.0
  0
VERTEX
  5
3FC
  8
1
  6
CONTINUOUS
 62
     7
 10
886.9054807591112
 20
309.4147290339517
 30
0.0
  0
VERTEX
  5
3FD
  8
1
  6
CONTINUOUS
 62
     7
 10
886.9154905622383
 20
310.0000000000001
 30
0.0
  0
SEQEND
  5
54E
  8
1
  6
CONTINUOUS
 62
     7
  0
POLYLINE
  5
F2
  8
1
  6
CONTINUOUS
 62
     7
 66
     1
 10
0.0
 20
0.0
 30
0.0
  0
VERTEX
  5
3FE
  8
1
  6
CONTINUOUS
 62
     7
 10
423.0845094377618
 20
296.0000000000001
 30
0.0
  0
VERTEX
  5
3FF
  8
1
  6
CONTINUOUS
 62
     7
 10
423.0945192408888
 20
295.4147290339517
 30
0.0
  0
VERTEX
  5
400
  8
1
  6
CONTINUOUS
 62
     7
 10
423.1241639791494
 20
294.8519497029048
 30
0.0
  0
VERTEX
  5
401
  8
1
  6
CONTINUOUS
 62
     7
 10
423.1723044218772
 20
294.3332893009413
 30
0.0
  0
VERTEX
  5
402
  8
1
  6
CONTINUOUS
 62
     7
 10
423.2370905588556
 20
293.8786796564404
 30
0.0
  0
VERTEX
  5
403
  8
1
  6
CONTINUOUS
 62
     7
 10
423.316032695173
 20
293.5055911630924
 30
0.0
  0
VERTEX
  5
404
  8
1
  6
CONTINUOUS
 62
     7
 10
423.4060971288019
 20
293.2283614024662
 30
0.0
  0
VERTEX
  5
405
  8
1
  6
CONTINUOUS
 62
     7
 10
423.5038227340669
 20
293.0576441587904
 30
0.0
  0
VERTEX
  5
406
  8
1
  6
CONTINUOUS
 62
     7
 10
423.6054539707625
 20
293.0000000000001
 30
0.0
  0
SEQEND
  5
54F
  8
1
  6
CONTINUOUS
 62
     7
  0
POLYLINE
  5
F3
  8
1
  6
CONTINUOUS
 62
     7
 66
     1
 10
0.0
 20
0.0
 30
0.0
  0
VERTEX
  5
407
  8
1
  6
CONTINUOUS
 62
     7
 10
426.2358942474008
 20
296.0000000000001
 30
0.0
  0
VERTEX
  5
408
  8
1
  6
CONTINUOUS
 62
     7
 10
426.2459040505279
 20
295.4147290339517
 30
0.0
  0
VERTEX
  5
409
  8
1
  6
CONTINUOUS
 62
     7
 10
426.2755487887885
 20
294.8519497029048
 30
0.0
  0
VERTEX
  5
40A
  8
1
  6
CONTINUOUS
 62
     7
 10
426.3236892315163
 20
294.3332893009413
 30
0.0
  0
VERTEX
  5
40B
  8
1
  6
CONTINUOUS
 62
     7
 10
426.3884753684947
 20
293.8786796564404
 30
0.0
  0
VERTEX
  5
40C
  8
1
  6
CONTINUOUS
 62
     7
 10
426.467417504812
 20
293.5055911630924
 30
0.0
  0
VERTEX
  5
40D
  8
1
  6
CONTINUOUS
 62
     7
 10
426.557481938441
 20
293.2283614024662
 30
0.0
  0
VERTEX
  5
40E
  8
1
  6
CONTINUOUS
 62
     7
 10
426.655207543706
 20
293.0576441587904
 30
0.0
  0
VERTEX
  5
40F
  8
1
  6
CONTINUOUS
 62
     7
 10
426.7568387804016
 20
293.0000000000001
 30
0.0
  0
SEQEND
  5
550
  8
1
  6
CONTINUOUS
 62
     7
  0
POLYLINE
  5
F4
  8
1
  6
CONTINUOUS
 62
     7
 66
     1
 10
0.0
 20
0.0
 30
0.0
  0
VERTEX
  5
410
  8
1
  6
CONTINUOUS
 62
     7
 10
428.4064964682375
 20
323.7500000000001
 30
0.0
  0
VERTEX
  5
411
  8
1
  6
CONTINUOUS
 62
     7
 10
428.3133345012665
 20
323.697159521109
 30
0.0
  0
VERTEX
  5
412
  8
1
  6
CONTINUOUS
 62
     7
 10
428.2237526964403
 20
323.5406687144061
 30
0.0
  0
VERTEX
  5
413
  8
1
  6
CONTINUOUS
 62
     7
 10
428.1411936322804
 20
323.2865414338321
 30
0.0
  0
VERTEX
  5
414
  8
1
  6
CONTINUOUS
 62
     7
 10
428.0688300073228
 20
322.9445436482631
 30
0.0
  0
VERTEX
  5
415
  8
1
  6
CONTINUOUS
 62
     7
 10
428.0094427150926
 20
322.527818140804
 30
0.0
  0
VERTEX
  5
416
  8
1
  6
CONTINUOUS
 62
     7
 10
427.9653139759255
 20
322.0523794390041
 30
0.0
  0
VERTEX
  5
417
  8
1
  6
CONTINUOUS
 62
     7
 10
427.9381396325199
 20
321.5364983855444
 30
0.0
  0
VERTEX
  5
418
  8
1
  6
CONTINUOUS
 62
     7
 10
427.9289639796534
 20
321.0000000000001
 30
0.0
  0
SEQEND
  5
551
  8
1
  6
CONTINUOUS
 62
     7
  0
POLYLINE
  5
F5
  8
1
  6
CONTINUOUS
 62
     7
 66
     1
 10
0.0
 20
0.0
 30
0.0
  0
VERTEX
  5
419
  8
1
  6
CONTINUOUS
 62
     7
 10
430.0302351792352
 20
302.6689011017642
 30
0.0
  0
VERTEX
  5
41A
  8
1
  6
CONTINUOUS
 62
     7
 10
430.0437728904263
 20
302.5975490669421
 30
0.0
  0
VERTEX
  5
41B
  8
1
  6
CONTINUOUS
 62
     7
 10
430.0596123956292
 20
302.5441768714085
 30
0.0
  0
VERTEX
  5
41C
  8
1
  6
CONTINUOUS
 62
     7
 10
430.0770460514158
 20
302.5111689636001
 30
0.0
  0
VERTEX
  5
41D
  8
1
  6
CONTINUOUS
 62
     7
 10
430.0952949943185
 20
302.5000000000001
 30
0.0
  0
SEQEND
  5
552
  8
1
  6
CONTINUOUS
 62
     7
  0
LINE
  5
F6
  8
1
  6
CONTINUOUS
 62
     7
 10
430.0952949943185
 20
302.5000000000001
 30
0.0
 11
431.1848673109083
 21
302.5000000000001
 31
0.0
  0
LINE
  5
F7
  8
1
  6
CONTINUOUS
 62
     7
 10
431.1848673109083
 20
293.0000000000001
 30
0.0
 11
431.1848673109083
 21
302.5000000000001
 31
0.0
  0
LINE
  5
F8
  8
1
  6
CONTINUOUS
 62
     7
 10
426.2358942474008
 20
296.0000000000001
 30
0.0
 11
426.2358942474008
 21
324.0000000000001
 31
0.0
  0
POLYLINE
  5
F9
  8
1
  6
CONTINUOUS
 62
     7
 66
     1
 10
0.0
 20
0.0
 30
0.0
  0
VERTEX
  5
41E
  8
1
  6
CONTINUOUS
 62
     7
 10
426.7568387804016
 20
327.0000000000001
 30
0.0
  0
VERTEX
  5
41F
  8
1
  6
CONTINUOUS
 62
     7
 10
426.655207543706
 20
326.9423558412097
 30
0.0
  0
VERTEX
  5
420
  8
1
  6
CONTINUOUS
 62
     7
 10
426.557481938441
 20
326.7716385975339
 30
0.0
  0
VERTEX
  5
421
  8
1
  6
CONTINUOUS
 62
     7
 10
426.467417504812
 20
326.4944088369077
 30
0.0
  0
VERTEX
  5
422
  8
1
  6
CONTINUOUS
 62
     7
 10
426.3884753684947
 20
326.1213203435597
 30
0.0
  0
VERTEX
  5
423
  8
1
  6
CONTINUOUS
 62
     7
 10
426.3236892315163
 20
325.6667106990589
 30
0.0
  0
VERTEX
  5
424
  8
1
  6
CONTINUOUS
 62
     7
 10
426.2755487887885
 20
325.1480502970953
 30
0.0
  0
VERTEX
  5
425
  8
1
  6
CONTINUOUS
 62
     7
 10
426.2459040505279
 20
324.5852709660484
 30
0.0
  0
VERTEX
  5
426
  8
1
  6
CONTINUOUS
 62
     7
 10
426.2358942474008
 20
324.0000000000001
 30
0.0
  0
SEQEND
  5
553
  8
1
  6
CONTINUOUS
 62
     7
  0
LINE
  5
FA
  8
1
  6
CONTINUOUS
 62
     7
 10
431.1848673109083
 20
327.0000000000001
 30
0.0
 11
431.1848673109083
 21
317.5000000000001
 31
0.0
  0
LINE
  5
FB
  8
1
  6
CONTINUOUS
 62
     7
 10
430.0952949943185
 20
317.5000000000001
 30
0.0
 11
431.1848673109083
 21
317.5000000000001
 31
0.0
  0
POLYLINE
  5
FC
  8
1
  6
CONTINUOUS
 62
     7
 66
     1
 10
0.0
 20
0.0
 30
0.0
  0
VERTEX
  5
427
  8
1
  6
CONTINUOUS
 62
     7
 10
430.0952949943185
 20
317.5000000000001
 30
0.0
  0
VERTEX
  5
428
  8
1
  6
CONTINUOUS
 62
     7
 10
430.0770460514158
 20
317.4888310364
 30
0.0
  0
VERTEX
  5
429
  8
1
  6
CONTINUOUS
 62
     7
 10
430.0596123956292
 20
317.4558231285916
 30
0.0
  0
VERTEX
  5
42A
  8
1
  6
CONTINUOUS
 62
     7
 10
430.0437728904263
 20
317.402450933058
 30
0.0
  0
VERTEX
  5
42B
  8
1
  6
CONTINUOUS
 62
     7
 10
430.0302351792352
 20
317.331098898236
 30
0.0
  0
SEQEND
  5
554
  8
1
  6
CONTINUOUS
 62
     7
  0
LINE
  5
FD
  8
1
  6
CONTINUOUS
 62
     7
 10
429.422210057777
 20
313.3689011017642
 30
0.0
 11
430.0302351792352
 21
317.3310988982359
 31
0.0
  0
POLYLINE
  5
FE
  8
1
  6
CONTINUOUS
 62
     7
 66
     1
 10
0.0
 20
0.0
 30
0.0
  0
VERTEX
  5
42C
  8
1
  6
CONTINUOUS
 62
     7
 10
429.3571502426937
 20
313.2
 30
0.0
  0
VERTEX
  5
42D
  8
1
  6
CONTINUOUS
 62
     7
 10
429.3753991855964
 20
313.2111689636001
 30
0.0
  0
VERTEX
  5
42E
  8
1
  6
CONTINUOUS
 62
     7
 10
429.392832841383
 20
313.2441768714085
 30
0.0
  0
VERTEX
  5
42F
  8
1
  6
CONTINUOUS
 62
     7
 10
429.4086723465859
 20
313.2975490669421
 30
0.0
  0
VERTEX
  5
430
  8
1
  6
CONTINUOUS
 62
     7
 10
429.422210057777
 20
313.3689011017642
 30
0.0
  0
SEQEND
  5
555
  8
1
  6
CONTINUOUS
 62
     7
  0
LINE
  5
FF
  8
1
  6
CONTINUOUS
 62
     7
 10
427.6077148509696
 20
313.2
 30
0.0
 11
429.3571502426937
 21
313.2
 31
0.0
  0
POLYLINE
  5
100
  8
1
  6
CONTINUOUS
 62
     7
 66
     1
 10
0.0
 20
0.0
 30
0.0
  0
VERTEX
  5
431
  8
1
  6
CONTINUOUS
 62
     7
 10
427.6077148509696
 20
313.2
 30
0.0
  0
VERTEX
  5
432
  8
1
  6
CONTINUOUS
 62
     7
 10
427.4993081984942
 20
313.1385128972904
 30
0.0
  0
VERTEX
  5
433
  8
1
  6
CONTINUOUS
 62
     7
 10
427.3950675528783
 20
312.9564145040362
 30
0.0
  0
VERTEX
  5
434
  8
1
  6
CONTINUOUS
 62
     7
 10
427.2989988236741
 20
312.6607027593682
 30
0.0
  0
VERTEX
  5
435
  8
1
  6
CONTINUOUS
 62
     7
 10
427.2147938782689
 20
312.262741699797
 30
0.0
  0
VERTEX
  5
436
  8
1
  6
CONTINUOUS
 62
     7
 10
427.1456886654919
 20
311.7778247456628
 30
0.0
  0
VERTEX
  5
437
  8
1
  6
CONTINUOUS
 62
     7
 10
427.0943388599156
 20
311.2245869835683
 30
0.0
  0
VERTEX
  5
438
  8
1
  6
CONTINUOUS
 62
     7
 10
427.062717805771
 20
310.6242890304517
 30
0.0
  0
VERTEX
  5
439
  8
1
  6
CONTINUOUS
 62
     7
 10
427.0520406824355
 20
310.0000000000001
 30
0.0
  0
VERTEX
  5
43A
  8
1
  6
CONTINUOUS
 62
     7
 10
427.062717805771
 20
309.3757109695484
 30
0.0
  0
VERTEX
  5
43B
  8
1
  6
CONTINUOUS
 62
     7
 10
427.0943388599156
 20
308.7754130164318
 30
0.0
  0
VERTEX
  5
43C
  8
1
  6
CONTINUOUS
 62
     7
 10
427.1456886654919
 20
308.2221752543373
 30
0.0
  0
VERTEX
  5
43D
  8
1
  6
CONTINUOUS
 62
     7
 10
427.2147938782689
 20
307.7372583002031
 30
0.0
  0
VERTEX
  5
43E
  8
1
  6
CONTINUOUS
 62
     7
 10
427.2989988236741
 20
307.3392972406319
 30
0.0
  0
VERTEX
  5
43F
  8
1
  6
CONTINUOUS
 62
     7
 10
427.3950675528783
 20
307.043585495964
 30
0.0
  0
VERTEX
  5
440
  8
1
  6
CONTINUOUS
 62
     7
 10
427.4993081984942
 20
306.8614871027098
 30
0.0
  0
VERTEX
  5
441
  8
1
  6
CONTINUOUS
 62
     7
 10
427.6077148509696
 20
306.8000000000001
 30
0.0
  0
SEQEND
  5
556
  8
1
  6
CONTINUOUS
 62
     7
  0
LINE
  5
101
  8
1
  6
CONTINUOUS
 62
     7
 10
427.6077148509696
 20
306.8000000000001
 30
0.0
 11
429.3571502426937
 21
306.8000000000001
 31
0.0
  0
POLYLINE
  5
102
  8
1
  6
CONTINUOUS
 62
     7
 66
     1
 10
0.0
 20
0.0
 30
0.0
  0
VERTEX
  5
442
  8
1
  6
CONTINUOUS
 62
     7
 10
429.422210057777
 20
306.631098898236
 30
0.0
  0
VERTEX
  5
443
  8
1
  6
CONTINUOUS
 62
     7
 10
429.4086723465859
 20
306.702450933058
 30
0.0
  0
VERTEX
  5
444
  8
1
  6
CONTINUOUS
 62
     7
 10
429.392832841383
 20
306.7558231285916
 30
0.0
  0
VERTEX
  5
445
  8
1
  6
CONTINUOUS
 62
     7
 10
429.3753991855964
 20
306.7888310364
 30
0.0
  0
VERTEX
  5
446
  8
1
  6
CONTINUOUS
 62
     7
 10
429.3571502426937
 20
306.8000000000001
 30
0.0
  0
SEQEND
  5
557
  8
1
  6
CONTINUOUS
 62
     7
  0
LINE
  5
103
  8
1
  6
CONTINUOUS
 62
     7
 10
429.422210057777
 20
306.6310988982359
 30
0.0
 11
430.0302351792352
 21
302.6689011017642
 31
0.0
  0
POLYLINE
  5
104
  8
1
  6
CONTINUOUS
 62
     7
 66
     1
 10
0.0
 20
0.0
 30
0.0
  0
VERTEX
  5
447
  8
1
  6
CONTINUOUS
 62
     7
 10
427.9289639796534
 20
299.0000000000001
 30
0.0
  0
VERTEX
  5
448
  8
1
  6
CONTINUOUS
 62
     7
 10
427.9381396325199
 20
298.4635016144557
 30
0.0
  0
VERTEX
  5
449
  8
1
  6
CONTINUOUS
 62
     7
 10
427.9653139759255
 20
297.947620560996
 30
0.0
  0
VERTEX
  5
44A
  8
1
  6
CONTINUOUS
 62
     7
 10
428.0094427150926
 20
297.4721818591962
 30
0.0
  0
VERTEX
  5
44B
  8
1
  6
CONTINUOUS
 62
     7
 10
428.0688300073228
 20
297.055456351737
 30
0.0
  0
VERTEX
  5
44C
  8
1
  6
CONTINUOUS
 62
     7
 10
428.1411936322804
 20
296.713458566168
 30
0.0
  0
VERTEX
  5
44D
  8
1
  6
CONTINUOUS
 62
     7
 10
428.2237526964403
 20
296.459331285594
 30
0.0
  0
VERTEX
  5
44E
  8
1
  6
CONTINUOUS
 62
     7
 10
428.3133345012665
 20
296.3028404788911
 30
0.0
  0
VERTEX
  5
44F
  8
1
  6
CONTINUOUS
 62
     7
 10
428.4064964682375
 20
296.25
 30
0.0
  0
SEQEND
  5
558
  8
1
  6
CONTINUOUS
 62
     7
  0
POLYLINE
  5
105
  8
1
  6
CONTINUOUS
 62
     7
 66
     1
 10
0.0
 20
0.0
 30
0.0
  0
VERTEX
  5
450
  8
1
  6
CONTINUOUS
 62
     7
 10
423.6054539707625
 20
327.0000000000001
 30
0.0
  0
VERTEX
  5
451
  8
1
  6
CONTINUOUS
 62
     7
 10
423.5038227340669
 20
326.9423558412097
 30
0.0
  0
VERTEX
  5
452
  8
1
  6
CONTINUOUS
 62
     7
 10
423.4060971288019
 20
326.7716385975339
 30
0.0
  0
VERTEX
  5
453
  8
1
  6
CONTINUOUS
 62
     7
 10
423.316032695173
 20
326.4944088369077
 30
0.0
  0
VERTEX
  5
454
  8
1
  6
CONTINUOUS
 62
     7
 10
423.2370905588556
 20
326.1213203435597
 30
0.0
  0
VERTEX
  5
455
  8
1
  6
CONTINUOUS
 62
     7
 10
423.1723044218772
 20
325.6667106990589
 30
0.0
  0
VERTEX
  5
456
  8
1
  6
CONTINUOUS
 62
     7
 10
423.1241639791494
 20
325.1480502970953
 30
0.0
  0
VERTEX
  5
457
  8
1
  6
CONTINUOUS
 62
     7
 10
423.0945192408888
 20
324.5852709660484
 30
0.0
  0
VERTEX
  5
458
  8
1
  6
CONTINUOUS
 62
     7
 10
423.0845094377618
 20
324.0000000000001
 30
0.0
  0
SEQEND
  5
559
  8
1
  6
CONTINUOUS
 62
     7
  0
LINE
  5
106
  8
1
  6
CONTINUOUS
 62
     7
 10
423.0845094377618
 20
296.0000000000001
 30
0.0
 11
423.0845094377618
 21
324.0000000000001
 31
0.0
  0
POLYLINE
  5
107
  8
1
  6
CONTINUOUS
 62
     7
 66
     1
 10
0.0
 20
0.0
 30
0.0
  0
VERTEX
  5
459
  8
1
  6
CONTINUOUS
 62
     7
 10
428.4064964682375
 20
301.7500000000001
 30
0.0
  0
VERTEX
  5
45A
  8
1
  6
CONTINUOUS
 62
     7
 10
428.3133345012665
 20
301.697159521109
 30
0.0
  0
VERTEX
  5
45B
  8
1
  6
CONTINUOUS
 62
     7
 10
428.2237526964403
 20
301.5406687144061
 30
0.0
  0
VERTEX
  5
45C
  8
1
  6
CONTINUOUS
 62
     7
 10
428.1411936322804
 20
301.2865414338321
 30
0.0
  0
VERTEX
  5
45D
  8
1
  6
CONTINUOUS
 62
     7
 10
428.0688300073228
 20
300.9445436482631
 30
0.0
  0
VERTEX
  5
45E
  8
1
  6
CONTINUOUS
 62
     7
 10
428.0094427150926
 20
300.527818140804
 30
0.0
  0
VERTEX
  5
45F
  8
1
  6
CONTINUOUS
 62
     7
 10
427.9653139759255
 20
300.0523794390041
 30
0.0
  0
VERTEX
  5
460
  8
1
  6
CONTINUOUS
 62
     7
 10
427.9381396325199
 20
299.5364983855444
 30
0.0
  0
VERTEX
  5
461
  8
1
  6
CONTINUOUS
 62
     7
 10
427.9289639796534
 20
299.0000000000001
 30
0.0
  0
SEQEND
  5
55A
  8
1
  6
CONTINUOUS
 62
     7
  0
POLYLINE
  5
108
  8
1
  6
CONTINUOUS
 62
     7
 66
     1
 10
0.0
 20
0.0
 30
0.0
  0
VERTEX
  5
462
  8
1
  6
CONTINUOUS
 62
     7
 10
428.4064964682375
 20
296.25
 30
0.0
  0
VERTEX
  5
463
  8
1
  6
CONTINUOUS
 62
     7
 10
428.4996584352085
 20
296.3028404788911
 30
0.0
  0
VERTEX
  5
464
  8
1
  6
CONTINUOUS
 62
     7
 10
428.5892402400347
 20
296.459331285594
 30
0.0
  0
VERTEX
  5
465
  8
1
  6
CONTINUOUS
 62
     7
 10
428.6717993041946
 20
296.713458566168
 30
0.0
  0
VERTEX
  5
466
  8
1
  6
CONTINUOUS
 62
     7
 10
428.7441629291522
 20
297.055456351737
 30
0.0
  0
VERTEX
  5
467
  8
1
  6
CONTINUOUS
 62
     7
 10
428.8035502213824
 20
297.4721818591962
 30
0.0
  0
VERTEX
  5
468
  8
1
  6
CONTINUOUS
 62
     7
 10
428.8476789605495
 20
297.947620560996
 30
0.0
  0
VERTEX
  5
469
  8
1
  6
CONTINUOUS
 62
     7
 10
428.8748533039551
 20
298.4635016144557
 30
0.0
  0
VERTEX
  5
46A
  8
1
  6
CONTINUOUS
 62
     7
 10
428.8840289568216
 20
299.0000000000001
 30
0.0
  0
VERTEX
  5
46B
  8
1
  6
CONTINUOUS
 62
     7
 10
428.8748533039551
 20
299.5364983855444
 30
0.0
  0
VERTEX
  5
46C
  8
1
  6
CONTINUOUS
 62
     7
 10
428.8476789605495
 20
300.0523794390041
 30
0.0
  0
VERTEX
  5
46D
  8
1
  6
CONTINUOUS
 62
     7
 10
428.8035502213824
 20
300.527818140804
 30
0.0
  0
VERTEX
  5
46E
  8
1
  6
CONTINUOUS
 62
     7
 10
428.7441629291522
 20
300.9445436482631
 30
0.0
  0
VERTEX
  5
46F
  8
1
  6
CONTINUOUS
 62
     7
 10
428.6717993041946
 20
301.2865414338321
 30
0.0
  0
VERTEX
  5
470
  8
1
  6
CONTINUOUS
 62
     7
 10
428.5892402400347
 20
301.5406687144061
 30
0.0
  0
VERTEX
  5
471
  8
1
  6
CONTINUOUS
 62
     7
 10
428.4996584352085
 20
301.697159521109
 30
0.0
  0
VERTEX
  5
472
  8
1
  6
CONTINUOUS
 62
     7
 10
428.4064964682375
 20
301.7500000000001
 30
0.0
  0
SEQEND
  5
55B
  8
1
  6
CONTINUOUS
 62
     7
  0
POLYLINE
  5
109
  8
1
  6
CONTINUOUS
 62
     7
 66
     1
 10
0.0
 20
0.0
 30
0.0
  0
VERTEX
  5
473
  8
1
  6
CONTINUOUS
 62
     7
 10
427.9289639796534
 20
321.0000000000001
 30
0.0
  0
VERTEX
  5
474
  8
1
  6
CONTINUOUS
 62
     7
 10
427.9381396325199
 20
320.4635016144557
 30
0.0
  0
VERTEX
  5
475
  8
1
  6
CONTINUOUS
 62
     7
 10
427.9653139759255
 20
319.947620560996
 30
0.0
  0
VERTEX
  5
476
  8
1
  6
CONTINUOUS
 62
     7
 10
428.0094427150926
 20
319.4721818591962
 30
0.0
  0
VERTEX
  5
477
  8
1
  6
CONTINUOUS
 62
     7
 10
428.0688300073228
 20
319.055456351737
 30
0.0
  0
VERTEX
  5
478
  8
1
  6
CONTINUOUS
 62
     7
 10
428.1411936322804
 20
318.713458566168
 30
0.0
  0
VERTEX
  5
479
  8
1
  6
CONTINUOUS
 62
     7
 10
428.2237526964403
 20
318.459331285594
 30
0.0
  0
VERTEX
  5
47A
  8
1
  6
CONTINUOUS
 62
     7
 10
428.3133345012665
 20
318.3028404788911
 30
0.0
  0
VERTEX
  5
47B
  8
1
  6
CONTINUOUS
 62
     7
 10
428.4064964682375
 20
318.25
 30
0.0
  0
SEQEND
  5
55C
  8
1
  6
CONTINUOUS
 62
     7
  0
POLYLINE
  5
10A
  8
1
  6
CONTINUOUS
 62
     7
 66
     1
 10
0.0
 20
0.0
 30
0.0
  0
VERTEX
  5
47C
  8
1
  6
CONTINUOUS
 62
     7
 10
428.4064964682375
 20
318.25
 30
0.0
  0
VERTEX
  5
47D
  8
1
  6
CONTINUOUS
 62
     7
 10
428.4996584352085
 20
318.3028404788911
 30
0.0
  0
VERTEX
  5
47E
  8
1
  6
CONTINUOUS
 62
     7
 10
428.5892402400347
 20
318.459331285594
 30
0.0
  0
VERTEX
  5
47F
  8
1
  6
CONTINUOUS
 62
     7
 10
428.6717993041946
 20
318.713458566168
 30
0.0
  0
VERTEX
  5
480
  8
1
  6
CONTINUOUS
 62
     7
 10
428.7441629291522
 20
319.055456351737
 30
0.0
  0
VERTEX
  5
481
  8
1
  6
CONTINUOUS
 62
     7
 10
428.8035502213824
 20
319.4721818591962
 30
0.0
  0
VERTEX
  5
482
  8
1
  6
CONTINUOUS
 62
     7
 10
428.8476789605495
 20
319.947620560996
 30
0.0
  0
VERTEX
  5
483
  8
1
  6
CONTINUOUS
 62
     7
 10
428.8748533039551
 20
320.4635016144557
 30
0.0
  0
VERTEX
  5
484
  8
1
  6
CONTINUOUS
 62
     7
 10
428.8840289568216
 20
321.0000000000001
 30
0.0
  0
VERTEX
  5
485
  8
1
  6
CONTINUOUS
 62
     7
 10
428.8748533039551
 20
321.5364983855444
 30
0.0
  0
VERTEX
  5
486
  8
1
  6
CONTINUOUS
 62
     7
 10
428.8476789605495
 20
322.0523794390041
 30
0.0
  0
VERTEX
  5
487
  8
1
  6
CONTINUOUS
 62
     7
 10
428.8035502213824
 20
322.527818140804
 30
0.0
  0
VERTEX
  5
488
  8
1
  6
CONTINUOUS
 62
     7
 10
428.7441629291522
 20
322.9445436482631
 30
0.0
  0
VERTEX
  5
489
  8
1
  6
CONTINUOUS
 62
     7
 10
428.6717993041946
 20
323.2865414338321
 30
0.0
  0
VERTEX
  5
48A
  8
1
  6
CONTINUOUS
 62
     7
 10
428.5892402400347
 20
323.5406687144061
 30
0.0
  0
VERTEX
  5
48B
  8
1
  6
CONTINUOUS
 62
     7
 10
428.4996584352085
 20
323.697159521109
 30
0.0
  0
VERTEX
  5
48C
  8
1
  6
CONTINUOUS
 62
     7
 10
428.4064964682375
 20
323.7500000000001
 30
0.0
  0
SEQEND
  5
55D
  8
1
  6
CONTINUOUS
 62
     7
  0
LINE
  5
10B
  8
1
  6
CONTINUOUS
 62
     7
 10
446.6848673109083
 20
299.5000000000001
 30
0.0
 11
443.6848673109085
 21
299.5000000000001
 31
0.0
  0
LINE
  5
10C
  8
1
  6
CONTINUOUS
 62
     7
 10
446.6848673109083
 20
320.5000000000001
 30
0.0
 11
446.6848673109083
 21
299.5000000000001
 31
0.0
  0
LINE
  5
10D
  8
1
  6
CONTINUOUS
 62
     7
 10
446.6848673109083
 20
320.5000000000001
 30
0.0
 11
443.6848673109085
 21
320.5000000000001
 31
0.0
  0
LINE
  5
10E
  8
1
  6
CONTINUOUS
 62
     7
 10
443.6848673109085
 20
320.5000000000001
 30
0.0
 11
443.6848673109085
 21
299.5000000000001
 31
0.0
  0
LINE
  5
10F
  8
1
  6
CONTINUOUS
 62
     7
 10
438.5093055901141
 20
320.2466643547022
 30
0.0
 11
431.1848673109083
 21
317.5000000000001
 31
0.0
  0
ARC
  5
110
  8
1
  6
CONTINUOUS
 62
     7
 10
448.1848673109083
 20
324.0000000000001
 30
0.0
 40
3.000000000000003
 50
0.0
 51
90.0
  0
LINE
  5
111
  8
1
  6
CONTINUOUS
 62
     7
 10
451.1848673109083
 20
296.0000000000001
 30
0.0
 11
451.1848673109083
 21
300.0000000000001
 31
0.0
  0
LINE
  5
112
  8
1
  6
CONTINUOUS
 62
     7
 10
451.1848673109083
 20
320.0000000000001
 30
0.0
 11
451.1848673109083
 21
324.0000000000001
 31
0.0
  0
ARC
  5
113
  8
1
  6
CONTINUOUS
 62
     7
 10
448.1848673109083
 20
296.0000000000001
 30
0.0
 40
3.000000000000003
 50
270.0
 51
0.0
  0
LINE
  5
114
  8
1
  6
CONTINUOUS
 62
     7
 10
438.5093055901141
 20
299.7533356452979
 30
0.0
 11
431.1848673109083
 21
302.5000000000001
 31
0.0
  0
ARC
  5
115
  8
1
  6
CONTINUOUS
 62
     7
 10
438.6848673109083
 20
300.2215002340824
 30
0.0
 40
0.5000000000000004
 50
249.4439547804168
 51
0.0000000000003979
  0
LINE
  5
116
  8
1
  6
CONTINUOUS
 62
     7
 10
439.1848673109083
 20
319.7784997659177
 30
0.0
 11
439.1848673109083
 21
300.2215002340824
 31
0.0
  0
ARC
  5
117
  8
1
  6
CONTINUOUS
 62
     7
 10
438.6848673109083
 20
319.7784997659177
 30
0.0
 40
0.5000000000000004
 50
359.9999999999996
 51
110.5560452195833
  0
LINE
  5
118
  8
1
  6
CONTINUOUS
 62
     7
 10
856.5921627871558
 20
301.2236067977501
 30
0.0
 11
856.5921627871558
 21
300.7763932022501
 31
0.0
  0
POLYLINE
  5
119
  8
1
  6
CONTINUOUS
 62
     7
 66
     1
 10
0.0
 20
0.0
 30
0.0
  0
VERTEX
  5
48D
  8
1
  6
CONTINUOUS
 62
     7
 10
856.5921627871556
 20
301.22360679775
 30
0.0
  0
VERTEX
  5
48E
  8
1
  6
CONTINUOUS
 62
     7
 10
856.0478009592034
 20
302.1996474140368
 30
0.0
  0
VERTEX
  5
48F
  8
1
  6
CONTINUOUS
 62
     7
 10
855.3367947686471
 20
302.7982709416962
 30
0.0
  0
VERTEX
  5
490
  8
1
  6
CONTINUOUS
 62
     7
 10
854.4822781847234
 20
303.0000000000001
 30
0.0
  0
VERTEX
  5
491
  8
1
  6
CONTINUOUS
 62
     7
 10
853.5120545664296
 20
302.7982709416963
 30
0.0
  0
VERTEX
  5
492
  8
1
  6
CONTINUOUS
 62
     7
 10
852.4576920261625
 20
302.1996474140369
 30
0.0
  0
VERTEX
  5
493
  8
1
  6
CONTINUOUS
 62
     7
 10
851.3534962997865
 20
301.2236067977501
 30
0.0
  0
SEQEND
  5
55E
  8
1
  6
CONTINUOUS
 62
     7
  0
POLYLINE
  5
11A
  8
1
  6
CONTINUOUS
 62
     7
 66
     1
 10
0.0
 20
0.0
 30
0.0
  0
VERTEX
  5
494
  8
1
  6
CONTINUOUS
 62
     7
 10
851.3534962997865
 20
300.7763932022501
 30
0.0
  0
VERTEX
  5
495
  8
1
  6
CONTINUOUS
 62
     7
 10
851.341159320021
 20
300.7896586576827
 30
0.0
  0
VERTEX
  5
496
  8
1
  6
CONTINUOUS
 62
     7
 10
851.3293403862949
 20
300.8034459703381
 30
0.0
  0
VERTEX
  5
497
  8
1
  6
CONTINUOUS
 62
     7
 10
851.3181114980592
 20
300.817737967056
 30
0.0
  0
VERTEX
  5
498
  8
1
  6
CONTINUOUS
 62
     7
 10
851.3075446547649
 20
300.8325174746755
 30
0.0
  0
VERTEX
  5
499
  8
1
  6
CONTINUOUS
 62
     7
 10
851.2977118558626
 20
300.8477673200362
 30
0.0
  0
VERTEX
  5
49A
  8
1
  6
CONTINUOUS
 62
     7
 10
851.2886851008038
 20
300.8634703299774
 30
0.0
  0
VERTEX
  5
49B
  8
1
  6
CONTINUOUS
 62
     7
 10
851.2825048659748
 20
300.8754942901268
 30
0.0
  0
VERTEX
  5
49C
  8
1
  6
CONTINUOUS
 62
     7
 10
851.2768245788396
 20
300.8877769346084
 30
0.0
  0
VERTEX
  5
49D
  8
1
  6
CONTINUOUS
 62
     7
 10
851.2716780252065
 20
300.9002917220104
 30
0.0
  0
VERTEX
  5
49E
  8
1
  6
CONTINUOUS
 62
     7
 10
851.2670989908837
 20
300.913012110921
 30
0.0
  0
VERTEX
  5
49F
  8
1
  6
CONTINUOUS
 62
     7
 10
851.2629863917487
 20
300.9263845250221
 30
0.0
  0
VERTEX
  5
4A0
  8
1
  6
CONTINUOUS
 62
     7
 10
851.259529073812
 20
300.9399596824511
 30
0.0
  0
VERTEX
  5
4A1
  8
1
  6
CONTINUOUS
 62
     7
 10
851.2567537385487
 20
300.9536895330366
 30
0.0
  0
VERTEX
  5
4A2
  8
1
  6
CONTINUOUS
 62
     7
 10
851.254687087433
 20
300.9675260266072
 30
0.0
  0
VERTEX
  5
4A3
  8
1
  6
CONTINUOUS
 62
     7
 10
851.2534726038332
 20
300.9797413541354
 30
0.0
  0
VERTEX
  5
4A4
  8
1
  6
CONTINUOUS
 62
     7
 10
851.2528204259409
 20
300.992012813851
 30
0.0
  0
VERTEX
  5
4A5
  8
1
  6
CONTINUOUS
 62
     7
 10
851.2527332640656
 20
301.0043012004466
 30
0.0
  0
VERTEX
  5
4A6
  8
1
  6
CONTINUOUS
 62
     7
 10
851.2532138285173
 20
301.0165673086153
 30
0.0
  0
VERTEX
  5
4A7
  8
1
  6
CONTINUOUS
 62
     7
 10
851.254311766976
 20
301.0292356809451
 30
0.0
  0
VERTEX
  5
4A8
  8
1
  6
CONTINUOUS
 62
     7
 10
851.2560100473626
 20
301.0418516334813
 30
0.0
  0
VERTEX
  5
4A9
  8
1
  6
CONTINUOUS
 62
     7
 10
851.2582937707518
 20
301.0543753218136
 30
0.0
  0
VERTEX
  5
4AA
  8
1
  6
CONTINUOUS
 62
     7
 10
851.2611480382177
 20
301.0667669015317
 30
0.0
  0
VERTEX
  5
4AB
  8
1
  6
CONTINUOUS
 62
     7
 10
851.2652421444943
 20
301.0812137603518
 30
0.0
  0
VERTEX
  5
4AC
  8
1
  6
CONTINUOUS
 62
     7
 10
851.2700930142416
 20
301.0954584339611
 30
0.0
  0
VERTEX
  5
4AD
  8
1
  6
CONTINUOUS
 62
     7
 10
851.275655124329
 20
301.109463077735
 30
0.0
  0
VERTEX
  5
4AE
  8
1
  6
CONTINUOUS
 62
     7
 10
851.2818829516262
 20
301.1231898470489
 30
0.0
  0
VERTEX
  5
4AF
  8
1
  6
CONTINUOUS
 62
     7
 10
851.2887309730028
 20
301.1366008972783
 30
0.0
  0
VERTEX
  5
4B0
  8
1
  6
CONTINUOUS
 62
     7
 10
851.2961536653287
 20
301.1496583837986
 30
0.0
  0
VERTEX
  5
4B1
  8
1
  6
CONTINUOUS
 62
     7
 10
851.306185449751
 20
301.1654805756765
 30
0.0
  0
VERTEX
  5
4B2
  8
1
  6
CONTINUOUS
 62
     7
 10
851.3170130961514
 20
301.1808019197448
 30
0.0
  0
VERTEX
  5
4B3
  8
1
  6
CONTINUOUS
 62
     7
 10
851.3285591137867
 20
301.1956070092693
 30
0.0
  0
VERTEX
  5
4B4
  8
1
  6
CONTINUOUS
 62
     7
 10
851.3407460119129
 20
301.2098804375158
 30
0.0
  0
VERTEX
  5
4B5
  8
1
  6
CONTINUOUS
 62
     7
 10
851.3534962997865
 20
301.2236067977501
 30
0.0
  0
SEQEND
  5
55F
  8
1
  6
CONTINUOUS
 62
     7
  0
POLYLINE
  5
11B
  8
1
  6
CONTINUOUS
 62
     7
 66
     1
 10
0.0
 20
0.0
 30
0.0
  0
VERTEX
  5
4B6
  8
1
  6
CONTINUOUS
 62
     7
 10
851.3534962997865
 20
300.77639320225
 30
0.0
  0
VERTEX
  5
4B7
  8
1
  6
CONTINUOUS
 62
     7
 10
852.4576920261625
 20
299.8003525859632
 30
0.0
  0
VERTEX
  5
4B8
  8
1
  6
CONTINUOUS
 62
     7
 10
853.5120545664296
 20
299.2017290583039
 30
0.0
  0
VERTEX
  5
4B9
  8
1
  6
CONTINUOUS
 62
     7
 10
854.4822781847234
 20
299.0000000000001
 30
0.0
  0
VERTEX
  5
4BA
  8
1
  6
CONTINUOUS
 62
     7
 10
855.3367947686471
 20
299.201729058304
 30
0.0
  0
VERTEX
  5
4BB
  8
1
  6
CONTINUOUS
 62
     7
 10
856.0478009592034
 20
299.8003525859633
 30
0.0
  0
VERTEX
  5
4BC
  8
1
  6
CONTINUOUS
 62
     7
 10
856.5921627871556
 20
300.7763932022501
 30
0.0
  0
SEQEND
  5
560
  8
1
  6
CONTINUOUS
 62
     7
  0
LINE
  5
11C
  8
1
  6
CONTINUOUS
 62
     7
 10
847.8261042793471
 20
312.7
 30
0.0
 11
847.8261042793471
 21
307.3000000000001
 31
0.0
  0
LINE
  5
11D
  8
1
  6
CONTINUOUS
 62
     7
 10
856.5921627871558
 20
319.22360679775
 30
0.0
 11
856.5921627871558
 21
318.7763932022501
 31
0.0
  0
POLYLINE
  5
11E
  8
1
  6
CONTINUOUS
 62
     7
 66
     1
 10
0.0
 20
0.0
 30
0.0
  0
VERTEX
  5
4BD
  8
1
  6
CONTINUOUS
 62
     7
 10
856.5921627871556
 20
319.2236067977499
 30
0.0
  0
VERTEX
  5
4BE
  8
1
  6
CONTINUOUS
 62
     7
 10
856.0478009592034
 20
320.1996474140367
 30
0.0
  0
VERTEX
  5
4BF
  8
1
  6
CONTINUOUS
 62
     7
 10
855.336794768647
 20
320.7982709416961
 30
0.0
  0
VERTEX
  5
4C0
  8
1
  6
CONTINUOUS
 62
     7
 10
854.4822781847234
 20
321.0
 30
0.0
  0
VERTEX
  5
4C1
  8
1
  6
CONTINUOUS
 62
     7
 10
853.5120545664296
 20
320.7982709416962
 30
0.0
  0
VERTEX
  5
4C2
  8
1
  6
CONTINUOUS
 62
     7
 10
852.4576920261625
 20
320.1996474140368
 30
0.0
  0
VERTEX
  5
4C3
  8
1
  6
CONTINUOUS
 62
     7
 10
851.3534962997865
 20
319.22360679775
 30
0.0
  0
SEQEND
  5
561
  8
1
  6
CONTINUOUS
 62
     7
  0
POLYLINE
  5
11F
  8
1
  6
CONTINUOUS
 62
     7
 66
     1
 10
0.0
 20
0.0
 30
0.0
  0
VERTEX
  5
4C4
  8
1
  6
CONTINUOUS
 62
     7
 10
851.3534962997865
 20
318.7763932022501
 30
0.0
  0
VERTEX
  5
4C5
  8
1
  6
CONTINUOUS
 62
     7
 10
851.341159320021
 20
318.7896586576827
 30
0.0
  0
VERTEX
  5
4C6
  8
1
  6
CONTINUOUS
 62
     7
 10
851.3293403862949
 20
318.8034459703381
 30
0.0
  0
VERTEX
  5
4C7
  8
1
  6
CONTINUOUS
 62
     7
 10
851.3181114980592
 20
318.817737967056
 30
0.0
  0
VERTEX
  5
4C8
  8
1
  6
CONTINUOUS
 62
     7
 10
851.3075446547649
 20
318.8325174746756
 30
0.0
  0
VERTEX
  5
4C9
  8
1
  6
CONTINUOUS
 62
     7
 10
851.2977118558626
 20
318.8477673200362
 30
0.0
  0
VERTEX
  5
4CA
  8
1
  6
CONTINUOUS
 62
     7
 10
851.2886851008038
 20
318.8634703299774
 30
0.0
  0
VERTEX
  5
4CB
  8
1
  6
CONTINUOUS
 62
     7
 10
851.2825048659748
 20
318.8754942901268
 30
0.0
  0
VERTEX
  5
4CC
  8
1
  6
CONTINUOUS
 62
     7
 10
851.2768245788396
 20
318.8877769346084
 30
0.0
  0
VERTEX
  5
4CD
  8
1
  6
CONTINUOUS
 62
     7
 10
851.2716780252065
 20
318.9002917220104
 30
0.0
  0
VERTEX
  5
4CE
  8
1
  6
CONTINUOUS
 62
     7
 10
851.2670989908837
 20
318.9130121109209
 30
0.0
  0
VERTEX
  5
4CF
  8
1
  6
CONTINUOUS
 62
     7
 10
851.2629863917487
 20
318.926384525022
 30
0.0
  0
VERTEX
  5
4D0
  8
1
  6
CONTINUOUS
 62
     7
 10
851.2595290738121
 20
318.9399596824511
 30
0.0
  0
VERTEX
  5
4D1
  8
1
  6
CONTINUOUS
 62
     7
 10
851.2567537385488
 20
318.9536895330366
 30
0.0
  0
VERTEX
  5
4D2
  8
1
  6
CONTINUOUS
 62
     7
 10
851.2546870874331
 20
318.9675260266072
 30
0.0
  0
VERTEX
  5
4D3
  8
1
  6
CONTINUOUS
 62
     7
 10
851.2534726038332
 20
318.9797413541354
 30
0.0
  0
VERTEX
  5
4D4
  8
1
  6
CONTINUOUS
 62
     7
 10
851.2528204259409
 20
318.9920128138509
 30
0.0
  0
VERTEX
  5
4D5
  8
1
  6
CONTINUOUS
 62
     7
 10
851.2527332640656
 20
319.0043012004466
 30
0.0
  0
VERTEX
  5
4D6
  8
1
  6
CONTINUOUS
 62
     7
 10
851.2532138285173
 20
319.0165673086153
 30
0.0
  0
VERTEX
  5
4D7
  8
1
  6
CONTINUOUS
 62
     7
 10
851.2543117669759
 20
319.029235680945
 30
0.0
  0
VERTEX
  5
4D8
  8
1
  6
CONTINUOUS
 62
     7
 10
851.2560100473626
 20
319.0418516334813
 30
0.0
  0
VERTEX
  5
4D9
  8
1
  6
CONTINUOUS
 62
     7
 10
851.2582937707518
 20
319.0543753218136
 30
0.0
  0
VERTEX
  5
4DA
  8
1
  6
CONTINUOUS
 62
     7
 10
851.2611480382177
 20
319.0667669015317
 30
0.0
  0
VERTEX
  5
4DB
  8
1
  6
CONTINUOUS
 62
     7
 10
851.2652421444943
 20
319.0812137603519
 30
0.0
  0
VERTEX
  5
4DC
  8
1
  6
CONTINUOUS
 62
     7
 10
851.2700930142416
 20
319.0954584339611
 30
0.0
  0
VERTEX
  5
4DD
  8
1
  6
CONTINUOUS
 62
     7
 10
851.275655124329
 20
319.109463077735
 30
0.0
  0
VERTEX
  5
4DE
  8
1
  6
CONTINUOUS
 62
     7
 10
851.2818829516262
 20
319.1231898470488
 30
0.0
  0
VERTEX
  5
4DF
  8
1
  6
CONTINUOUS
 62
     7
 10
851.2887309730028
 20
319.1366008972782
 30
0.0
  0
VERTEX
  5
4E0
  8
1
  6
CONTINUOUS
 62
     7
 10
851.2961536653287
 20
319.1496583837987
 30
0.0
  0
VERTEX
  5
4E1
  8
1
  6
CONTINUOUS
 62
     7
 10
851.306185449751
 20
319.1654805756764
 30
0.0
  0
VERTEX
  5
4E2
  8
1
  6
CONTINUOUS
 62
     7
 10
851.3170130961514
 20
319.1808019197447
 30
0.0
  0
VERTEX
  5
4E3
  8
1
  6
CONTINUOUS
 62
     7
 10
851.3285591137867
 20
319.1956070092692
 30
0.0
  0
VERTEX
  5
4E4
  8
1
  6
CONTINUOUS
 62
     7
 10
851.3407460119129
 20
319.2098804375157
 30
0.0
  0
VERTEX
  5
4E5
  8
1
  6
CONTINUOUS
 62
     7
 10
851.3534962997865
 20
319.22360679775
 30
0.0
  0
SEQEND
  5
562
  8
1
  6
CONTINUOUS
 62
     7
  0
POLYLINE
  5
120
  8
1
  6
CONTINUOUS
 62
     7
 66
     1
 10
0.0
 20
0.0
 30
0.0
  0
VERTEX
  5
4E6
  8
1
  6
CONTINUOUS
 62
     7
 10
851.3534962997865
 20
318.7763932022501
 30
0.0
  0
VERTEX
  5
4E7
  8
1
  6
CONTINUOUS
 62
     7
 10
852.4576920261625
 20
317.8003525859633
 30
0.0
  0
VERTEX
  5
4E8
  8
1
  6
CONTINUOUS
 62
     7
 10
853.5120545664296
 20
317.201729058304
 30
0.0
  0
VERTEX
  5
4E9
  8
1
  6
CONTINUOUS
 62
     7
 10
854.4822781847234
 20
317.0000000000001
 30
0.0
  0
VERTEX
  5
4EA
  8
1
  6
CONTINUOUS
 62
     7
 10
855.3367947686471
 20
317.201729058304
 30
0.0
  0
VERTEX
  5
4EB
  8
1
  6
CONTINUOUS
 62
     7
 10
856.0478009592034
 20
317.8003525859634
 30
0.0
  0
VERTEX
  5
4EC
  8
1
  6
CONTINUOUS
 62
     7
 10
856.5921627871556
 20
318.7763932022502
 30
0.0
  0
SEQEND
  5
563
  8
1
  6
CONTINUOUS
 62
     7
  0
POLYLINE
  5
121
  8
1
  6
CONTINUOUS
 62
     7
 66
     1
 10
0.0
 20
0.0
 30
0.0
  0
VERTEX
  5
4ED
  8
1
  6
CONTINUOUS
 62
     7
 10
847.8261042793471
 20
312.7
 30
0.0
  0
VERTEX
  5
4EE
  8
1
  6
CONTINUOUS
 62
     7
 10
847.8177840616984
 20
312.7975451610081
 30
0.0
  0
VERTEX
  5
4EF
  8
1
  6
CONTINUOUS
 62
     7
 10
847.7931431500505
 20
312.8913417161826
 30
0.0
  0
VERTEX
  5
4F0
  8
1
  6
CONTINUOUS
 62
     7
 10
847.7531284808192
 20
312.9777851165098
 30
0.0
  0
VERTEX
  5
4F1
  8
1
  6
CONTINUOUS
 62
     7
 10
847.6992777953027
 20
313.0535533905933
 30
0.0
  0
VERTEX
  5
4F2
  8
1
  6
CONTINUOUS
 62
     7
 10
847.6336605451455
 20
313.1157348061513
 30
0.0
  0
VERTEX
  5
4F3
  8
1
  6
CONTINUOUS
 62
     7
 10
847.5587983644726
 20
313.1619397662557
 30
0.0
  0
VERTEX
  5
4F4
  8
1
  6
CONTINUOUS
 62
     7
 10
847.477568164904
 20
313.1903926402017
 30
0.0
  0
VERTEX
  5
4F5
  8
1
  6
CONTINUOUS
 62
     7
 10
847.3930915774548
 20
313.2
 30
0.0
  0
SEQEND
  5
564
  8
1
  6
CONTINUOUS
 62
     7
  0
LINE
  5
122
  8
1
  6
CONTINUOUS
 62
     7
 10
847.3930915774549
 20
306.8000000000001
 30
0.0
 11
846.8680222448377
 21
306.8000000000001
 31
0.0
  0
LINE
  5
123
  8
1
  6
CONTINUOUS
 62
     7
 10
835.8347017914707
 20
306.8000000000001
 30
0.0
 11
831.804634309335
 21
306.8000000000001
 31
0.0
  0
POLYLINE
  5
124
  8
1
  6
CONTINUOUS
 62
     7
 66
     1
 10
0.0
 20
0.0
 30
0.0
  0
VERTEX
  5
4F6
  8
1
  6
CONTINUOUS
 62
     7
 10
847.3930915774548
 20
306.8000000000001
 30
0.0
  0
VERTEX
  5
4F7
  8
1
  6
CONTINUOUS
 62
     7
 10
847.477568164904
 20
306.8096073597985
 30
0.0
  0
VERTEX
  5
4F8
  8
1
  6
CONTINUOUS
 62
     7
 10
847.5587983644726
 20
306.8380602337444
 30
0.0
  0
VERTEX
  5
4F9
  8
1
  6
CONTINUOUS
 62
     7
 10
847.6336605451455
 20
306.8842651938488
 30
0.0
  0
VERTEX
  5
4FA
  8
1
  6
CONTINUOUS
 62
     7
 10
847.6992777953027
 20
306.9464466094068
 30
0.0
  0
VERTEX
  5
4FB
  8
1
  6
CONTINUOUS
 62
     7
 10
847.7531284808192
 20
307.0222148834903
 30
0.0
  0
VERTEX
  5
4FC
  8
1
  6
CONTINUOUS
 62
     7
 10
847.7931431500505
 20
307.1086582838175
 30
0.0
  0
VERTEX
  5
4FD
  8
1
  6
CONTINUOUS
 62
     7
 10
847.8177840616984
 20
307.202454838992
 30
0.0
  0
VERTEX
  5
4FE
  8
1
  6
CONTINUOUS
 62
     7
 10
847.8261042793471
 20
307.3000000000001
 30
0.0
  0
SEQEND
  5
565
  8
1
  6
CONTINUOUS
 62
     7
  0
POLYLINE
  5
125
  8
1
  6
CONTINUOUS
 62
     7
 66
     1
 10
0.0
 20
0.0
 30
0.0
  0
VERTEX
  5
4FF
  8
1
  6
CONTINUOUS
 62
     7
 10
830.9386089055505
 20
298.0000000000001
 30
0.0
  0
VERTEX
  5
500
  8
1
  6
CONTINUOUS
 62
     7
 10
831.0218110820375
 20
297.0245483899194
 30
0.0
  0
VERTEX
  5
501
  8
1
  6
CONTINUOUS
 62
     7
 10
831.2682201985164
 20
296.0865828381746
 30
0.0
  0
VERTEX
  5
502
  8
1
  6
CONTINUOUS
 62
     7
 10
831.6683668908287
 20
295.222148834902
 30
0.0
  0
VERTEX
  5
503
  8
1
  6
CONTINUOUS
 62
     7
 10
832.2068737459937
 20
294.4644660940673
 30
0.0
  0
VERTEX
  5
504
  8
1
  6
CONTINUOUS
 62
     7
 10
832.8630462475656
 20
293.8426519384873
 30
0.0
  0
VERTEX
  5
505
  8
1
  6
CONTINUOUS
 62
     7
 10
833.6116680542948
 20
293.3806023374436
 30
0.0
  0
VERTEX
  5
506
  8
1
  6
CONTINUOUS
 62
     7
 10
834.4239700499804
 20
293.0960735979839
 30
0.0
  0
VERTEX
  5
507
  8
1
  6
CONTINUOUS
 62
     7
 10
835.2687359244727
 20
293.0000000000001
 30
0.0
  0
SEQEND
  5
566
  8
1
  6
CONTINUOUS
 62
     7
  0
LINE
  5
126
  8
1
  6
CONTINUOUS
 62
     7
 10
830.9386089055505
 20
298.0000000000001
 30
0.0
 11
830.9386089055505
 21
305.8000000000001
 31
0.0
  0
POLYLINE
  5
127
  8
1
  6
CONTINUOUS
 62
     7
 66
     1
 10
0.0
 20
0.0
 30
0.0
  0
VERTEX
  5
508
  8
1
  6
CONTINUOUS
 62
     7
 10
831.8046343093348
 20
306.8000000000001
 30
0.0
  0
VERTEX
  5
509
  8
1
  6
CONTINUOUS
 62
     7
 10
831.6356811344364
 20
306.7807852804033
 30
0.0
  0
VERTEX
  5
50A
  8
1
  6
CONTINUOUS
 62
     7
 10
831.4732207352993
 20
306.7238795325113
 30
0.0
  0
VERTEX
  5
50B
  8
1
  6
CONTINUOUS
 62
     7
 10
831.3234963739534
 20
306.6314696123025
 30
0.0
  0
VERTEX
  5
50C
  8
1
  6
CONTINUOUS
 62
     7
 10
831.192261873639
 20
306.5071067811865
 30
0.0
  0
VERTEX
  5
50D
  8
1
  6
CONTINUOUS
 62
     7
 10
831.084560502606
 20
306.3555702330195
 30
0.0
  0
VERTEX
  5
50E
  8
1
  6
CONTINUOUS
 62
     7
 10
831.0045311641436
 20
306.182683432365
 30
0.0
  0
VERTEX
  5
50F
  8
1
  6
CONTINUOUS
 62
     7
 10
830.9552493408478
 20
305.995090322016
 30
0.0
  0
VERTEX
  5
510
  8
1
  6
CONTINUOUS
 62
     7
 10
830.9386089055505
 20
305.7999999999998
 30
0.0
  0
SEQEND
  5
567
  8
1
  6
CONTINUOUS
 62
     7
  0
LINE
  5
128
  8
1
  6
CONTINUOUS
 62
     7
 10
830.9386089055505
 20
322.0000000000001
 30
0.0
 11
830.9386089055505
 21
314.2
 31
0.0
  0
POLYLINE
  5
129
  8
1
  6
CONTINUOUS
 62
     7
 66
     1
 10
0.0
 20
0.0
 30
0.0
  0
VERTEX
  5
511
  8
1
  6
CONTINUOUS
 62
     7
 10
835.2687359244727
 20
327.0000000000001
 30
0.0
  0
VERTEX
  5
512
  8
1
  6
CONTINUOUS
 62
     7
 10
834.4239700499804
 20
326.9039264020162
 30
0.0
  0
VERTEX
  5
513
  8
1
  6
CONTINUOUS
 62
     7
 10
833.6116680542948
 20
326.6193976625565
 30
0.0
  0
VERTEX
  5
514
  8
1
  6
CONTINUOUS
 62
     7
 10
832.8630462475656
 20
326.1573480615128
 30
0.0
  0
VERTEX
  5
515
  8
1
  6
CONTINUOUS
 62
     7
 10
832.2068737459937
 20
325.5355339059328
 30
0.0
  0
VERTEX
  5
516
  8
1
  6
CONTINUOUS
 62
     7
 10
831.6683668908287
 20
324.7778511650981
 30
0.0
  0
VERTEX
  5
517
  8
1
  6
CONTINUOUS
 62
     7
 10
831.2682201985164
 20
323.9134171618255
 30
0.0
  0
VERTEX
  5
518
  8
1
  6
CONTINUOUS
 62
     7
 10
831.0218110820375
 20
322.9754516100807
 30
0.0
  0
VERTEX
  5
519
  8
1
  6
CONTINUOUS
 62
     7
 10
830.9386089055505
 20
322.0000000000001
 30
0.0
  0
SEQEND
  5
568
  8
1
  6
CONTINUOUS
 62
     7
  0
LINE
  5
12A
  8
1
  6
CONTINUOUS
 62
     7
 10
847.3930915774549
 20
313.2
 30
0.0
 11
846.8680222448377
 21
313.2
 31
0.0
  0
LINE
  5
12B
  8
1
  6
CONTINUOUS
 62
     7
 10
835.8347017914707
 20
313.2
 30
0.0
 11
831.804634309335
 21
313.2
 31
0.0
  0
POLYLINE
  5
12C
  8
1
  6
CONTINUOUS
 62
     7
 66
     1
 10
0.0
 20
0.0
 30
0.0
  0
VERTEX
  5
51A
  8
1
  6
CONTINUOUS
 62
     7
 10
830.9386089055505
 20
314.2000000000003
 30
0.0
  0
VERTEX
  5
51B
  8
1
  6
CONTINUOUS
 62
     7
 10
830.9552493408478
 20
314.0049096779841
 30
0.0
  0
VERTEX
  5
51C
  8
1
  6
CONTINUOUS
 62
     7
 10
831.0045311641436
 20
313.8173165676351
 30
0.0
  0
VERTEX
  5
51D
  8
1
  6
CONTINUOUS
 62
     7
 10
831.084560502606
 20
313.6444297669806
 30
0.0
  0
VERTEX
  5
51E
  8
1
  6
CONTINUOUS
 62
     7
 10
831.192261873639
 20
313.4928932188136
 30
0.0
  0
VERTEX
  5
51F
  8
1
  6
CONTINUOUS
 62
     7
 10
831.3234963739534
 20
313.3685303876976
 30
0.0
  0
VERTEX
  5
520
  8
1
  6
CONTINUOUS
 62
     7
 10
831.4732207352993
 20
313.2761204674888
 30
0.0
  0
VERTEX
  5
521
  8
1
  6
CONTINUOUS
 62
     7
 10
831.6356811344364
 20
313.2192147195968
 30
0.0
  0
VERTEX
  5
522
  8
1
  6
CONTINUOUS
 62
     7
 10
831.8046343093348
 20
313.2
 30
0.0
  0
SEQEND
  5
569
  8
1
  6
CONTINUOUS
 62
     7
  0
LINE
  5
12D
  8
1
  6
CONTINUOUS
 62
     7
 10
834.0740527322438
 20
313.2
 30
0.0
 11
834.0740527322438
 21
306.8000000000001
 31
0.0
  0
ARC
  5
12E
  8
1
  6
CONTINUOUS
 62
     7
 10
832.5740527322438
 20
324.0000000000001
 30
0.0
 40
3.000000000000003
 50
90.0
 51
180.0
  0
LINE
  5
12F
  8
1
  6
CONTINUOUS
 62
     7
 10
829.5740527322438
 20
296.0000000000001
 30
0.0
 11
829.5740527322438
 21
300.0000000000001
 31
0.0
  0
LINE
  5
130
  8
1
  6
CONTINUOUS
 62
     7
 10
829.5740527322438
 20
320.0000000000001
 30
0.0
 11
829.5740527322438
 21
324.0000000000001
 31
0.0
  0
ARC
  5
131
  8
1
  6
CONTINUOUS
 62
     7
 10
832.5740527322438
 20
296.0000000000001
 30
0.0
 40
3.000000000000003
 50
180.0
 51
270.0
  0
LINE
  5
132
  8
1
  6
CONTINUOUS
 62
     7
 10
858.4098568748116
 20
303.0000000000001
 30
0.0
 11
859.6901069537274
 21
303.0000000000001
 31
0.0
  0
LINE
  5
133
  8
1
  6
CONTINUOUS
 62
     7
 10
859.6901069537274
 20
317.0000000000001
 30
0.0
 11
858.4098568748116
 21
317.0000000000001
 31
0.0
  0
LINE
  5
134
  8
1
  6
CONTINUOUS
 62
     7
 10
864.8793128149823
 20
314.7611090819858
 30
0.0
 11
864.7499740831508
 21
315.0000000000001
 31
0.0
  0
LINE
  5
135
  8
1
  6
CONTINUOUS
 62
     7
 10
864.7499740831508
 20
305.0000000000001
 30
0.0
 11
864.8793128149823
 21
305.2388909180143
 31
0.0
  0
LINE
  5
136
  8
1
  6
CONTINUOUS
 62
     7
 10
841.2263620181541
 20
303.0000000000001
 30
0.0
 11
841.4763620181542
 21
303.0000000000001
 31
0.0
  0
LINE
  5
137
  8
1
  6
CONTINUOUS
 62
     7
 10
841.4763620181542
 20
317.0000000000001
 30
0.0
 11
841.2263620181541
 21
317.0000000000001
 31
0.0
  0
LINE
  5
138
  8
1
  6
CONTINUOUS
 62
     7
 10
847.8261042793471
 20
307.4
 30
0.0
 11
847.1048609299423
 21
307.4
 31
0.0
  0
LINE
  5
139
  8
1
  6
CONTINUOUS
 62
     7
 10
847.1048609299423
 20
312.6
 30
0.0
 11
847.8261042793471
 21
312.6
 31
0.0
  0
LINE
  5
13A
  8
1
  6
CONTINUOUS
 62
     7
 10
886.3945460292375
 20
313.0000000000001
 30
0.0
 11
865.3087384294563
 21
313.0000000000001
 31
0.0
  0
LINE
  5
13B
  8
1
  6
CONTINUOUS
 62
     7
 10
865.3087384294563
 20
307.0000000000001
 30
0.0
 11
886.3945460292375
 21
307.0000000000001
 31
0.0
  0
LINE
  5
13C
  8
1
  6
CONTINUOUS
 62
     7
 10
857.1261042793469
 20
293.0000000000001
 30
0.0
 11
857.1261042793469
 21
327.0000000000001
 31
0.0
  0
LINE
  5
13D
  8
1
  6
CONTINUOUS
 62
     7
 10
857.1263177617747
 20
319.6631663845678
 30
0.0
 11
857.2490884040665
 21
321.0000000000001
 31
0.0
  0
LINE
  5
13E
  8
1
  6
CONTINUOUS
 62
     7
 10
857.2490884040665
 20
321.0000000000001
 30
0.0
 11
857.1262287268024
 21
322.3372010392093
 31
0.0
  0
LINE
  5
13F
  8
1
  6
CONTINUOUS
 62
     7
 10
857.1263177617747
 20
297.6631663845678
 30
0.0
 11
857.2490884040665
 21
299.0000000000001
 31
0.0
  0
LINE
  5
140
  8
1
  6
CONTINUOUS
 62
     7
 10
857.2490884040665
 20
299.0000000000001
 30
0.0
 11
857.1262287268024
 21
300.3372010392093
 31
0.0
  0
ENDBLK
  8
0
  0
BLOCK
  8
0
  2
D_FRAME_VIEW_1935
 70
     0
 10
0.0
 20
0.0
 30
0.0
  0
LINE
  5
18B
  8
1
  6
CONTINUOUS
 62
     7
 10
743.340966656301
 20
126.0665013996274
 30
0.0
 11
743.4802631546245
 21
126.1898706161333
 31
0.0
  0
LINE
  5
18C
  8
1
  6
CONTINUOUS
 62
     7
 10
743.4802631546245
 20
126.1898706161333
 30
0.0
 11
739.809985860751
 21
129.6183130152594
 31
0.0
  0
LINE
  5
18D
  8
1
  6
CONTINUOUS
 62
     7
 10
727.2437713661536
 20
137.9956354931247
 30
0.0
 11
723.2702308750613
 21
141.0851748646826
 31
0.0
  0
ARC
  5
18E
  8
1
  6
CONTINUOUS
 62
     7
 10
720.2011419208575
 20
137.1379362107394
 30
0.0
 40
4.999999999999979
 50
52.13393099429524
 51
79.99999999999997
  0
LINE
  5
18F
  8
1
  6
CONTINUOUS
 62
     7
 10
721.0693828091921
 20
142.0619749758004
 30
0.0
 11
714.6030375585863
 21
143.2021661100583
 31
0.0
  0
ARC
  5
190
  8
1
  6
CONTINUOUS
 62
     7
 10
712.9088460031551
 20
143.9070684365235
 30
0.0
 40
0.3999999999999039
 50
169.9999999999997
 51
197.3823426967105
  0
ARC
  5
191
  8
1
  6
CONTINUOUS
 62
     7
 10
713.4645201716893
 20
147.0584532461626
 30
0.0
 40
0.3999999999999036
 50
79.99999999999956
 51
169.9999999999998
  0
LINE
  5
192
  8
1
  6
CONTINUOUS
 62
     7
 10
713.533979442756
 20
147.4523763473675
 30
0.0
 11
717.965614331311
 21
146.6709595478663
 31
0.0
  0
ARC
  5
193
  8
1
  6
CONTINUOUS
 62
     7
 10
717.8961550602443
 20
146.2770364466614
 30
0.0
 40
0.4000000000000033
 50
52.13393099429578
 51
79.99999999999466
  0
LINE
  5
194
  8
1
  6
CONTINUOUS
 62
     7
 10
718.1416821765806
 20
146.5928155389769
 30
0.0
 11
736.9427254856888
 21
131.974476136101
 31
0.0
  0
ARC
  5
195
  8
1
  6
CONTINUOUS
 62
     7
 10
720.2011419208574
 20
137.1379362107394
 30
0.0
 40
5.399999999999978
 50
52.13393099429521
 51
80.00000000000004
  0
ARC
  5
196
  8
1
  6
CONTINUOUS
 62
     7
 10
694.7120614758429
 20
77.66047225784207
 30
0.0
 40
68.80000000000015
 50
49.04295099756956
 51
52.13393099429511
  0
LINE
  5
197
  8
1
  6
CONTINUOUS
 62
     7
 10
646.6590333436991
 20
126.0665013996274
 30
0.0
 11
646.5197368453756
 21
126.1898706161333
 31
0.0
  0
LINE
  5
198
  8
1
  6
CONTINUOUS
 62
     7
 10
646.5197368453756
 20
126.1898706161333
 30
0.0
 11
650.1900141392491
 21
129.6183130152594
 31
0.0
  0
ARC
  5
199
  8
1
  6
CONTINUOUS
 62
     7
 10
669.7988580791427
 20
137.1379362107394
 30
0.0
 40
5.399999999999978
 50
99.99999999999997
 51
127.8660690057048
  0
LINE
  5
19A
  8
1
  6
CONTINUOUS
 62
     7
 10
671.8583178234195
 20
146.5928155389769
 30
0.0
 11
653.0572745143113
 21
131.974476136101
 31
0.0
  0
ARC
  5
19B
  8
1
  6
CONTINUOUS
 62
     7
 10
672.1038449397558
 20
146.2770364466614
 30
0.0
 40
0.4000000000000033
 50
100.0000000000054
 51
127.8660690057043
  0
LINE
  5
19C
  8
1
  6
CONTINUOUS
 62
     7
 10
676.4660205572441
 20
147.4523763473675
 30
0.0
 11
672.0343856686891
 21
146.6709595478663
 31
0.0
  0
ARC
  5
19D
  8
1
  6
CONTINUOUS
 62
     7
 10
676.5354798283108
 20
147.0584532461626
 30
0.0
 40
0.3999999999999036
 50
10.00000000000027
 51
100.0000000000005
  0
ARC
  5
19E
  8
1
  6
CONTINUOUS
 62
     7
 10
677.091153996845
 20
143.9070684365235
 30
0.0
 40
0.3999999999999039
 50
342.6176573032896
 51
10.00000000000034
  0
LINE
  5
19F
  8
1
  6
CONTINUOUS
 62
     7
 10
668.930617190808
 20
142.0619749758004
 30
0.0
 11
675.3969624414138
 21
143.2021661100583
 31
0.0
  0
ARC
  5
1A0
  8
1
  6
CONTINUOUS
 62
     7
 10
669.7988580791426
 20
137.1379362107394
 30
0.0
 40
4.999999999999979
 50
100.0
 51
127.8660690057047
  0
LINE
  5
1A1
  8
1
  6
CONTINUOUS
 62
     7
 10
662.7562286338465
 20
137.9956354931247
 30
0.0
 11
666.7297691249387
 21
141.0851748646826
 31
0.0
  0
ARC
  5
1A2
  8
1
  6
CONTINUOUS
 62
     7
 10
695.2879385241572
 20
77.66047225784207
 30
0.0
 40
68.80000000000015
 50
127.8660690057049
 51
130.9570490024304
  0
LINE
  5
1A3
  8
1
  6
CONTINUOUS
 62
     7
 10
669.6943542144492
 20
144.4035897112054
 30
0.0
 11
669.9990002059083
 21
144.1337772052891
 31
0.0
  0
LINE
  5
1A4
  8
1
  6
CONTINUOUS
 62
     7
 10
720.3056457855508
 20
144.4035897112054
 30
0.0
 11
720.0009997940919
 21
144.1337772052891
 31
0.0
  0
ARC
  5
1A5
  8
1
  6
CONTINUOUS
 62
     7
 10
694.4044846145774
 20
168.2533016900775
 30
0.0
 40
10.09586370049887
 50
0.4759411721613331
 51
17.11201260182903
  0
ARC
  5
1A6
  8
1
  6
CONTINUOUS
 62
     7
 10
701.6138970587381
 20
172.7694805117229
 30
0.0
 40
2.887911492575195
 50
327.6435929533628
 51
357.972159578602
  0
ARC
  5
1A7
  8
1
  6
CONTINUOUS
 62
     7
 10
701.7149405012545
 20
163.9361113292002
 30
0.0
 40
2.785962476926405
 50
1.458815462636138
 51
32.92543200539885
  0
ARC
  5
1A8
  8
1
  6
CONTINUOUS
 62
     7
 10
694.0804319112412
 20
168.471158328601
 30
0.0
 40
10.42042962247658
 50
343.1488196457586
 51
359.2632265802507
  0
LINE
  5
1A9
  8
1
  6
CONTINUOUS
 62
     7
 10
704.0534180126149
 20
165.4504130995565
 30
0.0
 11
699.5
 21
165.4504130995565
 31
0.0
  0
ARC
  5
1AA
  8
1
  6
CONTINUOUS
 62
     7
 10
701.6138970587381
 20
164.1092264738786
 30
0.0
 40
2.887911492575195
 50
327.6435929533628
 51
357.9721595786015
  0
LINE
  5
1AB
  8
1
  6
CONTINUOUS
 62
     7
 10
704.0534180126149
 20
162.5636617536083
 30
0.0
 11
699.5
 21
162.5636617536083
 31
0.0
  0
LINE
  5
1AC
  8
1
  6
CONTINUOUS
 62
     7
 10
704.0534180126149
 20
171.2239157914527
 30
0.0
 11
699.5
 21
171.2239157914527
 31
0.0
  0
LINE
  5
1AD
  8
1
  6
CONTINUOUS
 62
     7
 10
704.0534180126149
 20
174.1106671374008
 30
0.0
 11
699.5
 21
174.1106671374008
 31
0.0
  0
ARC
  5
1AE
  8
1
  6
CONTINUOUS
 62
     7
 10
701.7149405012545
 20
172.5963653670446
 30
0.0
 40
2.785962476926406
 50
1.458815462637279
 51
32.92543200539885
  0
LINE
  5
1AF
  8
1
  6
CONTINUOUS
 62
     7
 10
673.6978886899203
 20
170.987107228133
 30
0.0
 11
684.4225108935859
 21
179.9861337637445
 31
0.0
  0
LINE
  5
1B0
  8
1
  6
CONTINUOUS
 62
     7
 10
674.0192824947636
 20
170.6040850065734
 30
0.0
 11
684.7439046984292
 21
179.6031115421849
 31
0.0
  0
LINE
  5
1B1
  8
1
  6
CONTINUOUS
 62
     7
 10
726.2909557458686
 20
170.7408977867906
 30
0.0
 11
726.2909557458685
 21
164.7408977867906
 31
0.0
  0
LINE
  5
1B2
  8
1
  6
CONTINUOUS
 62
     7
 10
681.6797269259534
 20
177.0319611034388
 30
0.0
 11
681.8584963296913
 21
176.8189120242882
 31
0.0
  0
LINE
  5
1B3
  8
1
  6
CONTINUOUS
 62
     7
 10
677.2622296709775
 20
172.9621863661689
 30
0.0
 11
677.0834602672395
 21
173.1752354453195
 31
0.0
  0
LINE
  5
1B4
  8
1
  6
CONTINUOUS
 62
     7
 10
695.0
 20
178.25
 30
0.0
 11
698.2
 21
178.25
 31
0.0
  0
LINE
  5
1B5
  8
1
  6
CONTINUOUS
 62
     7
 10
717.8961550602442
 20
146.2770364466614
 30
0.0
 11
717.3404808917101
 21
143.1256516370223
 31
0.0
  0
ARC
  5
1B6
  8
1
  6
CONTINUOUS
 62
     7
 10
698.2
 20
149.75
 30
0.0
 40
3.199999999999981
 50
180.0
 51
259.9999999999999
  0
LINE
  5
1B7
  8
1
  6
CONTINUOUS
 62
     7
 10
691.8000000000001
 20
174.55
 30
0.0
 11
691.8000000000001
 21
149.75
 31
0.0
  0
ARC
  5
1B8
  8
1
  6
CONTINUOUS
 62
     7
 10
688.8000000000001
 20
174.55
 30
0.0
 40
3.000000000000002
 50
0.0000000000005684
 51
130.0000000000001
  0
ARC
  5
1B9
  8
1
  6
CONTINUOUS
 62
     7
 10
688.8000000000001
 20
174.55
 30
0.0
 40
6.199999999999983
 50
0.0
 51
129.9999999999997
  0
ARC
  5
1BA
  8
1
  6
CONTINUOUS
 62
     7
 10
691.8000000000001
 20
149.75
 30
0.0
 40
3.200000000000022
 50
279.9999999999999
 51
0.0
  0
LINE
  5
1BB
  8
1
  6
CONTINUOUS
 62
     7
 10
671.9337705301203
 20
164.3137749404694
 30
0.0
 11
669.8768501791235
 21
166.7651171584502
 31
0.0
  0
LINE
  5
1BC
  8
1
  6
CONTINUOUS
 62
     7
 10
672.65951910829
 20
143.1256516370223
 30
0.0
 11
672.1038449397558
 21
146.2770364466614
 31
0.0
  0
LINE
  5
1BD
  8
1
  6
CONTINUOUS
 62
     7
 10
698.2
 20
161.3371644455046
 30
0.0
 11
699.5
 21
161.3371644455046
 31
0.0
  0
LINE
  5
1BE
  8
1
  6
CONTINUOUS
 62
     7
 10
699.5
 20
175.3371644455046
 30
0.0
 11
698.2
 21
175.3371644455046
 31
0.0
  0
LINE
  5
1BF
  8
1
  6
CONTINUOUS
 62
     7
 10
704.0534180126149
 20
162.5636617536083
 30
0.0
 11
704.5
 21
163.3371644455046
 31
0.0
  0
LINE
  5
1C0
  8
1
  6
CONTINUOUS
 62
     7
 10
704.5
 20
173.3371644455046
 30
0.0
 11
704.0534180126149
 21
174.1106671374008
 31
0.0
  0
ARC
  5
1C1
  8
1
  6
CONTINUOUS
 62
     7
 10
684.5560338545731
 20
168.9369405072714
 30
0.0
 40
11.05000000000001
 50
90.6923518838941
 51
169.3076481161059
  0
LINE
  5
1C2
  8
1
  6
CONTINUOUS
 62
     7
 10
673.6978886899203
 20
170.9871072281329
 30
0.0
 11
674.0192824947636
 21
170.6040850065734
 31
0.0
  0
LINE
  5
1C3
  8
1
  6
CONTINUOUS
 62
     7
 10
684.7439046984293
 20
179.6031115421849
 30
0.0
 11
684.4225108935859
 21
179.9861337637445
 31
0.0
  0
LINE
  5
1C4
  8
1
  6
CONTINUOUS
 62
     7
 10
726.2909557458686
 20
170.7408977867906
 30
0.0
 11
704.5
 21
170.7408977867909
 31
0.0
  0
LINE
  5
1C5
  8
1
  6
CONTINUOUS
 62
     7
 10
704.5
 20
164.7408977867908
 30
0.0
 11
726.2909557458685
 21
164.7408977867906
 31
0.0
  0
LINE
  5
1C6
  8
1
  6
CONTINUOUS
 62
     7
 10
688.1709557458685
 20
165.140897786791
 30
0.0
 11
691.8000000000001
 21
165.140897786791
 31
0.0
  0
LINE
  5
1C7
  8
1
  6
CONTINUOUS
 62
     7
 10
691.8000000000001
 20
170.3408977867909
 30
0.0
 11
688.1709557458685
 21
170.3408977867909
 31
0.0
  0
ARC
  5
1C8
  8
1
  6
CONTINUOUS
 62
     7
 10
688.1709557458685
 20
173.3408977867909
 30
0.0
 40
3.000000000000003
 50
220.0
 51
269.9999999999993
  0
ARC
  5
1C9
  8
1
  6
CONTINUOUS
 62
     7
 10
688.1709557458685
 20
173.3408977867909
 30
0.0
 40
8.199999999999942
 50
220.0000000000001
 51
269.9999999999994
  0
LINE
  5
1CA
  8
1
  6
CONTINUOUS
 62
     7
 10
679.625567799222
 20
170.7679591920628
 30
0.0
 11
681.8893913122929
 21
168.0700393873613
 31
0.0
  0
LINE
  5
1CB
  8
1
  6
CONTINUOUS
 62
     7
 10
685.8728224165116
 20
171.4125349577313
 30
0.0
 11
683.6089989034407
 21
174.1104547624328
 31
0.0
  0
LINE
  5
1CC
  8
1
  6
CONTINUOUS
 62
     7
 10
687.6928171764959
 20
177.3381617159395
 30
0.0
 11
691.6475391896188
 21
175.4940445553461
 31
0.0
  0
ENDBLK
  8
0
  0
BLOCK
  8
0
  2
D_FRAME_VIEW_1474
 70
     0
 10
0.0
 20
0.0
 30
0.0
  0
LINE
  5
1D1
  8
1
  6
CONTINUOUS
 62
     7
 10
825.8794600215764
 20
230.8082960901238
 30
0.0
 11
825.8794600215764
 21
231.2082960901238
 31
0.0
  0
LINE
  5
1D2
  8
1
  6
CONTINUOUS
 62
     7
 10
454.8794600215759
 20
230.8082960901238
 30
0.0
 11
454.8794600215759
 21
231.2082960901238
 31
0.0
  0
ARC
  5
1D3
  8
1
  6
CONTINUOUS
 62
     7
 10
831.1292332920946
 20
247.4082960901238
 30
0.0
 40
18.10000000000009
 50
260.0000000000014
 51
269.9999999999998
  0
ARC
  5
1D4
  8
1
  6
CONTINUOUS
 62
     7
 10
821.9584049314399
 20
208.4082960901239
 30
0.0
 40
21.89999999999997
 50
80.00000000000004
 51
89.99999999999966
  0
LINE
  5
1D5
  8
1
  6
CONTINUOUS
 62
     7
 10
827.9862012763236
 20
229.5832757606033
 30
0.0
 11
825.7613000223456
 21
229.9755858810912
 31
0.0
  0
ARC
  5
1D6
  8
1
  6
CONTINUOUS
 62
     7
 10
785.4584049314398
 20
209.4082960901239
 30
0.0
 40
21.89999999999999
 50
79.99999999999997
 51
90.00000000000001
  0
ARC
  5
1D7
  8
1
  6
CONTINUOUS
 62
     7
 10
794.6292332920946
 20
248.4082960901238
 30
0.0
 40
18.1
 50
260.0000000000003
 51
270.0
  0
LINE
  5
1D8
  8
1
  6
CONTINUOUS
 62
     7
 10
791.4862012763232
 20
230.583275760603
 30
0.0
 11
789.2613000223456
 21
230.9755858810912
 31
0.0
  0
LINE
  5
1D9
  8
1
  6
CONTINUOUS
 62
     7
 10
821.95840493144
 20
230.3082960901239
 30
0.0
 11
794.6292332920946
 21
230.3082960901238
 31
0.0
  0
LINE
  5
1DA
  8
1
  6
CONTINUOUS
 62
     7
 10
834.3794600215766
 20
229.3082960901242
 30
0.0
 11
831.1292332920946
 21
229.3082960901237
 31
0.0
  0
ARC
  5
1DB
  8
1
  6
CONTINUOUS
 62
     7
 10
449.6296867510575
 20
247.4082960901238
 30
0.0
 40
18.10000000000009
 50
270.0000000000002
 51
279.9999999999986
  0
LINE
  5
1DC
  8
1
  6
CONTINUOUS
 62
     7
 10
452.7727187668285
 20
229.5832757606033
 30
0.0
 11
454.9976200208064
 21
229.9755858810912
 31
0.0
  0
ARC
  5
1DD
  8
1
  6
CONTINUOUS
 62
     7
 10
458.8005151117122
 20
208.4082960901239
 30
0.0
 40
21.89999999999998
 50
90.00000000000034
 51
99.99999999999994
  0
ARC
  5
1DE
  8
1
  6
CONTINUOUS
 62
     7
 10
486.1296867510575
 20
248.4082960901238
 30
0.0
 40
18.1
 50
270.0
 51
279.9999999999998
  0
LINE
  5
1DF
  8
1
  6
CONTINUOUS
 62
     7
 10
489.2727187668289
 20
230.583275760603
 30
0.0
 11
491.4976200208065
 21
230.9755858810912
 31
0.0
  0
ARC
  5
1E0
  8
1
  6
CONTINUOUS
 62
     7
 10
495.3005151117122
 20
209.4082960901239
 30
0.0
 40
21.89999999999998
 50
90.0
 51
100.0
  0
LINE
  5
1E1
  8
1
  6
CONTINUOUS
 62
     7
 10
458.8005151117121
 20
230.3082960901239
 30
0.0
 11
486.1296867510575
 21
230.3082960901238
 31
0.0
  0
LINE
  5
1E2
  8
1
  6
CONTINUOUS
 62
     7
 10
446.3794600215755
 20
229.3082960901242
 30
0.0
 11
449.6296867510576
 21
229.3082960901237
 31
0.0
  0
LINE
  5
1E3
  8
1
  6
CONTINUOUS
 62
     7
 10
798.379460021576
 20
232.1082960901238
 30
0.0
 11
805.3794600215759
 21
232.1082960901238
 31
0.0
  0
LINE
  5
1E4
  8
1
  6
CONTINUOUS
 62
     7
 10
813.379460021576
 20
232.1082960901238
 30
0.0
 11
820.379460021576
 21
232.1082960901238
 31
0.0
  0
LINE
  5
1E5
  8
1
  6
CONTINUOUS
 62
     7
 10
792.879460021576
 20
230.4082960901238
 30
0.0
 11
792.879460021576
 21
230.8082960901238
 31
0.0
  0
LINE
  5
1E6
  8
1
  6
CONTINUOUS
 62
     7
 10
792.879460021576
 20
231.6082960901238
 30
0.0
 11
792.879460021576
 21
231.2082960901238
 31
0.0
  0
ARC
  5
1E7
  8
1
  6
CONTINUOUS
 62
     7
 10
829.379460021576
 20
232.3082960901238
 30
0.0
 40
1.400000000000012
 50
90.0
 51
135.572995999194
  0
LINE
  5
1E8
  8
1
  6
CONTINUOUS
 62
     7
 10
829.379460021576
 20
233.3082960901238
 30
0.0
 11
832.879460021576
 21
233.3082960901238
 31
0.0
  0
ARC
  5
1E9
  8
1
  6
CONTINUOUS
 62
     7
 10
824.380460121596
 20
224.8082960901238
 30
0.0
 40
6.000000000000005
 50
52.63552651240234
 51
90.0
  0
ARC
  5
1EA
  8
1
  6
CONTINUOUS
 62
     7
 10
832.879460021576
 20
229.7082960901238
 30
0.0
 40
1.399999999999957
 50
343.3984504009968
 51
0.0
  0
ARC
  5
1EB
  8
1
  6
CONTINUOUS
 62
     7
 10
832.879460021576
 20
229.7082960901238
 30
0.0
 40
0.9999999999999423
 50
336.4218215218223
 51
0.0
  0
ARC
  5
1EC
  8
1
  6
CONTINUOUS
 62
     7
 10
832.879460021576
 20
232.3082960901238
 30
0.0
 40
1.399999999999956
 50
31.87191672161674
 51
90.0
  0
ARC
  5
1ED
  8
1
  6
CONTINUOUS
 62
     7
 10
824.380460121596
 20
224.8082960901238
 30
0.0
 40
5.599999999999991
 50
62.08797745975784
 51
90.00000000000001
  0
LINE
  5
1EE
  8
1
  6
CONTINUOUS
 62
     7
 10
832.879460021576
 20
233.7082960901238
 30
0.0
 11
829.379460021576
 21
233.7082960901238
 31
0.0
  0
ARC
  5
1EF
  8
1
  6
CONTINUOUS
 62
     7
 10
824.380460121596
 20
237.2082960901238
 30
0.0
 40
5.599999999999998
 50
270.0
 51
315.5729959991943
  0
ARC
  5
1F0
  8
1
  6
CONTINUOUS
 62
     7
 10
829.379460021576
 20
232.3082960901238
 30
0.0
 40
1.000000000000026
 50
89.99999999999994
 51
135.5729959991941
  0
ARC
  5
1F1
  8
1
  6
CONTINUOUS
 62
     7
 10
824.380460121596
 20
237.2082960901238
 30
0.0
 40
6.000000000000005
 50
270.0
 51
315.5729959991942
  0
LINE
  5
1F2
  8
1
  6
CONTINUOUS
 62
     7
 10
834.279460021576
 20
229.7082960901238
 30
0.0
 11
834.279460021576
 21
229.8475271021726
 31
0.0
  0
ARC
  5
1F3
  8
1
  6
CONTINUOUS
 62
     7
 10
832.879460021576
 20
232.3082960901238
 30
0.0
 40
1.000000000000001
 50
47.66595073467459
 51
90.0
  0
LINE
  5
1F4
  8
1
  6
CONTINUOUS
 62
     7
 10
833.879460021576
 20
229.8475271021726
 30
0.0
 11
833.879460021576
 21
229.7082960901238
 31
0.0
  0
LINE
  5
1F5
  8
1
  6
CONTINUOUS
 62
     7
 10
482.3794600215761
 20
232.1082960901238
 30
0.0
 11
475.3794600215761
 21
232.1082960901238
 31
0.0
  0
LINE
  5
1F6
  8
1
  6
CONTINUOUS
 62
     7
 10
467.3794600215761
 20
232.1082960901238
 30
0.0
 11
460.3794600215761
 21
232.1082960901238
 31
0.0
  0
LINE
  5
1F7
  8
1
  6
CONTINUOUS
 62
     7
 10
487.879460021576
 20
231.6082960901238
 30
0.0
 11
487.879460021576
 21
231.2082960901238
 31
0.0
  0
LINE
  5
1F8
  8
1
  6
CONTINUOUS
 62
     7
 10
451.379460021576
 20
233.3082960901238
 30
0.0
 11
447.879460021576
 21
233.3082960901238
 31
0.0
  0
ARC
  5
1F9
  8
1
  6
CONTINUOUS
 62
     7
 10
447.879460021576
 20
232.3082960901238
 30
0.0
 40
1.000000000000001
 50
90.0
 51
132.3340492653249
  0
ARC
  5
1FA
  8
1
  6
CONTINUOUS
 62
     7
 10
456.378459921556
 20
224.8082960901238
 30
0.0
 40
5.599999999999991
 50
90.0
 51
117.9120225402422
  0
LINE
  5
1FB
  8
1
  6
CONTINUOUS
 62
     7
 10
446.479460021576
 20
229.7082960901238
 30
0.0
 11
446.479460021576
 21
229.8475271021727
 31
0.0
  0
ARC
  5
1FC
  8
1
  6
CONTINUOUS
 62
     7
 10
447.879460021576
 20
232.3082960901238
 30
0.0
 40
1.400000000000003
 50
90.0
 51
148.1280832783822
  0
ARC
  5
1FD
  8
1
  6
CONTINUOUS
 62
     7
 10
447.879460021576
 20
229.7082960901238
 30
0.0
 40
0.9999999999999931
 50
180.0
 51
203.5781784781777
  0
ARC
  5
1FE
  8
1
  6
CONTINUOUS
 62
     7
 10
451.379460021576
 20
232.3082960901238
 30
0.0
 40
1.000000000000026
 50
44.42700400080587
 51
90.00000000000001
  0
LINE
  5
1FF
  8
1
  6
CONTINUOUS
 62
     7
 10
446.879460021576
 20
229.8475271021727
 30
0.0
 11
446.879460021576
 21
229.7082960901238
 31
0.0
  0
ARC
  5
200
  8
1
  6
CONTINUOUS
 62
     7
 10
456.378459921556
 20
237.2082960901238
 30
0.0
 40
5.599999999999998
 50
224.4270040008057
 51
270.0
  0
LINE
  5
201
  8
1
  6
CONTINUOUS
 62
     7
 10
447.879460021576
 20
233.7082960901238
 30
0.0
 11
451.379460021576
 21
233.7082960901238
 31
0.0
  0
ARC
  5
202
  8
1
  6
CONTINUOUS
 62
     7
 10
451.379460021576
 20
232.3082960901238
 30
0.0
 40
1.400000000000012
 50
44.42700400080599
 51
90.0
  0
ARC
  5
203
  8
1
  6
CONTINUOUS
 62
     7
 10
456.378459921556
 20
224.8082960901238
 30
0.0
 40
6.000000000000005
 50
90.0
 51
127.3644734872805
  0
ARC
  5
204
  8
1
  6
CONTINUOUS
 62
     7
 10
456.378459921556
 20
237.2082960901238
 30
0.0
 40
6.000000000000005
 50
224.4270040008057
 51
270.0
  0
ARC
  5
205
  8
1
  6
CONTINUOUS
 62
     7
 10
447.879460021576
 20
229.7082960901238
 30
0.0
 40
1.400000000000012
 50
180.0
 51
196.6015495990034
  0
LINE
  5
206
  8
1
  6
CONTINUOUS
 62
     7
 10
487.879460021576
 20
230.4082960901238
 30
0.0
 11
487.879460021576
 21
230.8082960901238
 31
0.0
  0
LINE
  5
207
  8
1
  6
CONTINUOUS
 62
     7
 10
864.6756274258574
 20
251.1281911409961
 30
0.0
 11
860.191386064329
 21
251.9188838810424
 31
0.0
  0
ARC
  5
208
  8
1
  6
CONTINUOUS
 62
     7
 10
854.6574412819157
 20
249.8782270437528
 30
0.0
 40
10.09586370049954
 50
350.4759411721641
 51
7.112012601830713
  0
ARC
  5
209
  8
1
  6
CONTINUOUS
 62
     7
 10
854.3761420755512
 20
250.1490451118214
 30
0.0
 40
10.42042962248431
 50
333.1488196457628
 51
349.263226580243
  0
LINE
  5
20A
  8
1
  6
CONTINUOUS
 62
     7
 10
863.6730692046546
 20
245.4424009279798
 30
0.0
 11
859.1888278431261
 21
246.2330936680261
 31
0.0
  0
LINE
  5
20B
  8
1
  6
CONTINUOUS
 62
     7
 10
865.1769065364589
 20
253.9710862475042
 30
0.0
 11
860.6926651749303
 21
254.7617789875505
 31
0.0
  0
ARC
  5
20C
  8
1
  6
CONTINUOUS
 62
     7
 10
862.6110000101663
 20
252.8858624820199
 30
0.0
 40
2.785962476926599
 50
351.4588154626409
 51
22.92543200540109
  0
ARC
  5
20D
  8
1
  6
CONTINUOUS
 62
     7
 10
862.5415527739825
 20
253.0738936283228
 30
0.0
 40
2.88791149257807
 50
317.643592953374
 51
347.9721595785827
  0
ARC
  5
20E
  8
1
  6
CONTINUOUS
 62
     7
 10
861.1071626783618
 20
244.3571771624954
 30
0.0
 40
2.785962476926823
 50
351.4588154626409
 51
22.92543200539984
  0
ARC
  5
20F
  8
1
  6
CONTINUOUS
 62
     7
 10
861.0377154421788
 20
244.5452083087981
 30
0.0
 40
2.887911492577472
 50
317.6435929533707
 51
347.9721595785853
  0
LINE
  5
210
  8
1
  6
CONTINUOUS
 62
     7
 10
863.1717900940531
 20
242.5995058214716
 30
0.0
 11
858.6875487325246
 21
243.3901985615179
 31
0.0
  0
LINE
  5
211
  8
1
  6
CONTINUOUS
 62
     7
 10
835.164184191663
 20
256.7979216925254
 30
0.0
 11
847.2885398446452
 21
263.7979216925254
 31
0.0
  0
LINE
  5
212
  8
1
  6
CONTINUOUS
 62
     7
 10
835.4141841916631
 20
256.3649089906331
 30
0.0
 11
847.5385398446454
 21
263.3649089906331
 31
0.0
  0
LINE
  5
213
  8
1
  6
CONTINUOUS
 62
     7
 10
886.9154905622382
 20
247.4227624736466
 30
0.0
 11
885.8736014962367
 21
241.5139159555734
 31
0.0
  0
LINE
  5
214
  8
1
  6
CONTINUOUS
 62
     7
 10
838.9518429653159
 20
258.2375042548246
 30
0.0
 11
838.8782858068009
 21
258.3649089906331
 31
0.0
  0
LINE
  5
215
  8
1
  6
CONTINUOUS
 62
     7
 10
844.0744382295076
 20
261.3649089906331
 30
0.0
 11
844.1479953880227
 21
261.2375042548246
 31
0.0
  0
ARC
  5
216
  8
1
  6
CONTINUOUS
 62
     7
 10
431.1848673109083
 20
233.0475271021727
 30
0.0
 40
3.199999999999989
 50
189.9999999999998
 51
269.9999999999999
  0
LINE
  5
217
  8
1
  6
CONTINUOUS
 62
     7
 10
423.0845094377618
 20
260.5588738944864
 30
0.0
 11
426.2358942474008
 21
261.1145480630206
 31
0.0
  0
LINE
  5
218
  8
1
  6
CONTINUOUS
 62
     7
 10
451.1848673109083
 20
233.0475271021727
 30
0.0
 11
451.1848673109083
 21
229.8475271021727
 31
0.0
  0
LINE
  5
219
  8
1
  6
CONTINUOUS
 62
     7
 10
832.5386089055505
 20
250.8397801212295
 30
0.0
 11
830.9386089055505
 21
253.6110614133398
 31
0.0
  0
LINE
  5
21A
  8
1
  6
CONTINUOUS
 62
     7
 10
853.8805275383837
 20
257.4707593768754
 30
0.0
 11
849.5740527322438
 21
233.0475271021727
 31
0.0
  0
ARC
  5
21B
  8
1
  6
CONTINUOUS
 62
     7
 10
850.926104279347
 20
257.9917039098763
 30
0.0
 40
2.999999999999984
 50
350.0000000000011
 51
119.999999999999
  0
ARC
  5
21C
  8
1
  6
CONTINUOUS
 62
     7
 10
850.926104279347
 20
257.9917039098763
 30
0.0
 40
6.200000000000086
 50
350.0000000000001
 51
119.9999999999994
  0
LINE
  5
21D
  8
1
  6
CONTINUOUS
 62
     7
 10
852.7254375418829
 20
232.4918529336385
 30
0.0
 11
857.0319123480227
 21
256.9150852083413
 31
0.0
  0
ARC
  5
21E
  8
1
  6
CONTINUOUS
 62
     7
 10
849.5740527322438
 20
233.0475271021727
 30
0.0
 40
3.200000000000008
 50
270.0
 51
349.9999999999999
  0
LINE
  5
21F
  8
1
  6
CONTINUOUS
 62
     7
 10
829.5740527322438
 20
229.8475271021727
 30
0.0
 11
829.5740527322438
 21
233.0475271021727
 31
0.0
  0
LINE
  5
220
  8
1
  6
CONTINUOUS
 62
     7
 10
857.2414922805724
 20
249.4655163448517
 30
0.0
 11
856.7205477475717
 21
246.5110930858151
 31
0.0
  0
LINE
  5
221
  8
1
  6
CONTINUOUS
 62
     7
 10
825.153531400512
 20
226.5287587455488
 30
0.0
 11
827.3784326544888
 21
226.1364486250606
 31
0.0
  0
ARC
  5
222
  8
1
  6
CONTINUOUS
 62
     7
 10
831.1292332920946
 20
247.4082960901238
 30
0.0
 40
21.60000000000008
 50
260.0000000000012
 51
269.9999999999998
  0
LINE
  5
223
  8
1
  6
CONTINUOUS
 62
     7
 10
831.1292332920951
 20
225.8082960901242
 30
0.0
 11
834.3794600215767
 21
225.8082960901242
 31
0.0
  0
LINE
  5
224
  8
1
  6
CONTINUOUS
 62
     7
 10
794.6292332920948
 20
226.8082960901239
 30
0.0
 11
821.9584049314399
 21
226.8082960901239
 31
0.0
  0
ARC
  5
225
  8
1
  6
CONTINUOUS
 62
     7
 10
821.9584049314399
 20
208.4082960901239
 30
0.0
 40
18.39999999999997
 50
80.0
 51
89.99999999999966
  0
LINE
  5
226
  8
1
  6
CONTINUOUS
 62
     7
 10
788.6535314005114
 20
227.5287587455486
 30
0.0
 11
790.8784326544888
 21
227.1364486250603
 31
0.0
  0
ARC
  5
227
  8
1
  6
CONTINUOUS
 62
     7
 10
794.6292332920946
 20
248.4082960901238
 30
0.0
 40
21.60000000000003
 50
260.0000000000003
 51
270.0
  0
ARC
  5
228
  8
1
  6
CONTINUOUS
 62
     7
 10
785.4584049314398
 20
209.4082960901239
 30
0.0
 40
18.39999999999997
 50
80.00000000000004
 51
90.0
  0
ARC
  5
229
  8
1
  6
CONTINUOUS
 62
     7
 10
449.6296867510575
 20
247.4082960901238
 30
0.0
 40
21.60000000000006
 50
270.0000000000001
 51
279.9999999999987
  0
LINE
  5
22A
  8
1
  6
CONTINUOUS
 62
     7
 10
453.3804873886632
 20
226.1364486250606
 30
0.0
 11
455.6053886426401
 21
226.5287587455488
 31
0.0
  0
LINE
  5
22B
  8
1
  6
CONTINUOUS
 62
     7
 10
446.3794600215754
 20
225.8082960901242
 30
0.0
 11
449.6296867510569
 21
225.8082960901242
 31
0.0
  0
LINE
  5
22C
  8
1
  6
CONTINUOUS
 62
     7
 10
458.8005151117122
 20
226.8082960901239
 30
0.0
 11
486.1296867510573
 21
226.8082960901239
 31
0.0
  0
ARC
  5
22D
  8
1
  6
CONTINUOUS
 62
     7
 10
458.8005151117122
 20
208.4082960901239
 30
0.0
 40
18.39999999999998
 50
90.0000000000004
 51
100.0000000000001
  0
ARC
  5
22E
  8
1
  6
CONTINUOUS
 62
     7
 10
486.1296867510575
 20
248.4082960901238
 30
0.0
 40
21.60000000000001
 50
270.0
 51
279.9999999999997
  0
LINE
  5
22F
  8
1
  6
CONTINUOUS
 62
     7
 10
489.8804873886633
 20
227.1364486250603
 30
0.0
 11
492.1053886426406
 21
227.5287587455486
 31
0.0
  0
ARC
  5
230
  8
1
  6
CONTINUOUS
 62
     7
 10
495.3005151117122
 20
209.4082960901239
 30
0.0
 40
18.39999999999997
 50
90.0
 51
100.0
  0
ARC
  5
231
  8
1
  6
CONTINUOUS
 62
     7
 10
801.879460021576
 20
228.7749627567904
 30
0.0
 40
4.833333333333329
 50
43.60281897270401
 51
136.397181027296
  0
LINE
  5
232
  8
1
  6
CONTINUOUS
 62
     7
 10
805.3794600215759
 20
231.6082960901238
 30
0.0
 11
805.3794600215759
 21
232.1082960901238
 31
0.0
  0
LINE
  5
233
  8
1
  6
CONTINUOUS
 62
     7
 10
798.379460021576
 20
232.1082960901238
 30
0.0
 11
798.379460021576
 21
231.6082960901238
 31
0.0
  0
LINE
  5
234
  8
1
  6
CONTINUOUS
 62
     7
 10
804.879460021576
 20
230.3082960901239
 30
0.0
 11
804.879460021576
 21
230.4082960901238
 31
0.0
  0
LINE
  5
235
  8
1
  6
CONTINUOUS
 62
     7
 10
798.879460021576
 20
230.4082960901238
 30
0.0
 11
798.879460021576
 21
230.3082960901239
 31
0.0
  0
LINE
  5
236
  8
1
  6
CONTINUOUS
 62
     7
 10
820.379460021576
 20
231.6082960901238
 30
0.0
 11
820.379460021576
 21
232.1082960901238
 31
0.0
  0
LINE
  5
237
  8
1
  6
CONTINUOUS
 62
     7
 10
813.379460021576
 20
232.1082960901238
 30
0.0
 11
813.379460021576
 21
231.6082960901238
 31
0.0
  0
ARC
  5
238
  8
1
  6
CONTINUOUS
 62
     7
 10
816.879460021576
 20
228.7749627567904
 30
0.0
 40
4.833333333333329
 50
43.60281897270401
 51
136.397181027296
  0
LINE
  5
239
  8
1
  6
CONTINUOUS
 62
     7
 10
819.879460021576
 20
230.3082960901238
 30
0.0
 11
819.879460021576
 21
230.4082960901238
 31
0.0
  0
LINE
  5
23A
  8
1
  6
CONTINUOUS
 62
     7
 10
813.879460021576
 20
230.4082960901238
 30
0.0
 11
813.879460021576
 21
230.3082960901238
 31
0.0
  0
ARC
  5
23B
  8
1
  6
CONTINUOUS
 62
     7
 10
478.8794600215761
 20
228.7749627567904
 30
0.0
 40
4.833333333333369
 50
43.60281897270414
 51
136.3971810272959
  0
LINE
  5
23C
  8
1
  6
CONTINUOUS
 62
     7
 10
482.3794600215761
 20
231.6082960901238
 30
0.0
 11
482.3794600215761
 21
232.1082960901238
 31
0.0
  0
LINE
  5
23D
  8
1
  6
CONTINUOUS
 62
     7
 10
475.3794600215761
 20
232.1082960901238
 30
0.0
 11
475.3794600215761
 21
231.6082960901238
 31
0.0
  0
LINE
  5
23E
  8
1
  6
CONTINUOUS
 62
     7
 10
481.8794600215761
 20
230.3082960901239
 30
0.0
 11
481.8794600215761
 21
230.4082960901238
 31
0.0
  0
LINE
  5
23F
  8
1
  6
CONTINUOUS
 62
     7
 10
475.8794600215761
 20
230.4082960901238
 30
0.0
 11
475.8794600215761
 21
230.3082960901239
 31
0.0
  0
ARC
  5
240
  8
1
  6
CONTINUOUS
 62
     7
 10
463.8794600215761
 20
228.7749627567904
 30
0.0
 40
4.833333333333369
 50
43.60281897270401
 51
136.397181027296
  0
LINE
  5
241
  8
1
  6
CONTINUOUS
 62
     7
 10
467.3794600215761
 20
231.6082960901238
 30
0.0
 11
467.3794600215761
 21
232.1082960901238
 31
0.0
  0
LINE
  5
242
  8
1
  6
CONTINUOUS
 62
     7
 10
460.3794600215761
 20
232.1082960901238
 30
0.0
 11
460.3794600215761
 21
231.6082960901238
 31
0.0
  0
LINE
  5
243
  8
1
  6
CONTINUOUS
 62
     7
 10
466.8794600215761
 20
230.3082960901238
 30
0.0
 11
466.8794600215761
 21
230.4082960901238
 31
0.0
  0
LINE
  5
244
  8
1
  6
CONTINUOUS
 62
     7
 10
460.8794600215761
 20
230.4082960901238
 30
0.0
 11
460.8794600215761
 21
230.3082960901238
 31
0.0
  0
LINE
  5
245
  8
1
  6
CONTINUOUS
 62
     7
 10
857.1943196311431
 20
242.4080771344158
 30
0.0
 11
858.474569710059
 21
242.1823345034488
 31
0.0
  0
LINE
  5
246
  8
1
  6
CONTINUOUS
 62
     7
 10
860.905644197396
 20
255.9696430456197
 30
0.0
 11
859.6253941184801
 21
256.1953856765867
 31
0.0
  0
LINE
  5
247
  8
1
  6
CONTINUOUS
 62
     7
 10
863.1717900940531
 20
242.5995058214716
 30
0.0
 11
863.7459048304538
 21
243.2837091211386
 31
0.0
  0
LINE
  5
248
  8
1
  6
CONTINUOUS
 62
     7
 10
865.4823866071233
 20
253.1317866512605
 30
0.0
 11
865.1769065364588
 21
253.9710862475042
 31
0.0
  0
LINE
  5
249
  8
1
  6
CONTINUOUS
 62
     7
 10
835.164184191663
 20
256.7979216925254
 30
0.0
 11
835.4141841916631
 21
256.3649089906331
 31
0.0
  0
LINE
  5
24A
  8
1
  6
CONTINUOUS
 62
     7
 10
847.5385398446454
 20
263.3649089906331
 30
0.0
 11
847.2885398446452
 21
263.7979216925254
 31
0.0
  0
ARC
  5
24B
  8
1
  6
CONTINUOUS
 62
     7
 10
845.5013620181542
 20
252.8934044901683
 30
0.0
 40
11.05000000000005
 50
80.692351883894
 51
159.3076481161059
  0
LINE
  5
24C
  8
1
  6
CONTINUOUS
 62
     7
 10
886.9154905622382
 20
247.4227624736466
 30
0.0
 11
865.1523731373627
 21
251.2601872599789
 31
0.0
  0
LINE
  5
24D
  8
1
  6
CONTINUOUS
 62
     7
 10
858.9480842933858
 20
252.3541707792807
 30
0.0
 11
856.3097296987353
 21
252.8193838789937
 31
0.0
  0
LINE
  5
24E
  8
1
  6
CONTINUOUS
 62
     7
 10
856.7450522622519
 20
246.6500650944201
 30
0.0
 11
857.9061952273842
 21
246.4453242612074
 31
0.0
  0
LINE
  5
24F
  8
1
  6
CONTINUOUS
 62
     7
 10
864.1104840713612
 20
245.3513407419057
 30
0.0
 11
885.8736014962367
 21
241.5139159555734
 31
0.0
  0
LINE
  5
250
  8
1
  6
CONTINUOUS
 62
     7
 10
848.4021892224782
 20
248.5273075894419
 30
0.0
 11
852.1859150941614
 21
247.8601346306595
 31
0.0
  0
LINE
  5
251
  8
1
  6
CONTINUOUS
 62
     7
 10
853.0888856180294
 20
252.981134946323
 30
0.0
 11
849.3051597463462
 21
253.6483079051054
 31
0.0
  0
ARC
  5
252
  8
1
  6
CONTINUOUS
 62
     7
 10
849.826104279347
 20
256.602731164142
 30
0.0
 40
3.000000000000002
 50
209.9999999999999
 51
259.9999999999992
  0
ARC
  5
253
  8
1
  6
CONTINUOUS
 62
     7
 10
849.826104279347
 20
256.602731164142
 30
0.0
 40
8.200000000000017
 50
209.9999999999998
 51
259.9999999999995
  0
LINE
  5
254
  8
1
  6
CONTINUOUS
 62
     7
 10
840.8982531268297
 20
255.6662229627144
 30
0.0
 11
842.7246959683146
 21
252.5027311641421
 31
0.0
  0
LINE
  5
255
  8
1
  6
CONTINUOUS
 62
     7
 10
847.2280280679938
 20
255.1027311641421
 30
0.0
 11
845.4015852265087
 21
258.2662229627144
 31
0.0
  0
ARC
  5
256
  8
1
  6
CONTINUOUS
 62
     7
 10
856.7490884040664
 20
249.5523404336852
 30
0.0
 40
0.4999999999999591
 50
350.0000000000001
 51
79.9999999999983
  0
ARC
  5
257
  8
1
  6
CONTINUOUS
 62
     7
 10
856.2281438710656
 20
246.5979171746486
 30
0.0
 40
0.5000000000000282
 50
259.9999999999982
 51
349.9999999999999
  0
LINE
  5
258
  8
1
  6
CONTINUOUS
 62
     7
 10
856.8359124928999
 20
250.0447443101913
 30
0.0
 11
855.8511047398875
 21
250.2183924878583
 31
0.0
  0
LINE
  5
259
  8
1
  6
CONTINUOUS
 62
     7
 10
855.1565120292199
 20
246.2791614758094
 30
0.0
 11
856.141319782232
 21
246.1055132981425
 31
0.0
  0
LINE
  5
25A
  8
1
  6
CONTINUOUS
 62
     7
 10
850.3199012517717
 20
260.9297674640309
 30
0.0
 11
853.894314566962
 21
258.4269363160576
 31
0.0
  0
ENDBLK
  8
0
  0
ENDSEC
  0
SECTION
  2
ENTITIES
  0
LINE
  5
70
  8
1
  6
CENTER
 62
     1
 10
628.089527742158
 20
77.66047225784206
 30
0.0
 11
761.9104722578421
 21
77.66047225784206
 31
0.0
  0
INSERT
  5
CC
  8
1
  6
CONTINUOUS
 62
     7
  2
D_FRAME_VIEW_2185
 10
0.0
 20
0.0
 30
0.0
  0
INSERT
  5
141
  8
1
  6
CONTINUOUS
 62
     7
  2
D_FRAME_VIEW_1933
 10
0.0
 20
0.0
 30
0.0
  0
TEXT
  5
142
  8
1
  6
CONTINUOUS
 62
     7
 10
650.345379517319
 20
204.1606352382143
 30
0.0
 40
8.0
  1
YHF-100
  0
LINE
  5
143
  8
1
  6
CENTER
 62
     1
 10
695.0
 20
10.74999999999998
 30
0.0
 11
695.0
 21
190.0000000000001
 31
0.0
  0
LINE
  5
144
  8
1
  6
CENTER
 62
     1
 10
600.0
 20
190.0000000000001
 30
0.0
 11
600.0
 21
9.26107831749845
 31
0.0
  0
LINE
  5
145
  8
1
  6
CONTINUOUS
 62
     7
 10
669.8768501791235
 20
166.7651171584502
 30
0.0
 11
684.8147168199437
 21
179.2994755473376
 31
0.0
  0
LINE
  5
146
  8
1
  6
CONTINUOUS
 62
     7
 10
699.5
 20
161.3371644455046
 30
0.0
 11
699.5
 21
175.3371644455046
 31
0.0
  0
LINE
  5
147
  8
1
  6
CONTINUOUS
 62
     7
 10
669.9990002059083
 20
144.1337772052891
 30
0.0
 11
660.4298402710422
 21
136.6934865028841
 31
0.0
  0
LINE
  5
148
  8
1
  6
CONTINUOUS
 62
     7
 10
698.2
 20
149.75
 30
0.0
 11
698.2
 21
178.25
 31
0.0
  0
LINE
  5
149
  8
1
  6
CONTINUOUS
 62
     7
 10
729.5701597289577
 20
136.6934865028841
 30
0.0
 11
720.0009997940919
 21
144.1337772052891
 31
0.0
  0
LINE
  5
14A
  8
1
  6
CONTINUOUS
 62
     7
 10
672.103844939756
 20
146.2770364466614
 30
0.0
 11
657.1160952184543
 21
134.6236399457767
 31
0.0
  0
LINE
  5
14B
  8
1
  6
CONTINUOUS
 62
     7
 10
451.1848673109083
 20
297.9
 30
0.0
 11
829.5740527322438
 21
297.9
 31
0.0
  0
LINE
  5
14C
  8
1
  6
CONTINUOUS
 62
     7
 10
583.0
 20
180.75
 30
0.0
 11
583.0
 21
143.6465961700231
 31
0.0
  0
LINE
  5
14D
  8
1
  6
CONTINUOUS
 62
     7
 10
704.5
 20
173.3371644455046
 30
0.0
 11
704.5
 21
163.3371644455046
 31
0.0
  0
LINE
  5
14E
  8
1
  6
CONTINUOUS
 62
     7
 10
451.1848673109083
 20
299.5000000000001
 30
0.0
 11
829.5740527322438
 21
299.5000000000001
 31
0.0
  0
LINE
  5
14F
  8
1
  6
CONTINUOUS
 62
     7
 10
830.9386089055506
 20
300.0000000000001
 30
0.0
 11
447.8794600215761
 21
300.0000000000001
 31
0.0
  0
LINE
  5
150
  8
1
  6
CONTINUOUS
 62
     7
 10
495.3005151117122
 20
231.3082960901238
 30
0.0
 11
785.4584049314398
 21
231.3082960901238
 31
0.0
  0
LINE
  5
151
  8
1
  6
CONTINUOUS
 62
     7
 10
451.1848673109083
 20
320.5000000000001
 30
0.0
 11
829.5740527322438
 21
320.5000000000001
 31
0.0
  0
LINE
  5
152
  8
1
  6
CONTINUOUS
 62
     7
 10
590.0
 20
147.4584532461626
 30
0.0
 11
590.0
 21
9.261078317498395
 31
0.0
  0
LINE
  5
153
  8
1
  6
CONTINUOUS
 62
     7
 10
697.6443258314658
 20
146.5986151903611
 30
0.0
 11
721.1388420802588
 21
142.4558980770053
 31
0.0
  0
LINE
  5
154
  8
1
  6
CONTINUOUS
 62
     7
 10
495.3005151117122
 20
227.8082960901238
 30
0.0
 11
785.4584049314398
 21
227.8082960901238
 31
0.0
  0
LINE
  5
155
  8
1
  6
CONTINUOUS
 62
     7
 10
790.2100475724669
 20
230.8082960901238
 30
0.0
 11
825.8794600215764
 21
230.8082960901238
 31
0.0
  0
LINE
  5
156
  8
1
  6
CONTINUOUS
 62
     7
 10
451.1848673109083
 20
322.1000000000001
 30
0.0
 11
829.5740527322438
 21
322.1000000000001
 31
0.0
  0
LINE
  5
157
  8
1
  6
CONTINUOUS
 62
     7
 10
602.6
 20
167.740897786791
 30
0.0
 11
602.6
 21
170.8835955894628
 31
0.0
  0
LINE
  5
158
  8
1
  6
CONTINUOUS
 62
     7
 10
603.1999999999999
 20
159.7499999999999
 30
0.0
 11
603.1999999999999
 21
171.1017614065378
 31
0.0
  0
LINE
  5
159
  8
1
  6
CONTINUOUS
 62
     7
 10
672.1038449397558
 20
146.2770364466614
 30
0.0
 11
691.8000000000001
 21
149.75
 31
0.0
  0
LINE
  5
15A
  8
1
  6
CONTINUOUS
 62
     7
 10
692.3556741685343
 20
146.5986151903609
 30
0.0
 11
668.8611579197413
 21
142.4558980770053
 31
0.0
  0
LINE
  5
15B
  8
1
  6
CONTINUOUS
 62
     7
 10
686.8716371709404
 20
176.8481333293569
 30
0.0
 11
671.9337705301203
 21
164.3137749404694
 31
0.0
  0
LINE
  5
15C
  8
1
  6
CONTINUOUS
 62
     7
 10
717.8961550602442
 20
146.2770364466614
 30
0.0
 11
698.2
 21
149.75
 31
0.0
  0
LINE
  5
15D
  8
1
  6
CONTINUOUS
 62
     7
 10
596.8
 20
159.7499999999999
 30
0.0
 11
596.8
 21
171.1017614065378
 31
0.0
  0
LINE
  5
15E
  8
1
  6
CONTINUOUS
 62
     7
 10
825.8794600215764
 20
231.2082960901238
 30
0.0
 11
787.5488594274763
 21
231.2082960901238
 31
0.0
  0
LINE
  5
15F
  8
1
  6
CONTINUOUS
 62
     7
 10
597.3999999999999
 20
170.8835955894628
 30
0.0
 11
597.3999999999999
 21
167.740897786791
 31
0.0
  0
LINE
  5
160
  8
1
  6
CONTINUOUS
 62
     7
 10
610.0
 20
147.4584532461626
 30
0.0
 11
610.0
 21
9.261078317498395
 31
0.0
  0
LINE
  5
161
  8
1
  6
CONTINUOUS
 62
     7
 10
583.0
 20
149.75
 30
0.0
 11
617.0
 21
149.75
 31
0.0
  0
LINE
  5
162
  8
1
  6
CONTINUOUS
 62
     7
 10
617.0
 20
180.75
 30
0.0
 11
617.0
 21
143.6465961700231
 31
0.0
  0
LINE
  5
163
  8
1
  6
CONTINUOUS
 62
     7
 10
695.0
 20
149.75
 30
0.0
 11
695.0
 21
178.25
 31
0.0
  0
LINE
  5
164
  8
1
  6
CONTINUOUS
 62
     7
 10
830.9386089055506
 20
320.0000000000001
 30
0.0
 11
447.8794600215761
 21
320.0000000000001
 31
0.0
  0
LINE
  5
165
  8
1
  6
CONTINUOUS
 62
     7
 10
678.2951172393642
 20
144.0000502373136
 30
0.0
 11
679.1497684021546
 21
140.6060008284303
 31
0.0
  0
LINE
  5
166
  8
1
  6
CONTINUOUS
 62
     7
 10
860.5408058138237
 20
315.0000000000001
 30
0.0
 11
864.7499702995104
 21
315.0000000000001
 31
0.0
  0
LINE
  5
167
  8
1
  6
CONTINUOUS
 62
     7
 10
849.5740527322438
 20
229.8475271021726
 30
0.0
 11
829.5740527322438
 21
229.8475271021726
 31
0.0
  0
LINE
  5
168
  8
1
  6
CONTINUOUS
 62
     7
 10
426.2358942474008
 20
261.1145480630206
 30
0.0
 11
431.1848673109082
 21
233.0475271021727
 31
0.0
  0
LINE
  5
169
  8
1
  6
CONTINUOUS
 62
     7
 10
824.380460121596
 20
230.4082960901238
 30
0.0
 11
792.879460021576
 21
230.4082960901238
 31
0.0
  0
LINE
  5
16A
  8
1
  6
CONTINUOUS
 62
     7
 10
865.4823866071233
 20
253.1317866512606
 30
0.0
 11
863.7459048304532
 21
243.2837091211387
 31
0.0
  0
LINE
  5
16B
  8
1
  6
CONTINUOUS
 62
     7
 10
857.1261042793469
 20
327.0000000000001
 30
0.0
 11
832.5740527322438
 21
327.0000000000001
 31
0.0
  0
LINE
  5
16C
  8
1
  6
CONTINUOUS
 62
     7
 10
847.8261042793471
 20
263.3610614133398
 30
0.0
 11
830.9386089055505
 21
253.6110614133397
 31
0.0
  0
LINE
  5
16D
  8
1
  6
CONTINUOUS
 62
     7
 10
864.749970305843
 20
305.0000000000001
 30
0.0
 11
860.5408058138237
 21
305.0000000000001
 31
0.0
  0
LINE
  5
16E
  8
1
  6
CONTINUOUS
 62
     7
 10
431.1848673109083
 20
233.0475271021727
 30
0.0
 11
451.1848673109083
 21
233.0475271021727
 31
0.0
  0
LINE
  5
16F
  8
1
  6
CONTINUOUS
 62
     7
 10
456.378459921556
 20
230.4082960901238
 30
0.0
 11
487.879460021576
 21
230.4082960901238
 31
0.0
  0
LINE
  5
170
  8
1
  6
CONTINUOUS
 62
     7
 10
717.8961550602442
 20
146.2770364466614
 30
0.0
 11
732.8839047815458
 21
134.6236399457767
 31
0.0
  0
LINE
  5
171
  8
1
  6
CONTINUOUS
 62
     7
 10
824.380460121596
 20
231.6082960901238
 30
0.0
 11
792.879460021576
 21
231.6082960901238
 31
0.0
  0
LINE
  5
172
  8
1
  6
CONTINUOUS
 62
     7
 10
428.0334825012691
 20
232.4918529336385
 30
0.0
 11
423.0845094377618
 21
260.5588738944864
 31
0.0
  0
LINE
  5
173
  8
1
  6
CONTINUOUS
 62
     7
 10
493.2100606156757
 20
231.2082960901238
 30
0.0
 11
454.8794600215759
 21
231.2082960901238
 31
0.0
  0
LINE
  5
174
  8
1
  6
CONTINUOUS
 62
     7
 10
829.5740527322438
 20
233.0475271021727
 30
0.0
 11
849.5740527322438
 21
233.0475271021727
 31
0.0
  0
LINE
  5
175
  8
1
  6
CONTINUOUS
 62
     7
 10
858.474569710059
 20
242.1823345034488
 30
0.0
 11
860.905644197396
 21
255.9696430456197
 31
0.0
  0
LINE
  5
176
  8
1
  6
CONTINUOUS
 62
     7
 10
448.1848673109083
 20
327.0000000000001
 30
0.0
 11
423.6054539707625
 21
327.0000000000001
 31
0.0
  0
LINE
  5
177
  8
1
  6
CONTINUOUS
 62
     7
 10
711.7048827606359
 20
144.0000502373136
 30
0.0
 11
710.8502315978455
 21
140.6060008284303
 31
0.0
  0
LINE
  5
178
  8
1
  6
CONTINUOUS
 62
     7
 10
446.3794600215755
 20
229.3082960901242
 30
0.0
 11
446.3794600215755
 21
225.8082960901242
 31
0.0
  0
LINE
  5
179
  8
1
  6
CONTINUOUS
 62
     7
 10
834.3794600215766
 20
229.3082960901242
 30
0.0
 11
834.3794600215766
 21
225.8082960901242
 31
0.0
  0
ARC
  5
17A
  8
1
  6
CONTINUOUS
 62
     7
 10
695.0
 20
77.66047225784206
 30
0.0
 40
68.41047225784206
 50
104.1337367207046
 51
75.86626327929541
  0
LINE
  5
17B
  8
1
  6
CONTINUOUS
 62
     7
 10
448.1848673109083
 20
293.0000000000001
 30
0.0
 11
423.6054539707625
 21
293.0000000000001
 31
0.0
  0
LINE
  5
17C
  8
1
  6
CONTINUOUS
 62
     7
 10
857.1261042793469
 20
293.0000000000001
 30
0.0
 11
832.5740527322438
 21
293.0000000000001
 31
0.0
  0
ARC
  5
17D
  8
1
  6
CONTINUOUS
 62
     7
 10
695.0
 20
77.66047225784206
 30
0.0
 40
64.91047225784207
 50
104.1337367207046
 51
75.86626327929537
  0
LINE
  5
17E
  8
1
  6
CONTINUOUS
 62
     7
 10
832.5386089055504
 20
250.8397801212296
 30
0.0
 11
849.426104279347
 21
260.5897801212296
 31
0.0
  0
LINE
  5
17F
  8
1
  6
CONTINUOUS
 62
     7
 10
857.1943196311431
 20
242.4080771344158
 30
0.0
 11
859.6253941184801
 21
256.1953856765867
 31
0.0
  0
LINE
  5
180
  8
1
  6
CONTINUOUS
 62
     7
 10
456.378459921556
 20
231.6082960901238
 30
0.0
 11
487.879460021576
 21
231.6082960901238
 31
0.0
  0
LINE
  5
181
  8
1
  6
CONTINUOUS
 62
     7
 10
490.5488724706852
 20
230.8082960901238
 30
0.0
 11
454.8794600215759
 21
230.8082960901238
 31
0.0
  0
ARC
  5
182
  8
1
  6
CONTINUOUS
 62
     9
 10
600.0
 20
168.3371644455046
 30
0.0
 40
2.999999999999972
 50
150.0735651333858
 51
185.703341215573
  0
LINE
  5
183
  8
1
  6
CONTINUOUS
 62
     7
 10
451.1848673109083
 20
229.8475271021727
 30
0.0
 11
431.1848673109083
 21
229.8475271021729
 31
0.0
  0
LINE
  5
184
  8
1
  6
CENTER
 62
     1
 10
420.0845094377618
 20
310.0000000000001
 30
0.0
 11
889.9154905622382
 21
310.0000000000001
 31
0.0
  0
POINT
  5
185
  8
1
 62
     7
 10
600.0
 20
150.0
 30
0.0
  0
POINT
  5
186
  8
1
 62
     1
 10
670.0
 20
190.0000000000001
 30
0.0
  0
POINT
  5
187
  8
1
 62
     1
 10
655.0
 20
310.0000000000001
 30
0.0
  0
INSERT
  5
1CD
  8
1
  6
CONTINUOUS
 62
     7
  2
D_FRAME_VIEW_1935
 10
0.0
 20
0.0
 30
0.0
  0
INSERT
  5
25B
  8
1
  6
CONTINUOUS
 62
     7
  2
D_FRAME_VIEW_1474
 10
0.0
 20
0.0
 30
0.0
  0
ENDSEC
  0
EOF
