  0
SECTION
  2
HEADER
  9
$ACADVER
  1
AC1006
  9
$DWGCODEPAGE
  3
ansi_932
  9
$INSBASE
 10
0.0
 20
0.0
 30
0.0
  9
$EXTMIN
 10
0.0
 20
0.0
  9
$EXTMAX
 10
820.9154905622382
 20
327.0000000000001
  9
$LIMMIN
 10
0.0
 20
0.0
  9
$LIMMAX
 10
12.0
 20
9.0
  9
$ORTHOMODE
 70
     0
  9
$REGENMODE
 70
     1
  9
$FILLMODE
 70
     1
  9
$QTEXTMODE
 70
     0
  9
$MIRRTEXT
 70
     1
  9
$DRAGMODE
 70
     2
  9
$LTSCALE
 40
1.0
  9
$OSMODE
 70
    37
  9
$ATTMODE
 70
     1
  9
$TEXTSIZE
 40
0.2
  9
$TRACEWID
 40
0.05
  9
$TEXTSTYLE
  7
STANDARD
  9
$CLAYER
  8
0
  9
$CELTYPE
  6
BYLAYER
  9
$CECOLOR
 62
   256
  9
$DIMSCALE
 40
1.0
  9
$DIMASZ
 40
3.0
  9
$DIMEXO
 40
0.0625
  9
$DIMDLI
 40
0.38
  9
$DIMRND
 40
0.0
  9
$DIMDLE
 40
0.0
  9
$DIMEXE
 40
1.5
  9
$DIMTP
 40
0.0
  9
$DIMTM
 40
0.0
  9
$DIMTXT
 40
3.0
  9
$DIMCEN
 40
0.09
  9
$DIMTSZ
 40
0.0
  9
$DIMTOL
 70
     0
  9
$DIMLIM
 70
     0
  9
$DIMTIH
 70
     1
  9
$DIMTOH
 70
     1
  9
$DIMSE1
 70
     0
  9
$DIMSE2
 70
     0
  9
$DIMTAD
 70
     1
  9
$DIMZIN
 70
     0
  9
$DIMBLK
  1

  9
$DIMASO
 70
     1
  9
$DIMSHO
 70
     1
  9
$DIMPOST
  1

  9
$DIMAPOST
  1

  9
$DIMALT
 70
     0
  9
$DIMALTD
 70
     2
  9
$DIMALTF
 40
25.4
  9
$DIMLFAC
 40
1.0
  9
$DIMTOFL
 70
     0
  9
$DIMTVP
 40
0.0
  9
$DIMTIX
 70
     0
  9
$DIMSOXD
 70
     0
  9
$DIMSAH
 70
     0
  9
$DIMBLK1
  1

  9
$DIMBLK2
  1

  9
$LUNITS
 70
     2
  9
$LUPREC
 70
     4
  9
$SKETCHINC
 40
0.1
  9
$FILLETRAD
 40
0.5
  9
$AUNITS
 70
     0
  9
$AUPREC
 70
     0
  9
$MENU
  1
.
  9
$ELEVATION
 40
0.0
  9
$THICKNESS
 40
0.0
  9
$LIMCHECK
 70
     0
  9
$CHAMFERA
 40
0.0
  9
$CHAMFERB
 40
0.0
  9
$SKPOLY
 70
     0
  9
$TDCREATE
 40
2460455.755568079
  9
$TDUPDATE
 40
2460455.755568356
  9
$TDINDWG
 40
0.0000000116
  9
$TDUSRTIMER
 40
0.0000000116
  9
$USRTIMER
 70
     1
  9
$ANGBASE
 50
0.0
  9
$ANGDIR
 70
     0
  9
$PDMODE
 70
     0
  9
$PDSIZE
 40
0.0
  9
$PLINEWID
 40
0.0
  9
$COORDS
 70
     1
  9
$SPLFRAME
 70
     0
  9
$SPLINETYPE
 70
     6
  9
$SPLINESEGS
 70
     8
  9
$ATTDIA
 70
     0
  9
$ATTREQ
 70
     1
  9
$HANDLING
 70
     1
  9
$HANDSEED
  5
578
  9
$SURFTAB1
 70
     6
  9
$SURFTAB2
 70
     6
  9
$SURFTYPE
 70
     6
  9
$SURFU
 70
     6
  9
$SURFV
 70
     6
  9
$UCSNAME
  2

  9
$UCSORG
 10
0.0
 20
0.0
 30
0.0
  9
$UCSXDIR
 10
1.0
 20
0.0
 30
0.0
  9
$UCSYDIR
 10
0.0
 20
1.0
 30
0.0
  9
$USERI1
 70
     0
  9
$USERI2
 70
     0
  9
$USERI3
 70
     0
  9
$USERI4
 70
     0
  9
$USERI5
 70
     0
  9
$USERR1
 40
0.0
  9
$USERR2
 40
0.0
  9
$USERR3
 40
0.0
  9
$USERR4
 40
0.0
  9
$USERR5
 40
0.0
  9
$WORLDVIEW
 70
     1
  0
ENDSEC
  0
SECTION
  2
TABLES
  0
TABLE
  2
VPORT
 70
     1
  0
VPORT
  2
*ACTIVE
 70
     0
 10
0.0
 20
0.0
 11
1.0
 21
1.0
 12
410.4577452811191
 22
163.5
 13
0.0
 23
0.0
 14
0.5
 24
0.5
 15
0.5
 25
0.5
 16
0.0
 26
0.0
 36
1.0
 17
0.0
 27
0.0
 37
0.0
 40
327.0000000000001
 41
1.6
 42
50.0
 43
0.0
 44
0.0
 50
0.0
 51
0.0
 71
     0
 72
   100
 73
     1
 74
     3
 75
     0
 76
     0
 77
     0
 78
     0
  0
ENDTAB
  0
TABLE
  2
LTYPE
 70
     2
  0
LTYPE
  2
CONTINUOUS
 70
     0
  3
Solid line
 72
    65
 73
     0
 40
0.0
  0
LTYPE
  2
CENTER
 70
     0
  3

 72
    65
 73
     0
 40
0.0
  0
ENDTAB
  0
TABLE
  2
LAYER
 70
     2
  0
LAYER
  2
0
 70
     0
 62
     7
  6
CONTINUOUS
  0
LAYER
  2
1
 70
     0
 62
     7
  6
CONTINUOUS
  0
ENDTAB
  0
TABLE
  2
STYLE
 70
     2
  0
STYLE
  2
STANDARD
 70
     0
 40
0.0
 41
1.0
 50
0.0
 71
     0
 42
0.2
  3
txt
  4

  0
STYLE
  2
ＭＳ_ゴシック
 70
     0
 40
0.0
 41
1.0
 50
0.0
 71
     0
 42
0.2
  3
ＭＳ ゴシック.shx
  4

  0
ENDTAB
  0
TABLE
  2
VIEW
 70
     0
  0
ENDTAB
  0
TABLE
  2
UCS
 70
     0
  0
ENDTAB
  0
ENDSEC
  0
SECTION
  2
BLOCKS
  0
BLOCK
  8
0
  2
D_FRAME_VIEW_1474
 70
     0
 10
0.0
 20
0.0
 30
0.0
  0
LINE
  5
B5
  8
1
  6
CONTINUOUS
 62
     7
 10
756.8794600215763
 20
230.8082960901238
 30
0.0
 11
756.8794600215763
 21
231.2082960901238
 31
0.0
  0
LINE
  5
B6
  8
1
  6
CONTINUOUS
 62
     7
 10
523.8794600215758
 20
230.8082960901238
 30
0.0
 11
523.8794600215758
 21
231.2082960901238
 31
0.0
  0
LINE
  5
B7
  8
1
  6
CONTINUOUS
 62
     7
 10
758.9862012763235
 20
229.5832757606033
 30
0.0
 11
756.7613000223455
 21
229.9755858810912
 31
0.0
  0
ARC
  5
B8
  8
1
  6
CONTINUOUS
 62
     7
 10
752.9584049314399
 20
208.4082960901239
 30
0.0
 40
21.89999999999997
 50
80.00000000000004
 51
89.99999999999966
  0
ARC
  5
B9
  8
1
  6
CONTINUOUS
 62
     7
 10
762.1292332920945
 20
247.4082960901238
 30
0.0
 40
18.10000000000009
 50
260.0000000000014
 51
269.9999999999998
  0
ARC
  5
BA
  8
1
  6
CONTINUOUS
 62
     7
 10
725.6292332920943
 20
248.4082960901238
 30
0.0
 40
18.1
 50
260.0000000000003
 51
270.0
  0
ARC
  5
BB
  8
1
  6
CONTINUOUS
 62
     7
 10
716.4584049314398
 20
209.4082960901239
 30
0.0
 40
21.89999999999999
 50
79.99999999999997
 51
84.96758004741788
  0
LINE
  5
BC
  8
1
  6
CONTINUOUS
 62
     7
 10
722.4862012763231
 20
230.583275760603
 30
0.0
 11
720.2613000223455
 21
230.9755858810912
 31
0.0
  0
LINE
  5
BD
  8
1
  6
CONTINUOUS
 62
     7
 10
752.95840493144
 20
230.3082960901239
 30
0.0
 11
725.6292332920943
 21
230.3082960901238
 31
0.0
  0
LINE
  5
BE
  8
1
  6
CONTINUOUS
 62
     7
 10
765.3794600215766
 20
229.3082960901242
 30
0.0
 11
762.1292332920943
 21
229.3082960901237
 31
0.0
  0
ARC
  5
BF
  8
1
  6
CONTINUOUS
 62
     7
 10
518.6296867510574
 20
247.4082960901238
 30
0.0
 40
18.10000000000009
 50
270.0000000000002
 51
279.9999999999986
  0
LINE
  5
C0
  8
1
  6
CONTINUOUS
 62
     7
 10
521.7727187668283
 20
229.5832757606033
 30
0.0
 11
523.9976200208064
 21
229.9755858810912
 31
0.0
  0
ARC
  5
C1
  8
1
  6
CONTINUOUS
 62
     7
 10
527.8005151117122
 20
208.4082960901239
 30
0.0
 40
21.89999999999999
 50
90.00000000000034
 51
99.99999999999994
  0
LINE
  5
C2
  8
1
  6
CONTINUOUS
 62
     7
 10
558.2727187668288
 20
230.583275760603
 30
0.0
 11
560.4976200208064
 21
230.9755858810912
 31
0.0
  0
ARC
  5
C3
  8
1
  6
CONTINUOUS
 62
     7
 10
564.3005151117122
 20
209.4082960901239
 30
0.0
 40
21.89999999999999
 50
90.0
 51
100.0
  0
ARC
  5
C4
  8
1
  6
CONTINUOUS
 62
     7
 10
555.1296867510575
 20
248.4082960901238
 30
0.0
 40
18.1
 50
270.0
 51
279.9999999999998
  0
LINE
  5
C5
  8
1
  6
CONTINUOUS
 62
     7
 10
527.800515111712
 20
230.3082960901239
 30
0.0
 11
555.1296867510575
 21
230.3082960901238
 31
0.0
  0
LINE
  5
C6
  8
1
  6
CONTINUOUS
 62
     7
 10
515.3794600215754
 20
229.3082960901242
 30
0.0
 11
518.6296867510575
 21
229.3082960901237
 31
0.0
  0
LINE
  5
C7
  8
1
  6
CONTINUOUS
 62
     7
 10
729.3794600215759
 20
232.1082960901238
 30
0.0
 11
736.379460021576
 21
232.1082960901238
 31
0.0
  0
LINE
  5
C8
  8
1
  6
CONTINUOUS
 62
     7
 10
744.3794600215759
 20
232.1082960901238
 30
0.0
 11
751.3794600215759
 21
232.1082960901238
 31
0.0
  0
LINE
  5
C9
  8
1
  6
CONTINUOUS
 62
     7
 10
723.8794600215759
 20
230.4082960901238
 30
0.0
 11
723.8794600215759
 21
230.8082960901238
 31
0.0
  0
LINE
  5
CA
  8
1
  6
CONTINUOUS
 62
     7
 10
723.8794600215759
 20
231.6082960901238
 30
0.0
 11
723.8794600215759
 21
231.2082960901238
 31
0.0
  0
ARC
  5
CB
  8
1
  6
CONTINUOUS
 62
     7
 10
755.380460121596
 20
237.2082960901238
 30
0.0
 40
5.599999999999998
 50
270.0
 51
315.5729959991943
  0
ARC
  5
CC
  8
1
  6
CONTINUOUS
 62
     7
 10
760.3794600215759
 20
232.3082960901238
 30
0.0
 40
1.400000000000012
 50
90.0
 51
135.572995999194
  0
LINE
  5
CD
  8
1
  6
CONTINUOUS
 62
     7
 10
763.879460021576
 20
233.7082960901238
 30
0.0
 11
760.3794600215759
 21
233.7082960901238
 31
0.0
  0
ARC
  5
CE
  8
1
  6
CONTINUOUS
 62
     7
 10
763.879460021576
 20
232.3082960901238
 30
0.0
 40
1.399999999999956
 50
31.87191672161703
 51
90.0
  0
LINE
  5
CF
  8
1
  6
CONTINUOUS
 62
     7
 10
765.2794600215759
 20
229.7082960901238
 30
0.0
 11
765.2794600215759
 21
229.8475271021726
 31
0.0
  0
ARC
  5
D0
  8
1
  6
CONTINUOUS
 62
     7
 10
755.380460121596
 20
224.8082960901238
 30
0.0
 40
5.599999999999991
 50
62.08797745975804
 51
90.0
  0
ARC
  5
D1
  8
1
  6
CONTINUOUS
 62
     7
 10
763.879460021576
 20
229.7082960901238
 30
0.0
 40
0.9999999999999423
 50
336.4218215218226
 51
0.0
  0
ARC
  5
D2
  8
1
  6
CONTINUOUS
 62
     7
 10
763.879460021576
 20
229.7082960901238
 30
0.0
 40
1.399999999999957
 50
343.3984504009968
 51
0.0
  0
ARC
  5
D3
  8
1
  6
CONTINUOUS
 62
     7
 10
763.879460021576
 20
232.3082960901238
 30
0.0
 40
1.000000000000001
 50
47.66595073467459
 51
90.0
  0
LINE
  5
D4
  8
1
  6
CONTINUOUS
 62
     7
 10
764.879460021576
 20
229.8475271021726
 30
0.0
 11
764.879460021576
 21
229.7082960901238
 31
0.0
  0
ARC
  5
D5
  8
1
  6
CONTINUOUS
 62
     7
 10
755.380460121596
 20
224.8082960901238
 30
0.0
 40
6.000000000000005
 50
52.63552651263949
 51
90.0
  0
LINE
  5
D6
  8
1
  6
CONTINUOUS
 62
     7
 10
760.3794600215759
 20
233.3082960901238
 30
0.0
 11
763.879460021576
 21
233.3082960901238
 31
0.0
  0
ARC
  5
D7
  8
1
  6
CONTINUOUS
 62
     7
 10
755.380460121596
 20
237.2082960901238
 30
0.0
 40
6.000000000000005
 50
270.0
 51
315.5729959991942
  0
ARC
  5
D8
  8
1
  6
CONTINUOUS
 62
     7
 10
760.3794600215759
 20
232.3082960901238
 30
0.0
 40
0.9999999999999465
 50
89.99999999999994
 51
135.5729959991941
  0
LINE
  5
D9
  8
1
  6
CONTINUOUS
 62
     7
 10
551.379460021576
 20
232.1082960901238
 30
0.0
 11
544.3794600215759
 21
232.1082960901238
 31
0.0
  0
LINE
  5
DA
  8
1
  6
CONTINUOUS
 62
     7
 10
536.3794600215759
 20
232.1082960901238
 30
0.0
 11
529.3794600215759
 21
232.1082960901238
 31
0.0
  0
LINE
  5
DB
  8
1
  6
CONTINUOUS
 62
     7
 10
556.8794600215759
 20
230.4082960901238
 30
0.0
 11
556.8794600215759
 21
230.8082960901238
 31
0.0
  0
ARC
  5
DC
  8
1
  6
CONTINUOUS
 62
     7
 10
525.378459921556
 20
237.2082960901238
 30
0.0
 40
6.000000000000005
 50
224.4270040008057
 51
270.0
  0
ARC
  5
DD
  8
1
  6
CONTINUOUS
 62
     7
 10
520.3794600215759
 20
232.3082960901238
 30
0.0
 40
1.000000000000026
 50
44.42700400080587
 51
90.00000000000001
  0
LINE
  5
DE
  8
1
  6
CONTINUOUS
 62
     7
 10
520.3794600215759
 20
233.3082960901238
 30
0.0
 11
516.879460021576
 21
233.3082960901238
 31
0.0
  0
ARC
  5
DF
  8
1
  6
CONTINUOUS
 62
     7
 10
516.879460021576
 20
232.3082960901238
 30
0.0
 40
1.000000000000001
 50
90.0
 51
132.3340492653249
  0
LINE
  5
E0
  8
1
  6
CONTINUOUS
 62
     7
 10
515.8794600215759
 20
229.8475271021727
 30
0.0
 11
515.8794600215759
 21
229.7082960901238
 31
0.0
  0
ARC
  5
E1
  8
1
  6
CONTINUOUS
 62
     7
 10
516.879460021576
 20
229.7082960901238
 30
0.0
 40
1.000000000000044
 50
180.0
 51
203.5781784781777
  0
ARC
  5
E2
  8
1
  6
CONTINUOUS
 62
     7
 10
525.378459921556
 20
224.8082960901238
 30
0.0
 40
6.000000000000005
 50
90.0
 51
127.3644734872805
  0
ARC
  5
E3
  8
1
  6
CONTINUOUS
 62
     7
 10
516.879460021576
 20
229.7082960901238
 30
0.0
 40
1.400000000000068
 50
180.0
 51
196.6015495990034
  0
LINE
  5
E4
  8
1
  6
CONTINUOUS
 62
     7
 10
515.479460021576
 20
229.7082960901238
 30
0.0
 11
515.479460021576
 21
229.8475271021727
 31
0.0
  0
ARC
  5
E5
  8
1
  6
CONTINUOUS
 62
     7
 10
516.879460021576
 20
232.3082960901238
 30
0.0
 40
1.40000000000005
 50
90.0
 51
148.1280832783822
  0
LINE
  5
E6
  8
1
  6
CONTINUOUS
 62
     7
 10
516.879460021576
 20
233.7082960901238
 30
0.0
 11
520.3794600215759
 21
233.7082960901238
 31
0.0
  0
ARC
  5
E7
  8
1
  6
CONTINUOUS
 62
     7
 10
520.3794600215759
 20
232.3082960901238
 30
0.0
 40
1.400000000000012
 50
44.42700400080599
 51
90.0
  0
ARC
  5
E8
  8
1
  6
CONTINUOUS
 62
     7
 10
525.378459921556
 20
237.2082960901238
 30
0.0
 40
5.599999999999998
 50
224.4270040008057
 51
270.0
  0
ARC
  5
E9
  8
1
  6
CONTINUOUS
 62
     7
 10
525.378459921556
 20
224.8082960901238
 30
0.0
 40
5.599999999999991
 50
90.0
 51
117.9120225402422
  0
LINE
  5
EA
  8
1
  6
CONTINUOUS
 62
     7
 10
556.8794600215759
 20
231.6082960901238
 30
0.0
 11
556.8794600215759
 21
231.2082960901238
 31
0.0
  0
LINE
  5
EB
  8
1
  6
CONTINUOUS
 62
     7
 10
794.6730692046546
 20
245.4424009279798
 30
0.0
 11
790.188827843126
 21
246.2330936680261
 31
0.0
  0
ARC
  5
EC
  8
1
  6
CONTINUOUS
 62
     7
 10
792.1071626783616
 20
244.3571771624954
 30
0.0
 40
2.785962476926823
 50
351.4588154626409
 51
22.92543200539984
  0
ARC
  5
ED
  8
1
  6
CONTINUOUS
 62
     7
 10
792.0377154421809
 20
244.545208308797
 30
0.0
 40
2.887911492575065
 50
317.6435929533577
 51
347.9721595785983
  0
LINE
  5
EE
  8
1
  6
CONTINUOUS
 62
     7
 10
794.171790094053
 20
242.5995058214716
 30
0.0
 11
789.6875487325245
 21
243.3901985615179
 31
0.0
  0
LINE
  5
EF
  8
1
  6
CONTINUOUS
 62
     7
 10
796.1769065364588
 20
253.9710862475042
 30
0.0
 11
791.6926651749303
 21
254.7617789875505
 31
0.0
  0
ARC
  5
F0
  8
1
  6
CONTINUOUS
 62
     7
 10
793.6110000101642
 20
252.8858624820194
 30
0.0
 40
2.785962476928619
 50
351.4588154626563
 51
22.92543200539347
  0
ARC
  5
F1
  8
1
  6
CONTINUOUS
 62
     7
 10
793.5415527739825
 20
253.0738936283228
 30
0.0
 40
2.88791149257807
 50
317.643592953374
 51
347.9721595785827
  0
LINE
  5
F2
  8
1
  6
CONTINUOUS
 62
     7
 10
795.6756274258573
 20
251.1281911409961
 30
0.0
 11
791.1913860643289
 21
251.9188838810424
 31
0.0
  0
ARC
  5
F3
  8
1
  6
CONTINUOUS
 62
     7
 10
785.6574412819156
 20
249.8782270437528
 30
0.0
 40
10.09586370049954
 50
350.4759411721641
 51
7.112012601830713
  0
ARC
  5
F4
  8
1
  6
CONTINUOUS
 62
     7
 10
785.3761420755612
 20
250.1490451118179
 30
0.0
 40
10.42042962247372
 50
333.1488196457549
 51
349.2632265802515
  0
LINE
  5
F5
  8
1
  6
CONTINUOUS
 62
     7
 10
766.164184191663
 20
256.7979216925254
 30
0.0
 11
778.2885398446451
 21
263.7979216925254
 31
0.0
  0
LINE
  5
F6
  8
1
  6
CONTINUOUS
 62
     7
 10
766.414184191663
 20
256.3649089906331
 30
0.0
 11
778.5385398446452
 21
263.3649089906331
 31
0.0
  0
LINE
  5
F7
  8
1
  6
CONTINUOUS
 62
     7
 10
817.9154905622383
 20
247.4227624736466
 30
0.0
 11
816.8736014962366
 21
241.5139159555734
 31
0.0
  0
LINE
  5
F8
  8
1
  6
CONTINUOUS
 62
     7
 10
769.9518429653158
 20
258.2375042548246
 30
0.0
 11
769.8782858068008
 21
258.3649089906331
 31
0.0
  0
LINE
  5
F9
  8
1
  6
CONTINUOUS
 62
     7
 10
775.0744382295075
 20
261.3649089906331
 30
0.0
 11
775.1479953880224
 21
261.2375042548246
 31
0.0
  0
ARC
  5
FA
  8
1
  6
CONTINUOUS
 62
     7
 10
500.1848673109083
 20
233.0475271021727
 30
0.0
 40
3.199999999999989
 50
189.9999999999998
 51
269.9999999999999
  0
LINE
  5
FB
  8
1
  6
CONTINUOUS
 62
     7
 10
492.0845094377617
 20
260.5588738944864
 30
0.0
 11
495.2358942474008
 21
261.1145480630206
 31
0.0
  0
LINE
  5
FC
  8
1
  6
CONTINUOUS
 62
     7
 10
520.1848673109083
 20
233.0475271021727
 30
0.0
 11
520.1848673109083
 21
229.8475271021727
 31
0.0
  0
LINE
  5
FD
  8
1
  6
CONTINUOUS
 62
     7
 10
763.5386089055504
 20
250.8397801212295
 30
0.0
 11
761.9386089055504
 21
253.6110614133398
 31
0.0
  0
LINE
  5
FE
  8
1
  6
CONTINUOUS
 62
     7
 10
784.8805275383836
 20
257.4707593768754
 30
0.0
 11
780.5740527322438
 21
233.0475271021727
 31
0.0
  0
ARC
  5
FF
  8
1
  6
CONTINUOUS
 62
     7
 10
781.9261042793469
 20
257.9917039098763
 30
0.0
 40
2.999999999999984
 50
350.0000000000011
 51
119.999999999999
  0
ARC
  5
100
  8
1
  6
CONTINUOUS
 62
     7
 10
781.9261042793469
 20
257.9917039098763
 30
0.0
 40
6.199999999999977
 50
350.0000000000001
 51
119.9999999999994
  0
LINE
  5
101
  8
1
  6
CONTINUOUS
 62
     7
 10
783.7254375418828
 20
232.4918529336385
 30
0.0
 11
788.0319123480227
 21
256.9150852083413
 31
0.0
  0
ARC
  5
102
  8
1
  6
CONTINUOUS
 62
     7
 10
780.5740527322438
 20
233.0475271021727
 30
0.0
 40
3.200000000000008
 50
270.0
 51
349.9999999999999
  0
LINE
  5
103
  8
1
  6
CONTINUOUS
 62
     7
 10
760.5740527322438
 20
229.8475271021727
 30
0.0
 11
760.5740527322438
 21
233.0475271021727
 31
0.0
  0
LINE
  5
104
  8
1
  6
CONTINUOUS
 62
     7
 10
788.2414922805724
 20
249.4655163448517
 30
0.0
 11
787.7205477475716
 21
246.5110930858151
 31
0.0
  0
ARC
  5
105
  8
1
  6
CONTINUOUS
 62
     7
 10
762.1292332920945
 20
247.4082960901238
 30
0.0
 40
21.60000000000008
 50
260.0000000000013
 51
269.9999999999999
  0
LINE
  5
106
  8
1
  6
CONTINUOUS
 62
     7
 10
756.1535314005118
 20
226.5287587455488
 30
0.0
 11
758.3784326544887
 21
226.1364486250606
 31
0.0
  0
LINE
  5
107
  8
1
  6
CONTINUOUS
 62
     7
 10
762.1292332920951
 20
225.8082960901242
 30
0.0
 11
765.3794600215766
 21
225.8082960901242
 31
0.0
  0
LINE
  5
108
  8
1
  6
CONTINUOUS
 62
     7
 10
725.6292332920947
 20
226.8082960901239
 30
0.0
 11
752.9584049314399
 21
226.8082960901239
 31
0.0
  0
ARC
  5
109
  8
1
  6
CONTINUOUS
 62
     7
 10
752.9584049314399
 20
208.4082960901239
 30
0.0
 40
18.39999999999997
 50
80.00000000000004
 51
89.99999999999962
  0
ARC
  5
10A
  8
1
  6
CONTINUOUS
 62
     7
 10
725.6292332920943
 20
248.4082960901238
 30
0.0
 40
21.6
 50
260.0000000000003
 51
270.0000000000001
  0
LINE
  5
10B
  8
1
  6
CONTINUOUS
 62
     7
 10
719.6535314005114
 20
227.5287587455486
 30
0.0
 11
721.8784326544887
 21
227.1364486250603
 31
0.0
  0
ARC
  5
10C
  8
1
  6
CONTINUOUS
 62
     7
 10
716.4584049314398
 20
209.4082960901239
 30
0.0
 40
18.39999999999997
 50
80.00000000000004
 51
90.0
  0
ARC
  5
10D
  8
1
  6
CONTINUOUS
 62
     7
 10
518.6296867510574
 20
247.4082960901238
 30
0.0
 40
21.60000000000006
 50
270.0000000000001
 51
279.9999999999987
  0
LINE
  5
10E
  8
1
  6
CONTINUOUS
 62
     7
 10
522.3804873886631
 20
226.1364486250606
 30
0.0
 11
524.60538864264
 21
226.5287587455488
 31
0.0
  0
LINE
  5
10F
  8
1
  6
CONTINUOUS
 62
     7
 10
515.3794600215753
 20
225.8082960901242
 30
0.0
 11
518.6296867510569
 21
225.8082960901242
 31
0.0
  0
LINE
  5
110
  8
1
  6
CONTINUOUS
 62
     7
 10
527.8005151117122
 20
226.8082960901239
 30
0.0
 11
555.1296867510573
 21
226.8082960901239
 31
0.0
  0
ARC
  5
111
  8
1
  6
CONTINUOUS
 62
     7
 10
527.8005151117122
 20
208.4082960901239
 30
0.0
 40
18.39999999999999
 50
90.0000000000004
 51
100.0000000000001
  0
LINE
  5
112
  8
1
  6
CONTINUOUS
 62
     7
 10
558.8804873886633
 20
227.1364486250603
 30
0.0
 11
561.1053886426406
 21
227.5287587455486
 31
0.0
  0
ARC
  5
113
  8
1
  6
CONTINUOUS
 62
     7
 10
555.1296867510575
 20
248.4082960901238
 30
0.0
 40
21.60000000000001
 50
270.0
 51
279.9999999999997
  0
ARC
  5
114
  8
1
  6
CONTINUOUS
 62
     7
 10
564.3005151117122
 20
209.4082960901239
 30
0.0
 40
18.39999999999997
 50
90.0
 51
100.0
  0
ARC
  5
115
  8
1
  6
CONTINUOUS
 62
     7
 10
732.8794600215759
 20
228.7749627567904
 30
0.0
 40
4.833333333333409
 50
43.60281897270401
 51
136.397181027296
  0
LINE
  5
116
  8
1
  6
CONTINUOUS
 62
     7
 10
736.379460021576
 20
231.6082960901238
 30
0.0
 11
736.379460021576
 21
232.1082960901238
 31
0.0
  0
LINE
  5
117
  8
1
  6
CONTINUOUS
 62
     7
 10
729.3794600215759
 20
232.1082960901238
 30
0.0
 11
729.3794600215759
 21
231.6082960901238
 31
0.0
  0
LINE
  5
118
  8
1
  6
CONTINUOUS
 62
     7
 10
735.8794600215759
 20
230.3082960901239
 30
0.0
 11
735.8794600215759
 21
230.4082960901238
 31
0.0
  0
LINE
  5
119
  8
1
  6
CONTINUOUS
 62
     7
 10
729.8794600215759
 20
230.4082960901238
 30
0.0
 11
729.8794600215759
 21
230.3082960901239
 31
0.0
  0
ARC
  5
11A
  8
1
  6
CONTINUOUS
 62
     7
 10
747.879460021576
 20
228.7749627567904
 30
0.0
 40
4.833333333333329
 50
43.60281897270401
 51
136.397181027296
  0
LINE
  5
11B
  8
1
  6
CONTINUOUS
 62
     7
 10
751.3794600215759
 20
231.6082960901238
 30
0.0
 11
751.3794600215759
 21
232.1082960901238
 31
0.0
  0
LINE
  5
11C
  8
1
  6
CONTINUOUS
 62
     7
 10
744.3794600215759
 20
232.1082960901238
 30
0.0
 11
744.3794600215759
 21
231.6082960901238
 31
0.0
  0
LINE
  5
11D
  8
1
  6
CONTINUOUS
 62
     7
 10
750.879460021576
 20
230.3082960901238
 30
0.0
 11
750.879460021576
 21
230.4082960901238
 31
0.0
  0
LINE
  5
11E
  8
1
  6
CONTINUOUS
 62
     7
 10
744.879460021576
 20
230.4082960901238
 30
0.0
 11
744.879460021576
 21
230.3082960901238
 31
0.0
  0
ARC
  5
11F
  8
1
  6
CONTINUOUS
 62
     7
 10
547.8794600215759
 20
228.7749627567904
 30
0.0
 40
4.833333333333409
 50
43.60281897270414
 51
136.3971810272959
  0
LINE
  5
120
  8
1
  6
CONTINUOUS
 62
     7
 10
551.379460021576
 20
231.6082960901238
 30
0.0
 11
551.379460021576
 21
232.1082960901238
 31
0.0
  0
LINE
  5
121
  8
1
  6
CONTINUOUS
 62
     7
 10
544.3794600215759
 20
232.1082960901238
 30
0.0
 11
544.3794600215759
 21
231.6082960901238
 31
0.0
  0
LINE
  5
122
  8
1
  6
CONTINUOUS
 62
     7
 10
550.8794600215759
 20
230.3082960901239
 30
0.0
 11
550.8794600215759
 21
230.4082960901238
 31
0.0
  0
LINE
  5
123
  8
1
  6
CONTINUOUS
 62
     7
 10
544.8794600215759
 20
230.4082960901238
 30
0.0
 11
544.8794600215759
 21
230.3082960901239
 31
0.0
  0
LINE
  5
124
  8
1
  6
CONTINUOUS
 62
     7
 10
536.3794600215759
 20
231.6082960901238
 30
0.0
 11
536.3794600215759
 21
232.1082960901238
 31
0.0
  0
LINE
  5
125
  8
1
  6
CONTINUOUS
 62
     7
 10
529.3794600215759
 20
232.1082960901238
 30
0.0
 11
529.3794600215759
 21
231.6082960901238
 31
0.0
  0
ARC
  5
126
  8
1
  6
CONTINUOUS
 62
     7
 10
532.879460021576
 20
228.7749627567904
 30
0.0
 40
4.833333333333329
 50
43.60281897270401
 51
136.397181027296
  0
LINE
  5
127
  8
1
  6
CONTINUOUS
 62
     7
 10
535.8794600215759
 20
230.3082960901238
 30
0.0
 11
535.8794600215759
 21
230.4082960901238
 31
0.0
  0
LINE
  5
128
  8
1
  6
CONTINUOUS
 62
     7
 10
529.8794600215759
 20
230.4082960901238
 30
0.0
 11
529.8794600215759
 21
230.3082960901238
 31
0.0
  0
LINE
  5
129
  8
1
  6
CONTINUOUS
 62
     7
 10
788.194319631143
 20
242.4080771344158
 30
0.0
 11
789.4745697100589
 21
242.1823345034488
 31
0.0
  0
LINE
  5
12A
  8
1
  6
CONTINUOUS
 62
     7
 10
791.905644197396
 20
255.9696430456197
 30
0.0
 11
790.6253941184801
 21
256.1953856765867
 31
0.0
  0
LINE
  5
12B
  8
1
  6
CONTINUOUS
 62
     7
 10
796.4823866071231
 20
253.1317866512605
 30
0.0
 11
796.1769065364588
 21
253.9710862475042
 31
0.0
  0
LINE
  5
12C
  8
1
  6
CONTINUOUS
 62
     7
 10
794.171790094053
 20
242.5995058214716
 30
0.0
 11
794.7459048304539
 21
243.2837091211386
 31
0.0
  0
LINE
  5
12D
  8
1
  6
CONTINUOUS
 62
     7
 10
766.1641841916631
 20
256.7979216925254
 30
0.0
 11
766.414184191663
 21
256.3649089906331
 31
0.0
  0
LINE
  5
12E
  8
1
  6
CONTINUOUS
 62
     7
 10
778.5385398446452
 20
263.3649089906331
 30
0.0
 11
778.2885398446451
 21
263.7979216925254
 31
0.0
  0
ARC
  5
12F
  8
1
  6
CONTINUOUS
 62
     7
 10
776.501362018154
 20
252.8934044901683
 30
0.0
 40
11.05000000000005
 50
80.69235188389395
 51
159.3076481161059
  0
LINE
  5
130
  8
1
  6
CONTINUOUS
 62
     7
 10
817.9154905622382
 20
247.4227624736466
 30
0.0
 11
796.1523731373626
 21
251.2601872599789
 31
0.0
  0
LINE
  5
131
  8
1
  6
CONTINUOUS
 62
     7
 10
789.9480842933857
 20
252.3541707792807
 30
0.0
 11
787.3097296987353
 21
252.8193838789937
 31
0.0
  0
LINE
  5
132
  8
1
  6
CONTINUOUS
 62
     7
 10
787.7450522622519
 20
246.6500650944201
 30
0.0
 11
788.9061952273842
 21
246.4453242612074
 31
0.0
  0
LINE
  5
133
  8
1
  6
CONTINUOUS
 62
     7
 10
795.110484071361
 20
245.3513407419057
 30
0.0
 11
816.8736014962366
 21
241.5139159555734
 31
0.0
  0
LINE
  5
134
  8
1
  6
CONTINUOUS
 62
     7
 10
779.4021892224781
 20
248.5273075894419
 30
0.0
 11
783.1859150941614
 21
247.8601346306595
 31
0.0
  0
LINE
  5
135
  8
1
  6
CONTINUOUS
 62
     7
 10
784.0888856180294
 20
252.981134946323
 30
0.0
 11
780.3051597463461
 21
253.6483079051054
 31
0.0
  0
LINE
  5
136
  8
1
  6
CONTINUOUS
 62
     7
 10
771.8982531268297
 20
255.6662229627145
 30
0.0
 11
773.7246959683146
 21
252.5027311641421
 31
0.0
  0
LINE
  5
137
  8
1
  6
CONTINUOUS
 62
     7
 10
778.2280280679936
 20
255.1027311641421
 30
0.0
 11
776.4015852265087
 21
258.2662229627144
 31
0.0
  0
ARC
  5
138
  8
1
  6
CONTINUOUS
 62
     7
 10
780.826104279347
 20
256.602731164142
 30
0.0
 40
2.999999999999983
 50
210.0
 51
259.9999999999998
  0
ARC
  5
139
  8
1
  6
CONTINUOUS
 62
     7
 10
780.826104279347
 20
256.602731164142
 30
0.0
 40
8.199999999999921
 50
209.9999999999999
 51
259.9999999999996
  0
LINE
  5
13A
  8
1
  6
CONTINUOUS
 62
     7
 10
787.8359124928999
 20
250.0447443101913
 30
0.0
 11
786.8511047398875
 21
250.2183924878582
 31
0.0
  0
LINE
  5
13B
  8
1
  6
CONTINUOUS
 62
     7
 10
786.1565120292198
 20
246.2791614758094
 30
0.0
 11
787.1413197822321
 21
246.1055132981425
 31
0.0
  0
ARC
  5
13C
  8
1
  6
CONTINUOUS
 62
     7
 10
787.7490884040664
 20
249.5523404336852
 30
0.0
 40
0.4999999999999591
 50
349.9999999999994
 51
79.99999999999818
  0
ARC
  5
13D
  8
1
  6
CONTINUOUS
 62
     7
 10
787.2281438710655
 20
246.5979171746486
 30
0.0
 40
0.5000000000000089
 50
259.9999999999982
 51
349.9999999999994
  0
LINE
  5
13E
  8
1
  6
CONTINUOUS
 62
     7
 10
781.3199012517717
 20
260.9297674640308
 30
0.0
 11
784.8943145669618
 21
258.4269363160576
 31
0.0
  0
ENDBLK
  8
0
  0
BLOCK
  8
0
  2
D_FRAME_VIEW_1935
 70
     0
 10
0.0
 20
0.0
 30
0.0
  0
LINE
  5
143
  8
1
  6
CONTINUOUS
 62
     7
 10
746.5327857893161
 20
127.6094674915957
 30
0.0
 11
746.7558268932285
 21
127.8070058832243
 31
0.0
  0
ARC
  5
144
  8
1
  6
CONTINUOUS
 62
     7
 10
704.7110328367152
 20
107.8258477438531
 30
0.0
 40
46.55116956473997
 50
25.41870342319904
 51
31.73663469260732
  0
ARC
  5
145
  8
1
  6
CONTINUOUS
 62
     7
 10
727.0843786571085
 20
145.2601993504554
 30
0.0
 40
5.000000000000043
 50
36.84172888476828
 51
79.99999999999997
  0
ARC
  5
146
  8
1
  6
CONTINUOUS
 62
     7
 10
727.8961550602443
 20
153.8497301304975
 30
0.0
 40
0.4000000000000033
 50
36.84172888476741
 51
79.99999999999807
  0
LINE
  5
147
  8
1
  6
CONTINUOUS
 62
     7
 10
723.533979442756
 20
155.0250700312036
 30
0.0
 11
727.965614331311
 21
154.2436532317024
 31
0.0
  0
LINE
  5
148
  8
1
  6
CONTINUOUS
 62
     7
 10
728.2162730145968
 20
154.0895727774583
 30
0.0
 11
741.9657884136166
 21
135.7380960961989
 31
0.0
  0
ARC
  5
149
  8
1
  6
CONTINUOUS
 62
     7
 10
722.9088460031551
 20
151.4797621203596
 30
0.0
 40
0.4000000000000033
 50
169.9999999999998
 51
260.0000000000022
  0
LINE
  5
14A
  8
1
  6
CONTINUOUS
 62
     7
 10
735.7269516720115
 20
142.0637586690854
 30
0.0
 11
731.0858530865149
 21
148.2582324374654
 31
0.0
  0
LINE
  5
14B
  8
1
  6
CONTINUOUS
 62
     7
 10
727.9526195454432
 20
150.1842381155165
 30
0.0
 11
722.8393867320883
 21
151.0858390191547
 31
0.0
  0
ARC
  5
14C
  8
1
  6
CONTINUOUS
 62
     7
 10
723.4645201716893
 20
154.6311469299987
 30
0.0
 40
0.400000000000013
 50
80.00000000000017
 51
170.0000000000006
  0
ARC
  5
14D
  8
1
  6
CONTINUOUS
 62
     7
 10
727.0843786571085
 20
145.2601993504554
 30
0.0
 40
5.400000000000007
 50
36.84172888476837
 51
80.00000000000004
  0
ARC
  5
14E
  8
1
  6
CONTINUOUS
 62
     7
 10
704.7120614758428
 20
107.826408056136
 30
0.0
 40
46.54999999999998
 50
31.73671414186981
 51
36.84172888476832
  0
LINE
  5
14F
  8
1
  6
CONTINUOUS
 62
     7
 10
663.467214210684
 20
127.6094674915957
 30
0.0
 11
663.2441731067717
 21
127.8070058832243
 31
0.0
  0
ARC
  5
150
  8
1
  6
CONTINUOUS
 62
     7
 10
705.288967163285
 20
107.8258477438531
 30
0.0
 40
46.55116956473997
 50
148.2633653073926
 51
154.581296576801
  0
ARC
  5
151
  8
1
  6
CONTINUOUS
 62
     7
 10
682.9156213428917
 20
145.2601993504554
 30
0.0
 40
5.400000000000007
 50
99.99999999999994
 51
143.1582711152316
  0
LINE
  5
152
  8
1
  6
CONTINUOUS
 62
     7
 10
681.7837269854033
 20
154.0895727774583
 30
0.0
 11
668.0342115863835
 21
135.7380960961989
 31
0.0
  0
ARC
  5
153
  8
1
  6
CONTINUOUS
 62
     7
 10
682.1038449397558
 20
153.8497301304975
 30
0.0
 40
0.4000000000000033
 50
100.0000000000019
 51
143.1582711152326
  0
ARC
  5
154
  8
1
  6
CONTINUOUS
 62
     7
 10
686.5354798283108
 20
154.6311469299987
 30
0.0
 40
0.400000000000013
 50
9.999999999999428
 51
99.99999999999984
  0
ARC
  5
155
  8
1
  6
CONTINUOUS
 62
     7
 10
687.091153996845
 20
151.4797621203596
 30
0.0
 40
0.4000000000000033
 50
279.9999999999978
 51
10.00000000000023
  0
LINE
  5
156
  8
1
  6
CONTINUOUS
 62
     7
 10
682.0473804545569
 20
150.1842381155165
 30
0.0
 11
687.1606132679118
 21
151.0858390191547
 31
0.0
  0
ARC
  5
157
  8
1
  6
CONTINUOUS
 62
     7
 10
682.9156213428917
 20
145.2601993504554
 30
0.0
 40
5.000000000000043
 50
100.0
 51
143.1582711152317
  0
LINE
  5
158
  8
1
  6
CONTINUOUS
 62
     7
 10
674.2730483279886
 20
142.0637586690854
 30
0.0
 11
678.9141469134852
 21
148.2582324374654
 31
0.0
  0
LINE
  5
159
  8
1
  6
CONTINUOUS
 62
     7
 10
686.4660205572441
 20
155.0250700312036
 30
0.0
 11
682.0343856686891
 21
154.2436532317024
 31
0.0
  0
ARC
  5
15A
  8
1
  6
CONTINUOUS
 62
     7
 10
705.2879385241573
 20
107.826408056136
 30
0.0
 40
46.54999999999998
 50
143.1582711152317
 51
148.2632858581302
  0
LINE
  5
15B
  8
1
  6
CONTINUOUS
 62
     7
 10
680.2989862820349
 20
151.4407854798012
 30
0.0
 11
680.5994350100409
 21
151.1746903186128
 31
0.0
  0
ARC
  5
15C
  8
1
  6
CONTINUOUS
 62
     7
 10
704.7120614758429
 20
107.826408056136
 30
0.0
 40
46.14999999999995
 50
270.357481456786
 51
299.8110225008355
  0
ARC
  5
15D
  8
1
  6
CONTINUOUS
 62
     7
 10
705.2879385241572
 20
107.826408056136
 30
0.0
 40
46.14999999999993
 50
240.4534320896799
 51
269.6425185432141
  0
LINE
  5
15E
  8
1
  6
CONTINUOUS
 62
     7
 10
729.7010137179652
 20
151.4407854798012
 30
0.0
 11
729.4005649899592
 21
151.1746903186128
 31
0.0
  0
ARC
  5
15F
  8
1
  6
CONTINUOUS
 62
     7
 10
704.4044846145778
 20
175.8259953739137
 30
0.0
 40
10.09586370049854
 50
0.4759411721610338
 51
17.11201260182931
  0
ARC
  5
160
  8
1
  6
CONTINUOUS
 62
     7
 10
711.6138970587381
 20
180.342174195559
 30
0.0
 40
2.887911492575195
 50
327.6435929533628
 51
357.972159578602
  0
ARC
  5
161
  8
1
  6
CONTINUOUS
 62
     7
 10
711.7149405012544
 20
171.5088050130362
 30
0.0
 40
2.785962476926517
 50
1.458815462637221
 51
32.92543200539855
  0
ARC
  5
162
  8
1
  6
CONTINUOUS
 62
     7
 10
704.0804319112412
 20
176.0438520124371
 30
0.0
 40
10.42042962247658
 50
343.1488196457586
 51
359.2632265802507
  0
LINE
  5
163
  8
1
  6
CONTINUOUS
 62
     7
 10
714.0534180126149
 20
173.0231067833926
 30
0.0
 11
709.5
 21
173.0231067833926
 31
0.0
  0
ARC
  5
164
  8
1
  6
CONTINUOUS
 62
     7
 10
711.6138970587383
 20
171.6819201577146
 30
0.0
 40
2.887911492574978
 50
327.6435929533614
 51
357.9721595786019
  0
LINE
  5
165
  8
1
  6
CONTINUOUS
 62
     7
 10
714.0534180126149
 20
170.1363554374444
 30
0.0
 11
709.5
 21
170.1363554374444
 31
0.0
  0
LINE
  5
166
  8
1
  6
CONTINUOUS
 62
     7
 10
714.0534180126149
 20
181.6833608212369
 30
0.0
 11
709.5
 21
181.6833608212369
 31
0.0
  0
ARC
  5
167
  8
1
  6
CONTINUOUS
 62
     7
 10
711.7149405012548
 20
180.1690590508807
 30
0.0
 40
2.785962476926183
 50
1.458815462636254
 51
32.92543200540033
  0
LINE
  5
168
  8
1
  6
CONTINUOUS
 62
     7
 10
714.0534180126149
 20
178.7966094752888
 30
0.0
 11
709.5
 21
178.7966094752888
 31
0.0
  0
LINE
  5
169
  8
1
  6
CONTINUOUS
 62
     7
 10
683.6978886899203
 20
178.559800911969
 30
0.0
 11
694.4225108935859
 21
187.5588274475806
 31
0.0
  0
LINE
  5
16A
  8
1
  6
CONTINUOUS
 62
     7
 10
684.0192824947636
 20
178.1767786904095
 30
0.0
 11
694.7439046984292
 21
187.1758052260211
 31
0.0
  0
LINE
  5
16B
  8
1
  6
CONTINUOUS
 62
     7
 10
736.2909557458686
 20
178.3135914706267
 30
0.0
 11
736.2909557458685
 21
172.3135914706267
 31
0.0
  0
LINE
  5
16C
  8
1
  6
CONTINUOUS
 62
     7
 10
691.6797269259534
 20
184.6046547872749
 30
0.0
 11
691.8584963296913
 21
184.3916057081243
 31
0.0
  0
LINE
  5
16D
  8
1
  6
CONTINUOUS
 62
     7
 10
687.2622296709775
 20
180.5348800500051
 30
0.0
 11
687.0834602672395
 21
180.7479291291557
 31
0.0
  0
LINE
  5
16E
  8
1
  6
CONTINUOUS
 62
     7
 10
705.0
 20
185.8226936838361
 30
0.0
 11
708.2
 21
185.8226936838361
 31
0.0
  0
LINE
  5
16F
  8
1
  6
CONTINUOUS
 62
     7
 10
727.8961550602442
 20
153.8497301304975
 30
0.0
 11
727.3404808917101
 21
150.6983453208584
 31
0.0
  0
ARC
  5
170
  8
1
  6
CONTINUOUS
 62
     7
 10
708.2
 20
157.3226936838361
 30
0.0
 40
3.199999999999981
 50
180.0
 51
259.9999999999999
  0
LINE
  5
171
  8
1
  6
CONTINUOUS
 62
     7
 10
701.8000000000001
 20
182.1226936838361
 30
0.0
 11
701.8000000000001
 21
157.3226936838361
 31
0.0
  0
ARC
  5
172
  8
1
  6
CONTINUOUS
 62
     7
 10
698.8000000000001
 20
182.1226936838361
 30
0.0
 40
3.000000000000002
 50
0.0000000000005684
 51
130.0000000000001
  0
ARC
  5
173
  8
1
  6
CONTINUOUS
 62
     7
 10
698.8000000000001
 20
182.1226936838361
 30
0.0
 40
6.199999999999983
 50
0.0
 51
129.9999999999997
  0
ARC
  5
174
  8
1
  6
CONTINUOUS
 62
     7
 10
701.8000000000001
 20
157.3226936838361
 30
0.0
 40
3.199999999999994
 50
279.9999999999999
 51
0.0
  0
LINE
  5
175
  8
1
  6
CONTINUOUS
 62
     7
 10
681.9337705301203
 20
171.8864686243055
 30
0.0
 11
679.8768501791235
 21
174.3378108422862
 31
0.0
  0
LINE
  5
176
  8
1
  6
CONTINUOUS
 62
     7
 10
682.65951910829
 20
150.6983453208584
 30
0.0
 11
682.1038449397558
 21
153.8497301304975
 31
0.0
  0
LINE
  5
177
  8
1
  6
CONTINUOUS
 62
     7
 10
708.2
 20
168.9098581293407
 30
0.0
 11
709.5
 21
168.9098581293407
 31
0.0
  0
LINE
  5
178
  8
1
  6
CONTINUOUS
 62
     7
 10
709.5
 20
182.9098581293407
 30
0.0
 11
708.2
 21
182.9098581293407
 31
0.0
  0
LINE
  5
179
  8
1
  6
CONTINUOUS
 62
     7
 10
714.0534180126149
 20
170.1363554374444
 30
0.0
 11
714.5
 21
170.9098581293407
 31
0.0
  0
LINE
  5
17A
  8
1
  6
CONTINUOUS
 62
     7
 10
714.5
 20
180.9098581293407
 30
0.0
 11
714.0534180126149
 21
181.6833608212369
 31
0.0
  0
ARC
  5
17B
  8
1
  6
CONTINUOUS
 62
     7
 10
694.5560338545731
 20
176.5096341911075
 30
0.0
 40
11.05000000000001
 50
90.6923518838941
 51
169.3076481161059
  0
LINE
  5
17C
  8
1
  6
CONTINUOUS
 62
     7
 10
683.6978886899203
 20
178.559800911969
 30
0.0
 11
684.0192824947636
 21
178.1767786904095
 31
0.0
  0
LINE
  5
17D
  8
1
  6
CONTINUOUS
 62
     7
 10
694.7439046984293
 20
187.1758052260211
 30
0.0
 11
694.4225108935859
 21
187.5588274475806
 31
0.0
  0
LINE
  5
17E
  8
1
  6
CONTINUOUS
 62
     7
 10
736.2909557458686
 20
178.3135914706267
 30
0.0
 11
714.5
 21
178.313591470627
 31
0.0
  0
LINE
  5
17F
  8
1
  6
CONTINUOUS
 62
     7
 10
714.5
 20
172.313591470627
 30
0.0
 11
736.2909557458685
 21
172.3135914706267
 31
0.0
  0
LINE
  5
180
  8
1
  6
CONTINUOUS
 62
     7
 10
698.1709557458685
 20
172.7135914706271
 30
0.0
 11
701.8000000000001
 21
172.7135914706271
 31
0.0
  0
LINE
  5
181
  8
1
  6
CONTINUOUS
 62
     7
 10
701.8000000000001
 20
177.913591470627
 30
0.0
 11
698.1709557458685
 21
177.913591470627
 31
0.0
  0
ARC
  5
182
  8
1
  6
CONTINUOUS
 62
     7
 10
698.1709557458685
 20
180.913591470627
 30
0.0
 40
3.000000000000003
 50
220.0
 51
269.9999999999993
  0
ARC
  5
183
  8
1
  6
CONTINUOUS
 62
     7
 10
698.1709557458685
 20
180.913591470627
 30
0.0
 40
8.20000000000001
 50
219.9999999999999
 51
269.9999999999993
  0
LINE
  5
184
  8
1
  6
CONTINUOUS
 62
     7
 10
689.625567799222
 20
178.3406528758989
 30
0.0
 11
691.8893913122929
 21
175.6427330711974
 31
0.0
  0
LINE
  5
185
  8
1
  6
CONTINUOUS
 62
     7
 10
695.8728224165116
 20
178.9852286415674
 30
0.0
 11
693.6089989034407
 21
181.6831484462689
 31
0.0
  0
LINE
  5
186
  8
1
  6
CONTINUOUS
 62
     7
 10
697.6928171764959
 20
184.9108553997756
 30
0.0
 11
701.6475391896189
 21
183.0667382391822
 31
0.0
  0
ENDBLK
  8
0
  0
BLOCK
  8
0
  2
D_FRAME_VIEW_1933
 70
     0
 10
0.0
 20
0.0
 30
0.0
  0
LINE
  5
18E
  8
1
  6
CONTINUOUS
 62
     7
 10
765.3794600215766
 20
313.2
 30
0.0
 11
765.3794600215766
 21
306.8000000000001
 31
0.0
  0
LINE
  5
18F
  8
1
  6
CONTINUOUS
 62
     7
 10
515.3794600215754
 20
320.5000000000002
 30
0.0
 11
515.3794600215754
 21
299.5000000000001
 31
0.0
  0
CIRCLE
  5
190
  8
1
  6
CONTINUOUS
 62
     7
 10
732.8794600215759
 20
310.0000000000001
 30
0.0
 40
3.500000000000059
  0
CIRCLE
  5
191
  8
1
  6
CONTINUOUS
 62
     7
 10
747.879460021576
 20
310.0000000000001
 30
0.0
 40
3.499999999999948
  0
LINE
  5
192
  8
1
  6
CONTINUOUS
 62
     7
 10
765.2794600215759
 20
313.2
 30
0.0
 11
765.2794600215759
 21
306.8000000000001
 31
0.0
  0
ARC
  5
193
  8
1
  6
CONTINUOUS
 62
     7
 10
728.8794600215759
 20
315.0000000000001
 30
0.0
 40
5.000000000000004
 50
90.0
 51
180.0
  0
ARC
  5
194
  8
1
  6
CONTINUOUS
 62
     7
 10
728.8794600215759
 20
305.0000000000001
 30
0.0
 40
5.000000000000004
 50
180.0
 51
270.0
  0
LINE
  5
195
  8
1
  6
CONTINUOUS
 62
     7
 10
723.8794600215759
 20
315.0000000000001
 30
0.0
 11
723.8794600215759
 21
305.0000000000001
 31
0.0
  0
CIRCLE
  5
196
  8
1
  6
CONTINUOUS
 62
     7
 10
547.8794600215759
 20
310.0000000000001
 30
0.0
 40
3.500000000000059
  0
CIRCLE
  5
197
  8
1
  6
CONTINUOUS
 62
     7
 10
532.879460021576
 20
310.0000000000001
 30
0.0
 40
3.499999999999948
  0
LINE
  5
198
  8
1
  6
CONTINUOUS
 62
     7
 10
515.479460021576
 20
320.0000000000001
 30
0.0
 11
515.479460021576
 21
300.0000000000001
 31
0.0
  0
LINE
  5
199
  8
1
  6
CONTINUOUS
 62
     7
 10
515.479460021576
 20
300.0000000000001
 30
0.0
 11
515.6848673109082
 21
300.0000000000001
 31
0.0
  0
LINE
  5
19A
  8
1
  6
CONTINUOUS
 62
     7
 10
515.479460021576
 20
320.0000000000001
 30
0.0
 11
515.6848673109082
 21
320.0000000000001
 31
0.0
  0
ARC
  5
19B
  8
1
  6
CONTINUOUS
 62
     7
 10
551.8794600215759
 20
305.0000000000001
 30
0.0
 40
5.000000000000004
 50
270.0
 51
0.0
  0
ARC
  5
19C
  8
1
  6
CONTINUOUS
 62
     7
 10
551.8794600215759
 20
315.0000000000001
 30
0.0
 40
5.000000000000004
 50
0.0
 51
90.0
  0
LINE
  5
19D
  8
1
  6
CONTINUOUS
 62
     7
 10
556.8794600215759
 20
315.0000000000001
 30
0.0
 11
556.8794600215759
 21
305.0000000000001
 31
0.0
  0
POLYLINE
  5
19E
  8
1
  6
CONTINUOUS
 62
     7
 66
     1
 10
0.0
 20
0.0
 30
0.0
  0
VERTEX
  5
267
  8
1
  6
CONTINUOUS
 62
     7
 10
789.4098568748116
 20
303.0000000000001
 30
0.0
  0
VERTEX
  5
268
  8
1
  6
CONTINUOUS
 62
     7
 10
789.6469964271015
 20
303.1345030371774
 30
0.0
  0
VERTEX
  5
269
  8
1
  6
CONTINUOUS
 62
     7
 10
789.8750228393862
 20
303.532843272421
 30
0.0
  0
VERTEX
  5
26A
  8
1
  6
CONTINUOUS
 62
     7
 10
790.0851731845205
 20
304.1797127138822
 30
0.0
  0
VERTEX
  5
26B
  8
1
  6
CONTINUOUS
 62
     7
 10
790.2693715025944
 20
305.0502525316942
 30
0.0
  0
VERTEX
  5
26C
  8
1
  6
CONTINUOUS
 62
     7
 10
790.4205391555439
 20
306.1110083688628
 30
0.0
  0
VERTEX
  5
26D
  8
1
  6
CONTINUOUS
 62
     7
 10
790.5328668552421
 20
307.3212159734445
 30
0.0
  0
VERTEX
  5
26E
  8
1
  6
CONTINUOUS
 62
     7
 10
790.6020379111835
 20
308.6343677458872
 30
0.0
  0
VERTEX
  5
26F
  8
1
  6
CONTINUOUS
 62
     7
 10
790.6253941184801
 20
310.0000000000001
 30
0.0
  0
VERTEX
  5
270
  8
1
  6
CONTINUOUS
 62
     7
 10
790.6020379111835
 20
311.3656322541129
 30
0.0
  0
VERTEX
  5
271
  8
1
  6
CONTINUOUS
 62
     7
 10
790.5328668552421
 20
312.6787840265557
 30
0.0
  0
VERTEX
  5
272
  8
1
  6
CONTINUOUS
 62
     7
 10
790.4205391555439
 20
313.8889916311373
 30
0.0
  0
VERTEX
  5
273
  8
1
  6
CONTINUOUS
 62
     7
 10
790.2693715025944
 20
314.9497474683059
 30
0.0
  0
VERTEX
  5
274
  8
1
  6
CONTINUOUS
 62
     7
 10
790.0851731845205
 20
315.8202872861179
 30
0.0
  0
VERTEX
  5
275
  8
1
  6
CONTINUOUS
 62
     7
 10
789.8750228393862
 20
316.4671567275791
 30
0.0
  0
VERTEX
  5
276
  8
1
  6
CONTINUOUS
 62
     7
 10
789.6469964271015
 20
316.8654969628226
 30
0.0
  0
VERTEX
  5
277
  8
1
  6
CONTINUOUS
 62
     7
 10
789.4098568748116
 20
317.0000000000001
 30
0.0
  0
SEQEND
  5
533
  8
1
  6
CONTINUOUS
 62
     7
  0
POLYLINE
  5
19F
  8
1
  6
CONTINUOUS
 62
     7
 66
     1
 10
0.0
 20
0.0
 30
0.0
  0
VERTEX
  5
278
  8
1
  6
CONTINUOUS
 62
     7
 10
789.4098568748116
 20
317.0000000000001
 30
0.0
  0
VERTEX
  5
279
  8
1
  6
CONTINUOUS
 62
     7
 10
789.1827024682144
 20
316.8766849326442
 30
0.0
  0
VERTEX
  5
27A
  8
1
  6
CONTINUOUS
 62
     7
 10
788.9635513647457
 20
316.5110844751015
 30
0.0
  0
VERTEX
  5
27B
  8
1
  6
CONTINUOUS
 62
     7
 10
788.7601248881442
 20
315.9160797830997
 30
0.0
  0
VERTEX
  5
27C
  8
1
  6
CONTINUOUS
 62
     7
 10
788.579590338314
 20
315.112634583402
 30
0.0
  0
VERTEX
  5
27D
  8
1
  6
CONTINUOUS
 62
     7
 10
788.4283084667327
 20
314.1290565614135
 30
0.0
  0
VERTEX
  5
27E
  8
1
  6
CONTINUOUS
 62
     7
 10
788.3116093688814
 20
313.0000000000002
 30
0.0
  0
SEQEND
  5
534
  8
1
  6
CONTINUOUS
 62
     7
  0
POLYLINE
  5
1A0
  8
1
  6
CONTINUOUS
 62
     7
 66
     1
 10
0.0
 20
0.0
 30
0.0
  0
VERTEX
  5
27F
  8
1
  6
CONTINUOUS
 62
     7
 10
788.3116093688814
 20
307.0
 30
0.0
  0
VERTEX
  5
280
  8
1
  6
CONTINUOUS
 62
     7
 10
788.4283084667327
 20
305.8709434385866
 30
0.0
  0
VERTEX
  5
281
  8
1
  6
CONTINUOUS
 62
     7
 10
788.579590338314
 20
304.8873654165981
 30
0.0
  0
VERTEX
  5
282
  8
1
  6
CONTINUOUS
 62
     7
 10
788.7601248881442
 20
304.0839202169004
 30
0.0
  0
VERTEX
  5
283
  8
1
  6
CONTINUOUS
 62
     7
 10
788.9635513647457
 20
303.4889155248986
 30
0.0
  0
VERTEX
  5
284
  8
1
  6
CONTINUOUS
 62
     7
 10
789.1827024682144
 20
303.1233150673559
 30
0.0
  0
VERTEX
  5
285
  8
1
  6
CONTINUOUS
 62
     7
 10
789.4098568748116
 20
303.0000000000001
 30
0.0
  0
SEQEND
  5
535
  8
1
  6
CONTINUOUS
 62
     7
  0
POLYLINE
  5
1A1
  8
1
  6
CONTINUOUS
 62
     7
 66
     1
 10
0.0
 20
0.0
 30
0.0
  0
VERTEX
  5
286
  8
1
  6
CONTINUOUS
 62
     7
 10
790.6901069537274
 20
303.0000000000001
 30
0.0
  0
VERTEX
  5
287
  8
1
  6
CONTINUOUS
 62
     7
 10
790.9272465060174
 20
303.1345030371774
 30
0.0
  0
VERTEX
  5
288
  8
1
  6
CONTINUOUS
 62
     7
 10
791.1552729183021
 20
303.532843272421
 30
0.0
  0
VERTEX
  5
289
  8
1
  6
CONTINUOUS
 62
     7
 10
791.3654232634364
 20
304.1797127138822
 30
0.0
  0
VERTEX
  5
28A
  8
1
  6
CONTINUOUS
 62
     7
 10
791.5496215815102
 20
305.0502525316942
 30
0.0
  0
VERTEX
  5
28B
  8
1
  6
CONTINUOUS
 62
     7
 10
791.7007892344598
 20
306.1110083688628
 30
0.0
  0
VERTEX
  5
28C
  8
1
  6
CONTINUOUS
 62
     7
 10
791.813116934158
 20
307.3212159734445
 30
0.0
  0
VERTEX
  5
28D
  8
1
  6
CONTINUOUS
 62
     7
 10
791.8822879900994
 20
308.6343677458872
 30
0.0
  0
VERTEX
  5
28E
  8
1
  6
CONTINUOUS
 62
     7
 10
791.905644197396
 20
310.0000000000001
 30
0.0
  0
VERTEX
  5
28F
  8
1
  6
CONTINUOUS
 62
     7
 10
791.8822879900994
 20
311.3656322541129
 30
0.0
  0
VERTEX
  5
290
  8
1
  6
CONTINUOUS
 62
     7
 10
791.813116934158
 20
312.6787840265557
 30
0.0
  0
VERTEX
  5
291
  8
1
  6
CONTINUOUS
 62
     7
 10
791.7007892344598
 20
313.8889916311373
 30
0.0
  0
VERTEX
  5
292
  8
1
  6
CONTINUOUS
 62
     7
 10
791.5496215815102
 20
314.9497474683059
 30
0.0
  0
VERTEX
  5
293
  8
1
  6
CONTINUOUS
 62
     7
 10
791.3654232634364
 20
315.8202872861179
 30
0.0
  0
VERTEX
  5
294
  8
1
  6
CONTINUOUS
 62
     7
 10
791.1552729183021
 20
316.4671567275791
 30
0.0
  0
VERTEX
  5
295
  8
1
  6
CONTINUOUS
 62
     7
 10
790.9272465060174
 20
316.8654969628226
 30
0.0
  0
VERTEX
  5
296
  8
1
  6
CONTINUOUS
 62
     7
 10
790.6901069537274
 20
317.0000000000001
 30
0.0
  0
SEQEND
  5
536
  8
1
  6
CONTINUOUS
 62
     7
  0
ARC
  5
1A2
  8
1
  6
CONTINUOUS
 62
     7
 10
788.119321317334
 20
311.5677981573425
 30
0.0
 40
8.299263310345713
 50
6.449269371743369
 51
24.42835089639034
  0
ARC
  5
1A3
  8
1
  6
CONTINUOUS
 62
     7
 10
788.7415002797533
 20
311.819742317609
 30
0.0
 40
7.65484998577711
 50
346.2477463090125
 51
5.098385669701429
  0
LINE
  5
1A4
  8
1
  6
CONTINUOUS
 62
     7
 10
796.1769065364588
 20
310.0000000000001
 30
0.0
 11
791.905644197396
 21
310.0000000000001
 31
0.0
  0
ARC
  5
1A5
  8
1
  6
CONTINUOUS
 62
     7
 10
788.8549234259806
 20
308.1888396337031
 30
0.0
 40
7.542661237426241
 50
354.7601155497141
 51
13.89375247157159
  0
ARC
  5
1A6
  8
1
  6
CONTINUOUS
 62
     7
 10
787.9541129608285
 20
308.4778282247535
 30
0.0
 40
8.468593436606916
 50
335.7528401783615
 51
353.3695395535044
  0
POLYLINE
  5
1A7
  8
1
  6
CONTINUOUS
 62
     7
 66
     1
 10
0.0
 20
0.0
 30
0.0
  0
VERTEX
  5
297
  8
1
  6
CONTINUOUS
 62
     7
 10
796.3660643846907
 20
307.5000000000001
 30
0.0
  0
VERTEX
  5
298
  8
1
  6
CONTINUOUS
 62
     7
 10
796.4398918733532
 20
308.4549150281253
 30
0.0
  0
VERTEX
  5
299
  8
1
  6
CONTINUOUS
 62
     7
 10
796.4776302926914
 20
309.4773576836618
 30
0.0
  0
VERTEX
  5
29A
  8
1
  6
CONTINUOUS
 62
     7
 10
796.4776302926914
 20
310.5226423163383
 30
0.0
  0
VERTEX
  5
29B
  8
1
  6
CONTINUOUS
 62
     7
 10
796.4398918733532
 20
311.5450849718748
 30
0.0
  0
VERTEX
  5
29C
  8
1
  6
CONTINUOUS
 62
     7
 10
796.3660643846907
 20
312.5000000000001
 30
0.0
  0
SEQEND
  5
537
  8
1
  6
CONTINUOUS
 62
     7
  0
POLYLINE
  5
1A8
  8
1
  6
CONTINUOUS
 62
     7
 66
     1
 10
0.0
 20
0.0
 30
0.0
  0
VERTEX
  5
29D
  8
1
  6
CONTINUOUS
 62
     7
 10
795.8793128149823
 20
305.2388909180142
 30
0.0
  0
VERTEX
  5
29E
  8
1
  6
CONTINUOUS
 62
     7
 10
796.0262620957188
 20
305.5991449892773
 30
0.0
  0
VERTEX
  5
29F
  8
1
  6
CONTINUOUS
 62
     7
 10
796.159266721768
 20
306.1083094336525
 30
0.0
  0
VERTEX
  5
2A0
  8
1
  6
CONTINUOUS
 62
     7
 10
796.2738262566365
 20
306.7491558109383
 30
0.0
  0
VERTEX
  5
2A1
  8
1
  6
CONTINUOUS
 62
     7
 10
796.3660643846907
 20
307.5000000000001
 30
0.0
  0
SEQEND
  5
538
  8
1
  6
CONTINUOUS
 62
     7
  0
POLYLINE
  5
1A9
  8
1
  6
CONTINUOUS
 62
     7
 66
     1
 10
0.0
 20
0.0
 30
0.0
  0
VERTEX
  5
2A2
  8
1
  6
CONTINUOUS
 62
     7
 10
796.3660643846907
 20
312.5000000000001
 30
0.0
  0
VERTEX
  5
2A3
  8
1
  6
CONTINUOUS
 62
     7
 10
796.2738262566365
 20
313.2508441890618
 30
0.0
  0
VERTEX
  5
2A4
  8
1
  6
CONTINUOUS
 62
     7
 10
796.159266721768
 20
313.8916905663476
 30
0.0
  0
VERTEX
  5
2A5
  8
1
  6
CONTINUOUS
 62
     7
 10
796.0262620957188
 20
314.4008550107228
 30
0.0
  0
VERTEX
  5
2A6
  8
1
  6
CONTINUOUS
 62
     7
 10
795.8793128149823
 20
314.7611090819859
 30
0.0
  0
SEQEND
  5
539
  8
1
  6
CONTINUOUS
 62
     7
  0
POLYLINE
  5
1AA
  8
1
  6
CONTINUOUS
 62
     7
 66
     1
 10
0.0
 20
0.0
 30
0.0
  0
VERTEX
  5
2A7
  8
1
  6
CONTINUOUS
 62
     7
 10
766.164184191663
 20
310.0000000000001
 30
0.0
  0
VERTEX
  5
2A8
  8
1
  6
CONTINUOUS
 62
     7
 10
766.2806672387447
 20
308.6343677458872
 30
0.0
  0
VERTEX
  5
2A9
  8
1
  6
CONTINUOUS
 62
     7
 10
766.6256400018152
 20
307.3212159734445
 30
0.0
  0
VERTEX
  5
2AA
  8
1
  6
CONTINUOUS
 62
     7
 10
767.1858453710524
 20
306.1110083688628
 30
0.0
  0
VERTEX
  5
2AB
  8
1
  6
CONTINUOUS
 62
     7
 10
767.9397549682835
 20
305.0502525316942
 30
0.0
  0
VERTEX
  5
2AC
  8
1
  6
CONTINUOUS
 62
     7
 10
768.8583964704842
 20
304.1797127138822
 30
0.0
  0
VERTEX
  5
2AD
  8
1
  6
CONTINUOUS
 62
     7
 10
769.906466999905
 20
303.532843272421
 30
0.0
  0
VERTEX
  5
2AE
  8
1
  6
CONTINUOUS
 62
     7
 10
771.0436897938649
 20
303.1345030371774
 30
0.0
  0
VERTEX
  5
2AF
  8
1
  6
CONTINUOUS
 62
     7
 10
772.2263620181541
 20
303.0000000000001
 30
0.0
  0
SEQEND
  5
53A
  8
1
  6
CONTINUOUS
 62
     7
  0
POLYLINE
  5
1AB
  8
1
  6
CONTINUOUS
 62
     7
 66
     1
 10
0.0
 20
0.0
 30
0.0
  0
VERTEX
  5
2B0
  8
1
  6
CONTINUOUS
 62
     7
 10
772.2263620181541
 20
317.0000000000001
 30
0.0
  0
VERTEX
  5
2B1
  8
1
  6
CONTINUOUS
 62
     7
 10
771.0436897938649
 20
316.8654969628227
 30
0.0
  0
VERTEX
  5
2B2
  8
1
  6
CONTINUOUS
 62
     7
 10
769.906466999905
 20
316.4671567275791
 30
0.0
  0
VERTEX
  5
2B3
  8
1
  6
CONTINUOUS
 62
     7
 10
768.8583964704842
 20
315.8202872861179
 30
0.0
  0
VERTEX
  5
2B4
  8
1
  6
CONTINUOUS
 62
     7
 10
767.9397549682835
 20
314.9497474683059
 30
0.0
  0
VERTEX
  5
2B5
  8
1
  6
CONTINUOUS
 62
     7
 10
767.1858453710524
 20
313.8889916311373
 30
0.0
  0
VERTEX
  5
2B6
  8
1
  6
CONTINUOUS
 62
     7
 10
766.6256400018152
 20
312.6787840265557
 30
0.0
  0
VERTEX
  5
2B7
  8
1
  6
CONTINUOUS
 62
     7
 10
766.2806672387447
 20
311.365632254113
 30
0.0
  0
VERTEX
  5
2B8
  8
1
  6
CONTINUOUS
 62
     7
 10
766.164184191663
 20
310.0000000000001
 30
0.0
  0
SEQEND
  5
53B
  8
1
  6
CONTINUOUS
 62
     7
  0
POLYLINE
  5
1AC
  8
1
  6
CONTINUOUS
 62
     7
 66
     1
 10
0.0
 20
0.0
 30
0.0
  0
VERTEX
  5
2B9
  8
1
  6
CONTINUOUS
 62
     7
 10
772.2263620181541
 20
303.0000000000001
 30
0.0
  0
VERTEX
  5
2BA
  8
1
  6
CONTINUOUS
 62
     7
 10
773.4090342424432
 20
303.1345030371774
 30
0.0
  0
VERTEX
  5
2BB
  8
1
  6
CONTINUOUS
 62
     7
 10
774.5462570364032
 20
303.532843272421
 30
0.0
  0
VERTEX
  5
2BC
  8
1
  6
CONTINUOUS
 62
     7
 10
775.594327565824
 20
304.1797127138822
 30
0.0
  0
VERTEX
  5
2BD
  8
1
  6
CONTINUOUS
 62
     7
 10
776.5129690680246
 20
305.0502525316942
 30
0.0
  0
VERTEX
  5
2BE
  8
1
  6
CONTINUOUS
 62
     7
 10
777.2668786652557
 20
306.1110083688628
 30
0.0
  0
VERTEX
  5
2BF
  8
1
  6
CONTINUOUS
 62
     7
 10
777.8270840344929
 20
307.3212159734445
 30
0.0
  0
VERTEX
  5
2C0
  8
1
  6
CONTINUOUS
 62
     7
 10
778.1720567975634
 20
308.6343677458872
 30
0.0
  0
VERTEX
  5
2C1
  8
1
  6
CONTINUOUS
 62
     7
 10
778.2885398446451
 20
310.0000000000001
 30
0.0
  0
VERTEX
  5
2C2
  8
1
  6
CONTINUOUS
 62
     7
 10
778.1720567975634
 20
311.3656322541129
 30
0.0
  0
VERTEX
  5
2C3
  8
1
  6
CONTINUOUS
 62
     7
 10
777.8270840344929
 20
312.6787840265557
 30
0.0
  0
VERTEX
  5
2C4
  8
1
  6
CONTINUOUS
 62
     7
 10
777.2668786652557
 20
313.8889916311373
 30
0.0
  0
VERTEX
  5
2C5
  8
1
  6
CONTINUOUS
 62
     7
 10
776.5129690680246
 20
314.9497474683059
 30
0.0
  0
VERTEX
  5
2C6
  8
1
  6
CONTINUOUS
 62
     7
 10
775.594327565824
 20
315.8202872861179
 30
0.0
  0
VERTEX
  5
2C7
  8
1
  6
CONTINUOUS
 62
     7
 10
774.5462570364032
 20
316.4671567275791
 30
0.0
  0
VERTEX
  5
2C8
  8
1
  6
CONTINUOUS
 62
     7
 10
773.4090342424432
 20
316.8654969628227
 30
0.0
  0
VERTEX
  5
2C9
  8
1
  6
CONTINUOUS
 62
     7
 10
772.2263620181541
 20
317.0000000000001
 30
0.0
  0
SEQEND
  5
53C
  8
1
  6
CONTINUOUS
 62
     7
  0
POLYLINE
  5
1AD
  8
1
  6
CONTINUOUS
 62
     7
 66
     1
 10
0.0
 20
0.0
 30
0.0
  0
VERTEX
  5
2CA
  8
1
  6
CONTINUOUS
 62
     7
 10
772.4763620181542
 20
303.0000000000001
 30
0.0
  0
VERTEX
  5
2CB
  8
1
  6
CONTINUOUS
 62
     7
 10
773.6590342424433
 20
303.1345030371774
 30
0.0
  0
VERTEX
  5
2CC
  8
1
  6
CONTINUOUS
 62
     7
 10
774.7962570364033
 20
303.532843272421
 30
0.0
  0
VERTEX
  5
2CD
  8
1
  6
CONTINUOUS
 62
     7
 10
775.8443275658241
 20
304.1797127138822
 30
0.0
  0
VERTEX
  5
2CE
  8
1
  6
CONTINUOUS
 62
     7
 10
776.7629690680247
 20
305.0502525316942
 30
0.0
  0
VERTEX
  5
2CF
  8
1
  6
CONTINUOUS
 62
     7
 10
777.5168786652558
 20
306.1110083688628
 30
0.0
  0
VERTEX
  5
2D0
  8
1
  6
CONTINUOUS
 62
     7
 10
778.077084034493
 20
307.3212159734445
 30
0.0
  0
VERTEX
  5
2D1
  8
1
  6
CONTINUOUS
 62
     7
 10
778.4220567975635
 20
308.6343677458872
 30
0.0
  0
VERTEX
  5
2D2
  8
1
  6
CONTINUOUS
 62
     7
 10
778.5385398446452
 20
310.0000000000001
 30
0.0
  0
VERTEX
  5
2D3
  8
1
  6
CONTINUOUS
 62
     7
 10
778.4220567975635
 20
311.3656322541129
 30
0.0
  0
VERTEX
  5
2D4
  8
1
  6
CONTINUOUS
 62
     7
 10
778.077084034493
 20
312.6787840265557
 30
0.0
  0
VERTEX
  5
2D5
  8
1
  6
CONTINUOUS
 62
     7
 10
777.5168786652558
 20
313.8889916311373
 30
0.0
  0
VERTEX
  5
2D6
  8
1
  6
CONTINUOUS
 62
     7
 10
776.7629690680247
 20
314.9497474683059
 30
0.0
  0
VERTEX
  5
2D7
  8
1
  6
CONTINUOUS
 62
     7
 10
775.8443275658241
 20
315.8202872861179
 30
0.0
  0
VERTEX
  5
2D8
  8
1
  6
CONTINUOUS
 62
     7
 10
774.7962570364033
 20
316.4671567275791
 30
0.0
  0
VERTEX
  5
2D9
  8
1
  6
CONTINUOUS
 62
     7
 10
773.6590342424433
 20
316.8654969628227
 30
0.0
  0
VERTEX
  5
2DA
  8
1
  6
CONTINUOUS
 62
     7
 10
772.4763620181542
 20
317.0000000000001
 30
0.0
  0
SEQEND
  5
53D
  8
1
  6
CONTINUOUS
 62
     7
  0
POLYLINE
  5
1AE
  8
1
  6
CONTINUOUS
 62
     7
 66
     1
 10
0.0
 20
0.0
 30
0.0
  0
VERTEX
  5
2DB
  8
1
  6
CONTINUOUS
 62
     7
 10
817.9154905622382
 20
310.0000000000001
 30
0.0
  0
VERTEX
  5
2DC
  8
1
  6
CONTINUOUS
 62
     7
 10
817.9054807591111
 20
310.5852709660484
 30
0.0
  0
VERTEX
  5
2DD
  8
1
  6
CONTINUOUS
 62
     7
 10
817.8758360208506
 20
311.1480502970953
 30
0.0
  0
VERTEX
  5
2DE
  8
1
  6
CONTINUOUS
 62
     7
 10
817.8276955781228
 20
311.6667106990589
 30
0.0
  0
VERTEX
  5
2DF
  8
1
  6
CONTINUOUS
 62
     7
 10
817.7629094411443
 20
312.1213203435597
 30
0.0
  0
VERTEX
  5
2E0
  8
1
  6
CONTINUOUS
 62
     7
 10
817.683967304827
 20
312.4944088369077
 30
0.0
  0
VERTEX
  5
2E1
  8
1
  6
CONTINUOUS
 62
     7
 10
817.593902871198
 20
312.7716385975339
 30
0.0
  0
VERTEX
  5
2E2
  8
1
  6
CONTINUOUS
 62
     7
 10
817.496177265933
 20
312.9423558412097
 30
0.0
  0
VERTEX
  5
2E3
  8
1
  6
CONTINUOUS
 62
     7
 10
817.3945460292374
 20
313.0000000000001
 30
0.0
  0
SEQEND
  5
53E
  8
1
  6
CONTINUOUS
 62
     7
  0
POLYLINE
  5
1AF
  8
1
  6
CONTINUOUS
 62
     7
 66
     1
 10
0.0
 20
0.0
 30
0.0
  0
VERTEX
  5
2E4
  8
1
  6
CONTINUOUS
 62
     7
 10
817.3945460292374
 20
307.0000000000001
 30
0.0
  0
VERTEX
  5
2E5
  8
1
  6
CONTINUOUS
 62
     7
 10
817.496177265933
 20
307.0576441587904
 30
0.0
  0
VERTEX
  5
2E6
  8
1
  6
CONTINUOUS
 62
     7
 10
817.593902871198
 20
307.2283614024662
 30
0.0
  0
VERTEX
  5
2E7
  8
1
  6
CONTINUOUS
 62
     7
 10
817.683967304827
 20
307.5055911630924
 30
0.0
  0
VERTEX
  5
2E8
  8
1
  6
CONTINUOUS
 62
     7
 10
817.7629094411443
 20
307.8786796564404
 30
0.0
  0
VERTEX
  5
2E9
  8
1
  6
CONTINUOUS
 62
     7
 10
817.8276955781228
 20
308.3332893009413
 30
0.0
  0
VERTEX
  5
2EA
  8
1
  6
CONTINUOUS
 62
     7
 10
817.8758360208506
 20
308.8519497029048
 30
0.0
  0
VERTEX
  5
2EB
  8
1
  6
CONTINUOUS
 62
     7
 10
817.9054807591111
 20
309.4147290339517
 30
0.0
  0
VERTEX
  5
2EC
  8
1
  6
CONTINUOUS
 62
     7
 10
817.9154905622382
 20
310.0000000000001
 30
0.0
  0
SEQEND
  5
53F
  8
1
  6
CONTINUOUS
 62
     7
  0
POLYLINE
  5
1B0
  8
1
  6
CONTINUOUS
 62
     7
 66
     1
 10
0.0
 20
0.0
 30
0.0
  0
VERTEX
  5
2ED
  8
1
  6
CONTINUOUS
 62
     7
 10
492.0845094377617
 20
296.0000000000001
 30
0.0
  0
VERTEX
  5
2EE
  8
1
  6
CONTINUOUS
 62
     7
 10
492.0945192408888
 20
295.4147290339517
 30
0.0
  0
VERTEX
  5
2EF
  8
1
  6
CONTINUOUS
 62
     7
 10
492.1241639791494
 20
294.8519497029048
 30
0.0
  0
VERTEX
  5
2F0
  8
1
  6
CONTINUOUS
 62
     7
 10
492.1723044218772
 20
294.3332893009413
 30
0.0
  0
VERTEX
  5
2F1
  8
1
  6
CONTINUOUS
 62
     7
 10
492.2370905588556
 20
293.8786796564404
 30
0.0
  0
VERTEX
  5
2F2
  8
1
  6
CONTINUOUS
 62
     7
 10
492.316032695173
 20
293.5055911630924
 30
0.0
  0
VERTEX
  5
2F3
  8
1
  6
CONTINUOUS
 62
     7
 10
492.4060971288019
 20
293.2283614024662
 30
0.0
  0
VERTEX
  5
2F4
  8
1
  6
CONTINUOUS
 62
     7
 10
492.5038227340668
 20
293.0576441587904
 30
0.0
  0
VERTEX
  5
2F5
  8
1
  6
CONTINUOUS
 62
     7
 10
492.6054539707625
 20
293.0000000000001
 30
0.0
  0
SEQEND
  5
540
  8
1
  6
CONTINUOUS
 62
     7
  0
POLYLINE
  5
1B1
  8
1
  6
CONTINUOUS
 62
     7
 66
     1
 10
0.0
 20
0.0
 30
0.0
  0
VERTEX
  5
2F6
  8
1
  6
CONTINUOUS
 62
     7
 10
495.2358942474007
 20
296.0000000000001
 30
0.0
  0
VERTEX
  5
2F7
  8
1
  6
CONTINUOUS
 62
     7
 10
495.2459040505278
 20
295.4147290339517
 30
0.0
  0
VERTEX
  5
2F8
  8
1
  6
CONTINUOUS
 62
     7
 10
495.2755487887885
 20
294.8519497029048
 30
0.0
  0
VERTEX
  5
2F9
  8
1
  6
CONTINUOUS
 62
     7
 10
495.3236892315163
 20
294.3332893009413
 30
0.0
  0
VERTEX
  5
2FA
  8
1
  6
CONTINUOUS
 62
     7
 10
495.3884753684946
 20
293.8786796564404
 30
0.0
  0
VERTEX
  5
2FB
  8
1
  6
CONTINUOUS
 62
     7
 10
495.467417504812
 20
293.5055911630924
 30
0.0
  0
VERTEX
  5
2FC
  8
1
  6
CONTINUOUS
 62
     7
 10
495.557481938441
 20
293.2283614024662
 30
0.0
  0
VERTEX
  5
2FD
  8
1
  6
CONTINUOUS
 62
     7
 10
495.6552075437059
 20
293.0576441587904
 30
0.0
  0
VERTEX
  5
2FE
  8
1
  6
CONTINUOUS
 62
     7
 10
495.7568387804016
 20
293.0000000000001
 30
0.0
  0
SEQEND
  5
541
  8
1
  6
CONTINUOUS
 62
     7
  0
POLYLINE
  5
1B2
  8
1
  6
CONTINUOUS
 62
     7
 66
     1
 10
0.0
 20
0.0
 30
0.0
  0
VERTEX
  5
2FF
  8
1
  6
CONTINUOUS
 62
     7
 10
497.4064964682374
 20
323.7500000000001
 30
0.0
  0
VERTEX
  5
300
  8
1
  6
CONTINUOUS
 62
     7
 10
497.3133345012664
 20
323.697159521109
 30
0.0
  0
VERTEX
  5
301
  8
1
  6
CONTINUOUS
 62
     7
 10
497.2237526964402
 20
323.5406687144061
 30
0.0
  0
VERTEX
  5
302
  8
1
  6
CONTINUOUS
 62
     7
 10
497.1411936322804
 20
323.2865414338321
 30
0.0
  0
VERTEX
  5
303
  8
1
  6
CONTINUOUS
 62
     7
 10
497.0688300073227
 20
322.9445436482631
 30
0.0
  0
VERTEX
  5
304
  8
1
  6
CONTINUOUS
 62
     7
 10
497.0094427150926
 20
322.527818140804
 30
0.0
  0
VERTEX
  5
305
  8
1
  6
CONTINUOUS
 62
     7
 10
496.9653139759254
 20
322.0523794390041
 30
0.0
  0
VERTEX
  5
306
  8
1
  6
CONTINUOUS
 62
     7
 10
496.9381396325198
 20
321.5364983855444
 30
0.0
  0
VERTEX
  5
307
  8
1
  6
CONTINUOUS
 62
     7
 10
496.9289639796534
 20
321.0000000000001
 30
0.0
  0
SEQEND
  5
542
  8
1
  6
CONTINUOUS
 62
     7
  0
POLYLINE
  5
1B3
  8
1
  6
CONTINUOUS
 62
     7
 66
     1
 10
0.0
 20
0.0
 30
0.0
  0
VERTEX
  5
308
  8
1
  6
CONTINUOUS
 62
     7
 10
499.0302351792351
 20
302.6689011017642
 30
0.0
  0
VERTEX
  5
309
  8
1
  6
CONTINUOUS
 62
     7
 10
499.0437728904262
 20
302.5975490669421
 30
0.0
  0
VERTEX
  5
30A
  8
1
  6
CONTINUOUS
 62
     7
 10
499.0596123956292
 20
302.5441768714085
 30
0.0
  0
VERTEX
  5
30B
  8
1
  6
CONTINUOUS
 62
     7
 10
499.0770460514158
 20
302.5111689636001
 30
0.0
  0
VERTEX
  5
30C
  8
1
  6
CONTINUOUS
 62
     7
 10
499.0952949943185
 20
302.5000000000001
 30
0.0
  0
SEQEND
  5
543
  8
1
  6
CONTINUOUS
 62
     7
  0
LINE
  5
1B4
  8
1
  6
CONTINUOUS
 62
     7
 10
499.0952949943185
 20
302.5000000000001
 30
0.0
 11
500.1848673109083
 21
302.5000000000001
 31
0.0
  0
LINE
  5
1B5
  8
1
  6
CONTINUOUS
 62
     7
 10
500.1848673109083
 20
293.0000000000001
 30
0.0
 11
500.1848673109083
 21
302.5000000000001
 31
0.0
  0
LINE
  5
1B6
  8
1
  6
CONTINUOUS
 62
     7
 10
495.2358942474008
 20
296.0000000000001
 30
0.0
 11
495.2358942474008
 21
324.0000000000001
 31
0.0
  0
POLYLINE
  5
1B7
  8
1
  6
CONTINUOUS
 62
     7
 66
     1
 10
0.0
 20
0.0
 30
0.0
  0
VERTEX
  5
30D
  8
1
  6
CONTINUOUS
 62
     7
 10
495.7568387804016
 20
327.0000000000001
 30
0.0
  0
VERTEX
  5
30E
  8
1
  6
CONTINUOUS
 62
     7
 10
495.6552075437059
 20
326.9423558412097
 30
0.0
  0
VERTEX
  5
30F
  8
1
  6
CONTINUOUS
 62
     7
 10
495.557481938441
 20
326.7716385975339
 30
0.0
  0
VERTEX
  5
310
  8
1
  6
CONTINUOUS
 62
     7
 10
495.467417504812
 20
326.4944088369077
 30
0.0
  0
VERTEX
  5
311
  8
1
  6
CONTINUOUS
 62
     7
 10
495.3884753684946
 20
326.1213203435597
 30
0.0
  0
VERTEX
  5
312
  8
1
  6
CONTINUOUS
 62
     7
 10
495.3236892315163
 20
325.6667106990589
 30
0.0
  0
VERTEX
  5
313
  8
1
  6
CONTINUOUS
 62
     7
 10
495.2755487887885
 20
325.1480502970953
 30
0.0
  0
VERTEX
  5
314
  8
1
  6
CONTINUOUS
 62
     7
 10
495.2459040505278
 20
324.5852709660484
 30
0.0
  0
VERTEX
  5
315
  8
1
  6
CONTINUOUS
 62
     7
 10
495.2358942474007
 20
324.0000000000001
 30
0.0
  0
SEQEND
  5
544
  8
1
  6
CONTINUOUS
 62
     7
  0
LINE
  5
1B8
  8
1
  6
CONTINUOUS
 62
     7
 10
500.1848673109083
 20
327.0000000000001
 30
0.0
 11
500.1848673109083
 21
317.5000000000001
 31
0.0
  0
LINE
  5
1B9
  8
1
  6
CONTINUOUS
 62
     7
 10
499.0952949943185
 20
317.5000000000001
 30
0.0
 11
500.1848673109083
 21
317.5000000000001
 31
0.0
  0
POLYLINE
  5
1BA
  8
1
  6
CONTINUOUS
 62
     7
 66
     1
 10
0.0
 20
0.0
 30
0.0
  0
VERTEX
  5
316
  8
1
  6
CONTINUOUS
 62
     7
 10
499.0952949943185
 20
317.5000000000001
 30
0.0
  0
VERTEX
  5
317
  8
1
  6
CONTINUOUS
 62
     7
 10
499.0770460514158
 20
317.4888310364
 30
0.0
  0
VERTEX
  5
318
  8
1
  6
CONTINUOUS
 62
     7
 10
499.0596123956292
 20
317.4558231285916
 30
0.0
  0
VERTEX
  5
319
  8
1
  6
CONTINUOUS
 62
     7
 10
499.0437728904262
 20
317.402450933058
 30
0.0
  0
VERTEX
  5
31A
  8
1
  6
CONTINUOUS
 62
     7
 10
499.0302351792351
 20
317.331098898236
 30
0.0
  0
SEQEND
  5
545
  8
1
  6
CONTINUOUS
 62
     7
  0
LINE
  5
1BB
  8
1
  6
CONTINUOUS
 62
     7
 10
498.422210057777
 20
313.3689011017642
 30
0.0
 11
499.0302351792351
 21
317.3310988982359
 31
0.0
  0
POLYLINE
  5
1BC
  8
1
  6
CONTINUOUS
 62
     7
 66
     1
 10
0.0
 20
0.0
 30
0.0
  0
VERTEX
  5
31B
  8
1
  6
CONTINUOUS
 62
     7
 10
498.3571502426936
 20
313.2
 30
0.0
  0
VERTEX
  5
31C
  8
1
  6
CONTINUOUS
 62
     7
 10
498.3753991855963
 20
313.2111689636001
 30
0.0
  0
VERTEX
  5
31D
  8
1
  6
CONTINUOUS
 62
     7
 10
498.3928328413829
 20
313.2441768714085
 30
0.0
  0
VERTEX
  5
31E
  8
1
  6
CONTINUOUS
 62
     7
 10
498.4086723465859
 20
313.2975490669421
 30
0.0
  0
VERTEX
  5
31F
  8
1
  6
CONTINUOUS
 62
     7
 10
498.422210057777
 20
313.3689011017642
 30
0.0
  0
SEQEND
  5
546
  8
1
  6
CONTINUOUS
 62
     7
  0
LINE
  5
1BD
  8
1
  6
CONTINUOUS
 62
     7
 10
496.6077148509696
 20
313.2
 30
0.0
 11
498.3571502426936
 21
313.2
 31
0.0
  0
POLYLINE
  5
1BE
  8
1
  6
CONTINUOUS
 62
     7
 66
     1
 10
0.0
 20
0.0
 30
0.0
  0
VERTEX
  5
320
  8
1
  6
CONTINUOUS
 62
     7
 10
496.6077148509696
 20
313.2
 30
0.0
  0
VERTEX
  5
321
  8
1
  6
CONTINUOUS
 62
     7
 10
496.4993081984942
 20
313.1385128972904
 30
0.0
  0
VERTEX
  5
322
  8
1
  6
CONTINUOUS
 62
     7
 10
496.3950675528783
 20
312.9564145040362
 30
0.0
  0
VERTEX
  5
323
  8
1
  6
CONTINUOUS
 62
     7
 10
496.298998823674
 20
312.6607027593682
 30
0.0
  0
VERTEX
  5
324
  8
1
  6
CONTINUOUS
 62
     7
 10
496.2147938782688
 20
312.262741699797
 30
0.0
  0
VERTEX
  5
325
  8
1
  6
CONTINUOUS
 62
     7
 10
496.1456886654919
 20
311.7778247456628
 30
0.0
  0
VERTEX
  5
326
  8
1
  6
CONTINUOUS
 62
     7
 10
496.0943388599156
 20
311.2245869835683
 30
0.0
  0
VERTEX
  5
327
  8
1
  6
CONTINUOUS
 62
     7
 10
496.0627178057709
 20
310.6242890304517
 30
0.0
  0
VERTEX
  5
328
  8
1
  6
CONTINUOUS
 62
     7
 10
496.0520406824354
 20
310.0000000000001
 30
0.0
  0
VERTEX
  5
329
  8
1
  6
CONTINUOUS
 62
     7
 10
496.0627178057709
 20
309.3757109695484
 30
0.0
  0
VERTEX
  5
32A
  8
1
  6
CONTINUOUS
 62
     7
 10
496.0943388599156
 20
308.7754130164318
 30
0.0
  0
VERTEX
  5
32B
  8
1
  6
CONTINUOUS
 62
     7
 10
496.1456886654919
 20
308.2221752543373
 30
0.0
  0
VERTEX
  5
32C
  8
1
  6
CONTINUOUS
 62
     7
 10
496.2147938782688
 20
307.7372583002031
 30
0.0
  0
VERTEX
  5
32D
  8
1
  6
CONTINUOUS
 62
     7
 10
496.298998823674
 20
307.3392972406319
 30
0.0
  0
VERTEX
  5
32E
  8
1
  6
CONTINUOUS
 62
     7
 10
496.3950675528783
 20
307.043585495964
 30
0.0
  0
VERTEX
  5
32F
  8
1
  6
CONTINUOUS
 62
     7
 10
496.4993081984942
 20
306.8614871027098
 30
0.0
  0
VERTEX
  5
330
  8
1
  6
CONTINUOUS
 62
     7
 10
496.6077148509696
 20
306.8000000000001
 30
0.0
  0
SEQEND
  5
547
  8
1
  6
CONTINUOUS
 62
     7
  0
LINE
  5
1BF
  8
1
  6
CONTINUOUS
 62
     7
 10
496.6077148509696
 20
306.8000000000001
 30
0.0
 11
498.3571502426936
 21
306.8000000000001
 31
0.0
  0
POLYLINE
  5
1C0
  8
1
  6
CONTINUOUS
 62
     7
 66
     1
 10
0.0
 20
0.0
 30
0.0
  0
VERTEX
  5
331
  8
1
  6
CONTINUOUS
 62
     7
 10
498.422210057777
 20
306.631098898236
 30
0.0
  0
VERTEX
  5
332
  8
1
  6
CONTINUOUS
 62
     7
 10
498.4086723465859
 20
306.702450933058
 30
0.0
  0
VERTEX
  5
333
  8
1
  6
CONTINUOUS
 62
     7
 10
498.3928328413829
 20
306.7558231285916
 30
0.0
  0
VERTEX
  5
334
  8
1
  6
CONTINUOUS
 62
     7
 10
498.3753991855963
 20
306.7888310364
 30
0.0
  0
VERTEX
  5
335
  8
1
  6
CONTINUOUS
 62
     7
 10
498.3571502426936
 20
306.8000000000001
 30
0.0
  0
SEQEND
  5
548
  8
1
  6
CONTINUOUS
 62
     7
  0
LINE
  5
1C1
  8
1
  6
CONTINUOUS
 62
     7
 10
498.422210057777
 20
306.6310988982359
 30
0.0
 11
499.0302351792351
 21
302.6689011017642
 31
0.0
  0
POLYLINE
  5
1C2
  8
1
  6
CONTINUOUS
 62
     7
 66
     1
 10
0.0
 20
0.0
 30
0.0
  0
VERTEX
  5
336
  8
1
  6
CONTINUOUS
 62
     7
 10
496.9289639796534
 20
299.0000000000001
 30
0.0
  0
VERTEX
  5
337
  8
1
  6
CONTINUOUS
 62
     7
 10
496.9381396325198
 20
298.4635016144557
 30
0.0
  0
VERTEX
  5
338
  8
1
  6
CONTINUOUS
 62
     7
 10
496.9653139759254
 20
297.947620560996
 30
0.0
  0
VERTEX
  5
339
  8
1
  6
CONTINUOUS
 62
     7
 10
497.0094427150926
 20
297.4721818591962
 30
0.0
  0
VERTEX
  5
33A
  8
1
  6
CONTINUOUS
 62
     7
 10
497.0688300073227
 20
297.055456351737
 30
0.0
  0
VERTEX
  5
33B
  8
1
  6
CONTINUOUS
 62
     7
 10
497.1411936322804
 20
296.713458566168
 30
0.0
  0
VERTEX
  5
33C
  8
1
  6
CONTINUOUS
 62
     7
 10
497.2237526964402
 20
296.459331285594
 30
0.0
  0
VERTEX
  5
33D
  8
1
  6
CONTINUOUS
 62
     7
 10
497.3133345012664
 20
296.3028404788911
 30
0.0
  0
VERTEX
  5
33E
  8
1
  6
CONTINUOUS
 62
     7
 10
497.4064964682374
 20
296.25
 30
0.0
  0
SEQEND
  5
549
  8
1
  6
CONTINUOUS
 62
     7
  0
POLYLINE
  5
1C3
  8
1
  6
CONTINUOUS
 62
     7
 66
     1
 10
0.0
 20
0.0
 30
0.0
  0
VERTEX
  5
33F
  8
1
  6
CONTINUOUS
 62
     7
 10
492.6054539707625
 20
327.0000000000001
 30
0.0
  0
VERTEX
  5
340
  8
1
  6
CONTINUOUS
 62
     7
 10
492.5038227340668
 20
326.9423558412097
 30
0.0
  0
VERTEX
  5
341
  8
1
  6
CONTINUOUS
 62
     7
 10
492.4060971288019
 20
326.7716385975339
 30
0.0
  0
VERTEX
  5
342
  8
1
  6
CONTINUOUS
 62
     7
 10
492.316032695173
 20
326.4944088369077
 30
0.0
  0
VERTEX
  5
343
  8
1
  6
CONTINUOUS
 62
     7
 10
492.2370905588556
 20
326.1213203435597
 30
0.0
  0
VERTEX
  5
344
  8
1
  6
CONTINUOUS
 62
     7
 10
492.1723044218772
 20
325.6667106990589
 30
0.0
  0
VERTEX
  5
345
  8
1
  6
CONTINUOUS
 62
     7
 10
492.1241639791494
 20
325.1480502970953
 30
0.0
  0
VERTEX
  5
346
  8
1
  6
CONTINUOUS
 62
     7
 10
492.0945192408888
 20
324.5852709660484
 30
0.0
  0
VERTEX
  5
347
  8
1
  6
CONTINUOUS
 62
     7
 10
492.0845094377617
 20
324.0000000000001
 30
0.0
  0
SEQEND
  5
54A
  8
1
  6
CONTINUOUS
 62
     7
  0
LINE
  5
1C4
  8
1
  6
CONTINUOUS
 62
     7
 10
492.0845094377617
 20
296.0000000000001
 30
0.0
 11
492.0845094377617
 21
324.0000000000001
 31
0.0
  0
POLYLINE
  5
1C5
  8
1
  6
CONTINUOUS
 62
     7
 66
     1
 10
0.0
 20
0.0
 30
0.0
  0
VERTEX
  5
348
  8
1
  6
CONTINUOUS
 62
     7
 10
496.9289639796534
 20
321.0000000000001
 30
0.0
  0
VERTEX
  5
349
  8
1
  6
CONTINUOUS
 62
     7
 10
496.9381396325198
 20
320.4635016144557
 30
0.0
  0
VERTEX
  5
34A
  8
1
  6
CONTINUOUS
 62
     7
 10
496.9653139759254
 20
319.947620560996
 30
0.0
  0
VERTEX
  5
34B
  8
1
  6
CONTINUOUS
 62
     7
 10
497.0094427150926
 20
319.4721818591962
 30
0.0
  0
VERTEX
  5
34C
  8
1
  6
CONTINUOUS
 62
     7
 10
497.0688300073227
 20
319.055456351737
 30
0.0
  0
VERTEX
  5
34D
  8
1
  6
CONTINUOUS
 62
     7
 10
497.1411936322804
 20
318.713458566168
 30
0.0
  0
VERTEX
  5
34E
  8
1
  6
CONTINUOUS
 62
     7
 10
497.2237526964402
 20
318.459331285594
 30
0.0
  0
VERTEX
  5
34F
  8
1
  6
CONTINUOUS
 62
     7
 10
497.3133345012664
 20
318.3028404788911
 30
0.0
  0
VERTEX
  5
350
  8
1
  6
CONTINUOUS
 62
     7
 10
497.4064964682374
 20
318.25
 30
0.0
  0
SEQEND
  5
54B
  8
1
  6
CONTINUOUS
 62
     7
  0
POLYLINE
  5
1C6
  8
1
  6
CONTINUOUS
 62
     7
 66
     1
 10
0.0
 20
0.0
 30
0.0
  0
VERTEX
  5
351
  8
1
  6
CONTINUOUS
 62
     7
 10
497.4064964682374
 20
318.25
 30
0.0
  0
VERTEX
  5
352
  8
1
  6
CONTINUOUS
 62
     7
 10
497.4996584352085
 20
318.3028404788911
 30
0.0
  0
VERTEX
  5
353
  8
1
  6
CONTINUOUS
 62
     7
 10
497.5892402400347
 20
318.459331285594
 30
0.0
  0
VERTEX
  5
354
  8
1
  6
CONTINUOUS
 62
     7
 10
497.6717993041945
 20
318.713458566168
 30
0.0
  0
VERTEX
  5
355
  8
1
  6
CONTINUOUS
 62
     7
 10
497.7441629291521
 20
319.055456351737
 30
0.0
  0
VERTEX
  5
356
  8
1
  6
CONTINUOUS
 62
     7
 10
497.8035502213823
 20
319.4721818591962
 30
0.0
  0
VERTEX
  5
357
  8
1
  6
CONTINUOUS
 62
     7
 10
497.8476789605494
 20
319.947620560996
 30
0.0
  0
VERTEX
  5
358
  8
1
  6
CONTINUOUS
 62
     7
 10
497.874853303955
 20
320.4635016144557
 30
0.0
  0
VERTEX
  5
359
  8
1
  6
CONTINUOUS
 62
     7
 10
497.8840289568215
 20
321.0000000000001
 30
0.0
  0
VERTEX
  5
35A
  8
1
  6
CONTINUOUS
 62
     7
 10
497.874853303955
 20
321.5364983855444
 30
0.0
  0
VERTEX
  5
35B
  8
1
  6
CONTINUOUS
 62
     7
 10
497.8476789605494
 20
322.0523794390041
 30
0.0
  0
VERTEX
  5
35C
  8
1
  6
CONTINUOUS
 62
     7
 10
497.8035502213823
 20
322.527818140804
 30
0.0
  0
VERTEX
  5
35D
  8
1
  6
CONTINUOUS
 62
     7
 10
497.7441629291521
 20
322.9445436482631
 30
0.0
  0
VERTEX
  5
35E
  8
1
  6
CONTINUOUS
 62
     7
 10
497.6717993041945
 20
323.2865414338321
 30
0.0
  0
VERTEX
  5
35F
  8
1
  6
CONTINUOUS
 62
     7
 10
497.5892402400347
 20
323.5406687144061
 30
0.0
  0
VERTEX
  5
360
  8
1
  6
CONTINUOUS
 62
     7
 10
497.4996584352085
 20
323.697159521109
 30
0.0
  0
VERTEX
  5
361
  8
1
  6
CONTINUOUS
 62
     7
 10
497.4064964682374
 20
323.7500000000001
 30
0.0
  0
SEQEND
  5
54C
  8
1
  6
CONTINUOUS
 62
     7
  0
POLYLINE
  5
1C7
  8
1
  6
CONTINUOUS
 62
     7
 66
     1
 10
0.0
 20
0.0
 30
0.0
  0
VERTEX
  5
362
  8
1
  6
CONTINUOUS
 62
     7
 10
497.4064964682374
 20
301.7500000000001
 30
0.0
  0
VERTEX
  5
363
  8
1
  6
CONTINUOUS
 62
     7
 10
497.3133345012664
 20
301.697159521109
 30
0.0
  0
VERTEX
  5
364
  8
1
  6
CONTINUOUS
 62
     7
 10
497.2237526964402
 20
301.5406687144061
 30
0.0
  0
VERTEX
  5
365
  8
1
  6
CONTINUOUS
 62
     7
 10
497.1411936322804
 20
301.2865414338321
 30
0.0
  0
VERTEX
  5
366
  8
1
  6
CONTINUOUS
 62
     7
 10
497.0688300073227
 20
300.9445436482631
 30
0.0
  0
VERTEX
  5
367
  8
1
  6
CONTINUOUS
 62
     7
 10
497.0094427150926
 20
300.527818140804
 30
0.0
  0
VERTEX
  5
368
  8
1
  6
CONTINUOUS
 62
     7
 10
496.9653139759254
 20
300.0523794390041
 30
0.0
  0
VERTEX
  5
369
  8
1
  6
CONTINUOUS
 62
     7
 10
496.9381396325198
 20
299.5364983855444
 30
0.0
  0
VERTEX
  5
36A
  8
1
  6
CONTINUOUS
 62
     7
 10
496.9289639796534
 20
299.0000000000001
 30
0.0
  0
SEQEND
  5
54D
  8
1
  6
CONTINUOUS
 62
     7
  0
POLYLINE
  5
1C8
  8
1
  6
CONTINUOUS
 62
     7
 66
     1
 10
0.0
 20
0.0
 30
0.0
  0
VERTEX
  5
36B
  8
1
  6
CONTINUOUS
 62
     7
 10
497.4064964682374
 20
296.25
 30
0.0
  0
VERTEX
  5
36C
  8
1
  6
CONTINUOUS
 62
     7
 10
497.4996584352085
 20
296.3028404788911
 30
0.0
  0
VERTEX
  5
36D
  8
1
  6
CONTINUOUS
 62
     7
 10
497.5892402400347
 20
296.459331285594
 30
0.0
  0
VERTEX
  5
36E
  8
1
  6
CONTINUOUS
 62
     7
 10
497.6717993041945
 20
296.713458566168
 30
0.0
  0
VERTEX
  5
36F
  8
1
  6
CONTINUOUS
 62
     7
 10
497.7441629291521
 20
297.055456351737
 30
0.0
  0
VERTEX
  5
370
  8
1
  6
CONTINUOUS
 62
     7
 10
497.8035502213823
 20
297.4721818591962
 30
0.0
  0
VERTEX
  5
371
  8
1
  6
CONTINUOUS
 62
     7
 10
497.8476789605494
 20
297.947620560996
 30
0.0
  0
VERTEX
  5
372
  8
1
  6
CONTINUOUS
 62
     7
 10
497.874853303955
 20
298.4635016144557
 30
0.0
  0
VERTEX
  5
373
  8
1
  6
CONTINUOUS
 62
     7
 10
497.8840289568215
 20
299.0000000000001
 30
0.0
  0
VERTEX
  5
374
  8
1
  6
CONTINUOUS
 62
     7
 10
497.874853303955
 20
299.5364983855444
 30
0.0
  0
VERTEX
  5
375
  8
1
  6
CONTINUOUS
 62
     7
 10
497.8476789605494
 20
300.0523794390041
 30
0.0
  0
VERTEX
  5
376
  8
1
  6
CONTINUOUS
 62
     7
 10
497.8035502213823
 20
300.527818140804
 30
0.0
  0
VERTEX
  5
377
  8
1
  6
CONTINUOUS
 62
     7
 10
497.7441629291521
 20
300.9445436482631
 30
0.0
  0
VERTEX
  5
378
  8
1
  6
CONTINUOUS
 62
     7
 10
497.6717993041945
 20
301.2865414338321
 30
0.0
  0
VERTEX
  5
379
  8
1
  6
CONTINUOUS
 62
     7
 10
497.5892402400346
 20
301.5406687144061
 30
0.0
  0
VERTEX
  5
37A
  8
1
  6
CONTINUOUS
 62
     7
 10
497.4996584352085
 20
301.697159521109
 30
0.0
  0
VERTEX
  5
37B
  8
1
  6
CONTINUOUS
 62
     7
 10
497.4064964682374
 20
301.7500000000001
 30
0.0
  0
SEQEND
  5
54E
  8
1
  6
CONTINUOUS
 62
     7
  0
LINE
  5
1C9
  8
1
  6
CONTINUOUS
 62
     7
 10
515.6848673109082
 20
299.5000000000001
 30
0.0
 11
512.6848673109084
 21
299.5000000000001
 31
0.0
  0
LINE
  5
1CA
  8
1
  6
CONTINUOUS
 62
     7
 10
515.6848673109082
 20
320.5000000000001
 30
0.0
 11
515.6848673109082
 21
299.5000000000001
 31
0.0
  0
LINE
  5
1CB
  8
1
  6
CONTINUOUS
 62
     7
 10
515.6848673109082
 20
320.5000000000001
 30
0.0
 11
512.6848673109084
 21
320.5000000000001
 31
0.0
  0
LINE
  5
1CC
  8
1
  6
CONTINUOUS
 62
     7
 10
512.6848673109084
 20
320.5000000000001
 30
0.0
 11
512.6848673109084
 21
299.5000000000001
 31
0.0
  0
ARC
  5
1CD
  8
1
  6
CONTINUOUS
 62
     7
 10
517.1848673109083
 20
324.0000000000001
 30
0.0
 40
3.000000000000003
 50
0.0
 51
90.0
  0
LINE
  5
1CE
  8
1
  6
CONTINUOUS
 62
     7
 10
520.1848673109083
 20
296.0000000000001
 30
0.0
 11
520.1848673109083
 21
300.0000000000001
 31
0.0
  0
LINE
  5
1CF
  8
1
  6
CONTINUOUS
 62
     7
 10
520.1848673109083
 20
320.0000000000001
 30
0.0
 11
520.1848673109083
 21
324.0000000000001
 31
0.0
  0
ARC
  5
1D0
  8
1
  6
CONTINUOUS
 62
     7
 10
517.1848673109083
 20
296.0000000000001
 30
0.0
 40
3.000000000000003
 50
270.0
 51
0.0
  0
ARC
  5
1D1
  8
1
  6
CONTINUOUS
 62
     7
 10
507.6848673109082
 20
300.2215002340824
 30
0.0
 40
0.500000000000056
 50
249.4439547804168
 51
0.0000000000003979
  0
LINE
  5
1D2
  8
1
  6
CONTINUOUS
 62
     7
 10
508.1848673109083
 20
319.7784997659177
 30
0.0
 11
508.1848673109083
 21
300.2215002340824
 31
0.0
  0
ARC
  5
1D3
  8
1
  6
CONTINUOUS
 62
     7
 10
507.6848673109082
 20
319.7784997659177
 30
0.0
 40
0.500000000000056
 50
359.9999999999996
 51
110.5560452195833
  0
LINE
  5
1D4
  8
1
  6
CONTINUOUS
 62
     7
 10
507.5093055901141
 20
320.2466643547022
 30
0.0
 11
500.1848673109083
 21
317.5000000000001
 31
0.0
  0
LINE
  5
1D5
  8
1
  6
CONTINUOUS
 62
     7
 10
507.5093055901141
 20
299.7533356452979
 30
0.0
 11
500.1848673109083
 21
302.5000000000001
 31
0.0
  0
LINE
  5
1D6
  8
1
  6
CONTINUOUS
 62
     7
 10
787.5921627871556
 20
319.22360679775
 30
0.0
 11
787.5921627871556
 21
318.7763932022501
 31
0.0
  0
POLYLINE
  5
1D7
  8
1
  6
CONTINUOUS
 62
     7
 66
     1
 10
0.0
 20
0.0
 30
0.0
  0
VERTEX
  5
37C
  8
1
  6
CONTINUOUS
 62
     7
 10
782.3534962997865
 20
318.7763932022501
 30
0.0
  0
VERTEX
  5
37D
  8
1
  6
CONTINUOUS
 62
     7
 10
782.3411593200209
 20
318.7896586576827
 30
0.0
  0
VERTEX
  5
37E
  8
1
  6
CONTINUOUS
 62
     7
 10
782.3293403862948
 20
318.8034459703381
 30
0.0
  0
VERTEX
  5
37F
  8
1
  6
CONTINUOUS
 62
     7
 10
782.3181114980591
 20
318.817737967056
 30
0.0
  0
VERTEX
  5
380
  8
1
  6
CONTINUOUS
 62
     7
 10
782.3075446547648
 20
318.8325174746756
 30
0.0
  0
VERTEX
  5
381
  8
1
  6
CONTINUOUS
 62
     7
 10
782.2977118558628
 20
318.8477673200362
 30
0.0
  0
VERTEX
  5
382
  8
1
  6
CONTINUOUS
 62
     7
 10
782.2886851008037
 20
318.8634703299774
 30
0.0
  0
VERTEX
  5
383
  8
1
  6
CONTINUOUS
 62
     7
 10
782.2825048659748
 20
318.8754942901268
 30
0.0
  0
VERTEX
  5
384
  8
1
  6
CONTINUOUS
 62
     7
 10
782.2768245788396
 20
318.8877769346084
 30
0.0
  0
VERTEX
  5
385
  8
1
  6
CONTINUOUS
 62
     7
 10
782.2716780252064
 20
318.9002917220104
 30
0.0
  0
VERTEX
  5
386
  8
1
  6
CONTINUOUS
 62
     7
 10
782.2670989908835
 20
318.9130121109209
 30
0.0
  0
VERTEX
  5
387
  8
1
  6
CONTINUOUS
 62
     7
 10
782.2629863917485
 20
318.926384525022
 30
0.0
  0
VERTEX
  5
388
  8
1
  6
CONTINUOUS
 62
     7
 10
782.2595290738121
 20
318.9399596824511
 30
0.0
  0
VERTEX
  5
389
  8
1
  6
CONTINUOUS
 62
     7
 10
782.2567537385487
 20
318.9536895330366
 30
0.0
  0
VERTEX
  5
38A
  8
1
  6
CONTINUOUS
 62
     7
 10
782.2546870874329
 20
318.9675260266072
 30
0.0
  0
VERTEX
  5
38B
  8
1
  6
CONTINUOUS
 62
     7
 10
782.2534726038332
 20
318.9797413541354
 30
0.0
  0
VERTEX
  5
38C
  8
1
  6
CONTINUOUS
 62
     7
 10
782.2528204259406
 20
318.9920128138509
 30
0.0
  0
VERTEX
  5
38D
  8
1
  6
CONTINUOUS
 62
     7
 10
782.2527332640655
 20
319.0043012004466
 30
0.0
  0
VERTEX
  5
38E
  8
1
  6
CONTINUOUS
 62
     7
 10
782.2532138285173
 20
319.0165673086153
 30
0.0
  0
VERTEX
  5
38F
  8
1
  6
CONTINUOUS
 62
     7
 10
782.2543117669758
 20
319.0292356809451
 30
0.0
  0
VERTEX
  5
390
  8
1
  6
CONTINUOUS
 62
     7
 10
782.2560100473626
 20
319.0418516334813
 30
0.0
  0
VERTEX
  5
391
  8
1
  6
CONTINUOUS
 62
     7
 10
782.2582937707518
 20
319.0543753218136
 30
0.0
  0
VERTEX
  5
392
  8
1
  6
CONTINUOUS
 62
     7
 10
782.2611480382178
 20
319.0667669015317
 30
0.0
  0
VERTEX
  5
393
  8
1
  6
CONTINUOUS
 62
     7
 10
782.2652421444943
 20
319.0812137603519
 30
0.0
  0
VERTEX
  5
394
  8
1
  6
CONTINUOUS
 62
     7
 10
782.2700930142415
 20
319.0954584339611
 30
0.0
  0
VERTEX
  5
395
  8
1
  6
CONTINUOUS
 62
     7
 10
782.275655124329
 20
319.109463077735
 30
0.0
  0
VERTEX
  5
396
  8
1
  6
CONTINUOUS
 62
     7
 10
782.2818829516261
 20
319.1231898470488
 30
0.0
  0
VERTEX
  5
397
  8
1
  6
CONTINUOUS
 62
     7
 10
782.2887309730029
 20
319.1366008972782
 30
0.0
  0
VERTEX
  5
398
  8
1
  6
CONTINUOUS
 62
     7
 10
782.2961536653287
 20
319.1496583837987
 30
0.0
  0
VERTEX
  5
399
  8
1
  6
CONTINUOUS
 62
     7
 10
782.3061854497508
 20
319.1654805756764
 30
0.0
  0
VERTEX
  5
39A
  8
1
  6
CONTINUOUS
 62
     7
 10
782.3170130961514
 20
319.1808019197447
 30
0.0
  0
VERTEX
  5
39B
  8
1
  6
CONTINUOUS
 62
     7
 10
782.3285591137866
 20
319.1956070092692
 30
0.0
  0
VERTEX
  5
39C
  8
1
  6
CONTINUOUS
 62
     7
 10
782.3407460119129
 20
319.2098804375157
 30
0.0
  0
VERTEX
  5
39D
  8
1
  6
CONTINUOUS
 62
     7
 10
782.3534962997865
 20
319.22360679775
 30
0.0
  0
SEQEND
  5
54F
  8
1
  6
CONTINUOUS
 62
     7
  0
LINE
  5
1D8
  8
1
  6
CONTINUOUS
 62
     7
 10
787.5921627871556
 20
301.2236067977501
 30
0.0
 11
787.5921627871556
 21
300.7763932022501
 31
0.0
  0
POLYLINE
  5
1D9
  8
1
  6
CONTINUOUS
 62
     7
 66
     1
 10
0.0
 20
0.0
 30
0.0
  0
VERTEX
  5
39E
  8
1
  6
CONTINUOUS
 62
     7
 10
787.5921627871555
 20
301.22360679775
 30
0.0
  0
VERTEX
  5
39F
  8
1
  6
CONTINUOUS
 62
     7
 10
787.0478009592033
 20
302.1996474140368
 30
0.0
  0
VERTEX
  5
3A0
  8
1
  6
CONTINUOUS
 62
     7
 10
786.336794768647
 20
302.7982709416962
 30
0.0
  0
VERTEX
  5
3A1
  8
1
  6
CONTINUOUS
 62
     7
 10
785.4822781847233
 20
303.0000000000001
 30
0.0
  0
VERTEX
  5
3A2
  8
1
  6
CONTINUOUS
 62
     7
 10
784.5120545664295
 20
302.7982709416963
 30
0.0
  0
VERTEX
  5
3A3
  8
1
  6
CONTINUOUS
 62
     7
 10
783.4576920261624
 20
302.1996474140369
 30
0.0
  0
VERTEX
  5
3A4
  8
1
  6
CONTINUOUS
 62
     7
 10
782.3534962997863
 20
301.2236067977501
 30
0.0
  0
SEQEND
  5
550
  8
1
  6
CONTINUOUS
 62
     7
  0
POLYLINE
  5
1DA
  8
1
  6
CONTINUOUS
 62
     7
 66
     1
 10
0.0
 20
0.0
 30
0.0
  0
VERTEX
  5
3A5
  8
1
  6
CONTINUOUS
 62
     7
 10
782.3534962997865
 20
300.7763932022501
 30
0.0
  0
VERTEX
  5
3A6
  8
1
  6
CONTINUOUS
 62
     7
 10
782.3411593200209
 20
300.7896586576827
 30
0.0
  0
VERTEX
  5
3A7
  8
1
  6
CONTINUOUS
 62
     7
 10
782.3293403862948
 20
300.8034459703381
 30
0.0
  0
VERTEX
  5
3A8
  8
1
  6
CONTINUOUS
 62
     7
 10
782.3181114980591
 20
300.817737967056
 30
0.0
  0
VERTEX
  5
3A9
  8
1
  6
CONTINUOUS
 62
     7
 10
782.3075446547648
 20
300.8325174746755
 30
0.0
  0
VERTEX
  5
3AA
  8
1
  6
CONTINUOUS
 62
     7
 10
782.2977118558628
 20
300.8477673200362
 30
0.0
  0
VERTEX
  5
3AB
  8
1
  6
CONTINUOUS
 62
     7
 10
782.2886851008037
 20
300.8634703299774
 30
0.0
  0
VERTEX
  5
3AC
  8
1
  6
CONTINUOUS
 62
     7
 10
782.2825048659748
 20
300.8754942901268
 30
0.0
  0
VERTEX
  5
3AD
  8
1
  6
CONTINUOUS
 62
     7
 10
782.2768245788396
 20
300.8877769346084
 30
0.0
  0
VERTEX
  5
3AE
  8
1
  6
CONTINUOUS
 62
     7
 10
782.2716780252064
 20
300.9002917220104
 30
0.0
  0
VERTEX
  5
3AF
  8
1
  6
CONTINUOUS
 62
     7
 10
782.2670989908835
 20
300.9130121109209
 30
0.0
  0
VERTEX
  5
3B0
  8
1
  6
CONTINUOUS
 62
     7
 10
782.2629863917487
 20
300.9263845250221
 30
0.0
  0
VERTEX
  5
3B1
  8
1
  6
CONTINUOUS
 62
     7
 10
782.2595290738121
 20
300.939959682451
 30
0.0
  0
VERTEX
  5
3B2
  8
1
  6
CONTINUOUS
 62
     7
 10
782.2567537385487
 20
300.9536895330366
 30
0.0
  0
VERTEX
  5
3B3
  8
1
  6
CONTINUOUS
 62
     7
 10
782.2546870874329
 20
300.9675260266072
 30
0.0
  0
VERTEX
  5
3B4
  8
1
  6
CONTINUOUS
 62
     7
 10
782.2534726038332
 20
300.9797413541354
 30
0.0
  0
VERTEX
  5
3B5
  8
1
  6
CONTINUOUS
 62
     7
 10
782.2528204259406
 20
300.992012813851
 30
0.0
  0
VERTEX
  5
3B6
  8
1
  6
CONTINUOUS
 62
     7
 10
782.2527332640655
 20
301.0043012004466
 30
0.0
  0
VERTEX
  5
3B7
  8
1
  6
CONTINUOUS
 62
     7
 10
782.2532138285175
 20
301.0165673086153
 30
0.0
  0
VERTEX
  5
3B8
  8
1
  6
CONTINUOUS
 62
     7
 10
782.2543117669758
 20
301.0292356809451
 30
0.0
  0
VERTEX
  5
3B9
  8
1
  6
CONTINUOUS
 62
     7
 10
782.2560100473626
 20
301.0418516334813
 30
0.0
  0
VERTEX
  5
3BA
  8
1
  6
CONTINUOUS
 62
     7
 10
782.2582937707518
 20
301.0543753218136
 30
0.0
  0
VERTEX
  5
3BB
  8
1
  6
CONTINUOUS
 62
     7
 10
782.2611480382178
 20
301.0667669015317
 30
0.0
  0
VERTEX
  5
3BC
  8
1
  6
CONTINUOUS
 62
     7
 10
782.2652421444943
 20
301.0812137603518
 30
0.0
  0
VERTEX
  5
3BD
  8
1
  6
CONTINUOUS
 62
     7
 10
782.2700930142415
 20
301.0954584339611
 30
0.0
  0
VERTEX
  5
3BE
  8
1
  6
CONTINUOUS
 62
     7
 10
782.275655124329
 20
301.109463077735
 30
0.0
  0
VERTEX
  5
3BF
  8
1
  6
CONTINUOUS
 62
     7
 10
782.2818829516261
 20
301.1231898470489
 30
0.0
  0
VERTEX
  5
3C0
  8
1
  6
CONTINUOUS
 62
     7
 10
782.2887309730029
 20
301.1366008972783
 30
0.0
  0
VERTEX
  5
3C1
  8
1
  6
CONTINUOUS
 62
     7
 10
782.2961536653287
 20
301.1496583837986
 30
0.0
  0
VERTEX
  5
3C2
  8
1
  6
CONTINUOUS
 62
     7
 10
782.3061854497508
 20
301.1654805756765
 30
0.0
  0
VERTEX
  5
3C3
  8
1
  6
CONTINUOUS
 62
     7
 10
782.3170130961514
 20
301.1808019197448
 30
0.0
  0
VERTEX
  5
3C4
  8
1
  6
CONTINUOUS
 62
     7
 10
782.3285591137866
 20
301.1956070092693
 30
0.0
  0
VERTEX
  5
3C5
  8
1
  6
CONTINUOUS
 62
     7
 10
782.3407460119129
 20
301.2098804375158
 30
0.0
  0
VERTEX
  5
3C6
  8
1
  6
CONTINUOUS
 62
     7
 10
782.3534962997865
 20
301.2236067977501
 30
0.0
  0
SEQEND
  5
551
  8
1
  6
CONTINUOUS
 62
     7
  0
POLYLINE
  5
1DB
  8
1
  6
CONTINUOUS
 62
     7
 66
     1
 10
0.0
 20
0.0
 30
0.0
  0
VERTEX
  5
3C7
  8
1
  6
CONTINUOUS
 62
     7
 10
782.3534962997863
 20
300.77639320225
 30
0.0
  0
VERTEX
  5
3C8
  8
1
  6
CONTINUOUS
 62
     7
 10
783.4576920261622
 20
299.8003525859632
 30
0.0
  0
VERTEX
  5
3C9
  8
1
  6
CONTINUOUS
 62
     7
 10
784.5120545664295
 20
299.2017290583039
 30
0.0
  0
VERTEX
  5
3CA
  8
1
  6
CONTINUOUS
 62
     7
 10
785.4822781847233
 20
299.0000000000001
 30
0.0
  0
VERTEX
  5
3CB
  8
1
  6
CONTINUOUS
 62
     7
 10
786.336794768647
 20
299.201729058304
 30
0.0
  0
VERTEX
  5
3CC
  8
1
  6
CONTINUOUS
 62
     7
 10
787.0478009592033
 20
299.8003525859633
 30
0.0
  0
VERTEX
  5
3CD
  8
1
  6
CONTINUOUS
 62
     7
 10
787.5921627871555
 20
300.7763932022501
 30
0.0
  0
SEQEND
  5
552
  8
1
  6
CONTINUOUS
 62
     7
  0
LINE
  5
1DC
  8
1
  6
CONTINUOUS
 62
     7
 10
778.826104279347
 20
312.7
 30
0.0
 11
778.826104279347
 21
307.3000000000001
 31
0.0
  0
POLYLINE
  5
1DD
  8
1
  6
CONTINUOUS
 62
     7
 66
     1
 10
0.0
 20
0.0
 30
0.0
  0
VERTEX
  5
3CE
  8
1
  6
CONTINUOUS
 62
     7
 10
787.5921627871555
 20
319.2236067977499
 30
0.0
  0
VERTEX
  5
3CF
  8
1
  6
CONTINUOUS
 62
     7
 10
787.0478009592033
 20
320.1996474140367
 30
0.0
  0
VERTEX
  5
3D0
  8
1
  6
CONTINUOUS
 62
     7
 10
786.3367947686469
 20
320.7982709416961
 30
0.0
  0
VERTEX
  5
3D1
  8
1
  6
CONTINUOUS
 62
     7
 10
785.4822781847233
 20
321.0
 30
0.0
  0
VERTEX
  5
3D2
  8
1
  6
CONTINUOUS
 62
     7
 10
784.5120545664295
 20
320.7982709416962
 30
0.0
  0
VERTEX
  5
3D3
  8
1
  6
CONTINUOUS
 62
     7
 10
783.4576920261624
 20
320.1996474140368
 30
0.0
  0
VERTEX
  5
3D4
  8
1
  6
CONTINUOUS
 62
     7
 10
782.3534962997863
 20
319.22360679775
 30
0.0
  0
SEQEND
  5
553
  8
1
  6
CONTINUOUS
 62
     7
  0
POLYLINE
  5
1DE
  8
1
  6
CONTINUOUS
 62
     7
 66
     1
 10
0.0
 20
0.0
 30
0.0
  0
VERTEX
  5
3D5
  8
1
  6
CONTINUOUS
 62
     7
 10
782.3534962997863
 20
318.7763932022501
 30
0.0
  0
VERTEX
  5
3D6
  8
1
  6
CONTINUOUS
 62
     7
 10
783.4576920261624
 20
317.8003525859633
 30
0.0
  0
VERTEX
  5
3D7
  8
1
  6
CONTINUOUS
 62
     7
 10
784.5120545664295
 20
317.201729058304
 30
0.0
  0
VERTEX
  5
3D8
  8
1
  6
CONTINUOUS
 62
     7
 10
785.4822781847233
 20
317.0000000000001
 30
0.0
  0
VERTEX
  5
3D9
  8
1
  6
CONTINUOUS
 62
     7
 10
786.336794768647
 20
317.201729058304
 30
0.0
  0
VERTEX
  5
3DA
  8
1
  6
CONTINUOUS
 62
     7
 10
787.0478009592033
 20
317.8003525859634
 30
0.0
  0
VERTEX
  5
3DB
  8
1
  6
CONTINUOUS
 62
     7
 10
787.5921627871555
 20
318.7763932022502
 30
0.0
  0
SEQEND
  5
554
  8
1
  6
CONTINUOUS
 62
     7
  0
LINE
  5
1DF
  8
1
  6
CONTINUOUS
 62
     7
 10
761.9386089055504
 20
322.0000000000001
 30
0.0
 11
761.9386089055504
 21
314.2
 31
0.0
  0
POLYLINE
  5
1E0
  8
1
  6
CONTINUOUS
 62
     7
 66
     1
 10
0.0
 20
0.0
 30
0.0
  0
VERTEX
  5
3DC
  8
1
  6
CONTINUOUS
 62
     7
 10
766.2687359244726
 20
327.0000000000001
 30
0.0
  0
VERTEX
  5
3DD
  8
1
  6
CONTINUOUS
 62
     7
 10
765.4239700499803
 20
326.9039264020162
 30
0.0
  0
VERTEX
  5
3DE
  8
1
  6
CONTINUOUS
 62
     7
 10
764.6116680542947
 20
326.6193976625565
 30
0.0
  0
VERTEX
  5
3DF
  8
1
  6
CONTINUOUS
 62
     7
 10
763.8630462475655
 20
326.1573480615128
 30
0.0
  0
VERTEX
  5
3E0
  8
1
  6
CONTINUOUS
 62
     7
 10
763.2068737459936
 20
325.5355339059328
 30
0.0
  0
VERTEX
  5
3E1
  8
1
  6
CONTINUOUS
 62
     7
 10
762.6683668908286
 20
324.7778511650981
 30
0.0
  0
VERTEX
  5
3E2
  8
1
  6
CONTINUOUS
 62
     7
 10
762.2682201985162
 20
323.9134171618255
 30
0.0
  0
VERTEX
  5
3E3
  8
1
  6
CONTINUOUS
 62
     7
 10
762.0218110820374
 20
322.9754516100807
 30
0.0
  0
VERTEX
  5
3E4
  8
1
  6
CONTINUOUS
 62
     7
 10
761.9386089055504
 20
322.0000000000001
 30
0.0
  0
SEQEND
  5
555
  8
1
  6
CONTINUOUS
 62
     7
  0
POLYLINE
  5
1E1
  8
1
  6
CONTINUOUS
 62
     7
 66
     1
 10
0.0
 20
0.0
 30
0.0
  0
VERTEX
  5
3E5
  8
1
  6
CONTINUOUS
 62
     7
 10
778.826104279347
 20
312.7
 30
0.0
  0
VERTEX
  5
3E6
  8
1
  6
CONTINUOUS
 62
     7
 10
778.8177840616983
 20
312.7975451610081
 30
0.0
  0
VERTEX
  5
3E7
  8
1
  6
CONTINUOUS
 62
     7
 10
778.7931431500504
 20
312.8913417161826
 30
0.0
  0
VERTEX
  5
3E8
  8
1
  6
CONTINUOUS
 62
     7
 10
778.7531284808191
 20
312.9777851165098
 30
0.0
  0
VERTEX
  5
3E9
  8
1
  6
CONTINUOUS
 62
     7
 10
778.6992777953026
 20
313.0535533905933
 30
0.0
  0
VERTEX
  5
3EA
  8
1
  6
CONTINUOUS
 62
     7
 10
778.6336605451454
 20
313.1157348061513
 30
0.0
  0
VERTEX
  5
3EB
  8
1
  6
CONTINUOUS
 62
     7
 10
778.5587983644725
 20
313.1619397662557
 30
0.0
  0
VERTEX
  5
3EC
  8
1
  6
CONTINUOUS
 62
     7
 10
778.4775681649039
 20
313.1903926402017
 30
0.0
  0
VERTEX
  5
3ED
  8
1
  6
CONTINUOUS
 62
     7
 10
778.3930915774547
 20
313.2
 30
0.0
  0
SEQEND
  5
556
  8
1
  6
CONTINUOUS
 62
     7
  0
LINE
  5
1E2
  8
1
  6
CONTINUOUS
 62
     7
 10
778.3930915774548
 20
313.2
 30
0.0
 11
777.8680222448377
 21
313.2
 31
0.0
  0
LINE
  5
1E3
  8
1
  6
CONTINUOUS
 62
     7
 10
766.8347017914707
 20
313.2
 30
0.0
 11
762.8046343093349
 21
313.2
 31
0.0
  0
POLYLINE
  5
1E4
  8
1
  6
CONTINUOUS
 62
     7
 66
     1
 10
0.0
 20
0.0
 30
0.0
  0
VERTEX
  5
3EE
  8
1
  6
CONTINUOUS
 62
     7
 10
761.9386089055504
 20
314.2000000000003
 30
0.0
  0
VERTEX
  5
3EF
  8
1
  6
CONTINUOUS
 62
     7
 10
761.9552493408477
 20
314.0049096779841
 30
0.0
  0
VERTEX
  5
3F0
  8
1
  6
CONTINUOUS
 62
     7
 10
762.0045311641435
 20
313.8173165676351
 30
0.0
  0
VERTEX
  5
3F1
  8
1
  6
CONTINUOUS
 62
     7
 10
762.0845605026059
 20
313.6444297669806
 30
0.0
  0
VERTEX
  5
3F2
  8
1
  6
CONTINUOUS
 62
     7
 10
762.1922618736389
 20
313.4928932188136
 30
0.0
  0
VERTEX
  5
3F3
  8
1
  6
CONTINUOUS
 62
     7
 10
762.3234963739533
 20
313.3685303876976
 30
0.0
  0
VERTEX
  5
3F4
  8
1
  6
CONTINUOUS
 62
     7
 10
762.4732207352992
 20
313.2761204674888
 30
0.0
  0
VERTEX
  5
3F5
  8
1
  6
CONTINUOUS
 62
     7
 10
762.6356811344363
 20
313.2192147195968
 30
0.0
  0
VERTEX
  5
3F6
  8
1
  6
CONTINUOUS
 62
     7
 10
762.8046343093347
 20
313.2
 30
0.0
  0
SEQEND
  5
557
  8
1
  6
CONTINUOUS
 62
     7
  0
POLYLINE
  5
1E5
  8
1
  6
CONTINUOUS
 62
     7
 66
     1
 10
0.0
 20
0.0
 30
0.0
  0
VERTEX
  5
3F7
  8
1
  6
CONTINUOUS
 62
     7
 10
778.3930915774547
 20
306.8000000000001
 30
0.0
  0
VERTEX
  5
3F8
  8
1
  6
CONTINUOUS
 62
     7
 10
778.4775681649039
 20
306.8096073597985
 30
0.0
  0
VERTEX
  5
3F9
  8
1
  6
CONTINUOUS
 62
     7
 10
778.5587983644725
 20
306.8380602337444
 30
0.0
  0
VERTEX
  5
3FA
  8
1
  6
CONTINUOUS
 62
     7
 10
778.6336605451454
 20
306.8842651938488
 30
0.0
  0
VERTEX
  5
3FB
  8
1
  6
CONTINUOUS
 62
     7
 10
778.6992777953026
 20
306.9464466094068
 30
0.0
  0
VERTEX
  5
3FC
  8
1
  6
CONTINUOUS
 62
     7
 10
778.7531284808191
 20
307.0222148834903
 30
0.0
  0
VERTEX
  5
3FD
  8
1
  6
CONTINUOUS
 62
     7
 10
778.7931431500504
 20
307.1086582838175
 30
0.0
  0
VERTEX
  5
3FE
  8
1
  6
CONTINUOUS
 62
     7
 10
778.8177840616983
 20
307.202454838992
 30
0.0
  0
VERTEX
  5
3FF
  8
1
  6
CONTINUOUS
 62
     7
 10
778.826104279347
 20
307.3000000000001
 30
0.0
  0
SEQEND
  5
558
  8
1
  6
CONTINUOUS
 62
     7
  0
LINE
  5
1E6
  8
1
  6
CONTINUOUS
 62
     7
 10
778.3930915774548
 20
306.8000000000001
 30
0.0
 11
777.8680222448377
 21
306.8000000000001
 31
0.0
  0
LINE
  5
1E7
  8
1
  6
CONTINUOUS
 62
     7
 10
766.8347017914707
 20
306.8000000000001
 30
0.0
 11
762.8046343093349
 21
306.8000000000001
 31
0.0
  0
POLYLINE
  5
1E8
  8
1
  6
CONTINUOUS
 62
     7
 66
     1
 10
0.0
 20
0.0
 30
0.0
  0
VERTEX
  5
400
  8
1
  6
CONTINUOUS
 62
     7
 10
761.9386089055504
 20
298.0000000000001
 30
0.0
  0
VERTEX
  5
401
  8
1
  6
CONTINUOUS
 62
     7
 10
762.0218110820374
 20
297.0245483899194
 30
0.0
  0
VERTEX
  5
402
  8
1
  6
CONTINUOUS
 62
     7
 10
762.2682201985162
 20
296.0865828381746
 30
0.0
  0
VERTEX
  5
403
  8
1
  6
CONTINUOUS
 62
     7
 10
762.6683668908286
 20
295.222148834902
 30
0.0
  0
VERTEX
  5
404
  8
1
  6
CONTINUOUS
 62
     7
 10
763.2068737459936
 20
294.4644660940673
 30
0.0
  0
VERTEX
  5
405
  8
1
  6
CONTINUOUS
 62
     7
 10
763.8630462475655
 20
293.8426519384873
 30
0.0
  0
VERTEX
  5
406
  8
1
  6
CONTINUOUS
 62
     7
 10
764.6116680542947
 20
293.3806023374436
 30
0.0
  0
VERTEX
  5
407
  8
1
  6
CONTINUOUS
 62
     7
 10
765.4239700499803
 20
293.0960735979839
 30
0.0
  0
VERTEX
  5
408
  8
1
  6
CONTINUOUS
 62
     7
 10
766.2687359244726
 20
293.0000000000001
 30
0.0
  0
SEQEND
  5
559
  8
1
  6
CONTINUOUS
 62
     7
  0
LINE
  5
1E9
  8
1
  6
CONTINUOUS
 62
     7
 10
761.9386089055504
 20
298.0000000000001
 30
0.0
 11
761.9386089055504
 21
305.8000000000001
 31
0.0
  0
POLYLINE
  5
1EA
  8
1
  6
CONTINUOUS
 62
     7
 66
     1
 10
0.0
 20
0.0
 30
0.0
  0
VERTEX
  5
409
  8
1
  6
CONTINUOUS
 62
     7
 10
762.8046343093347
 20
306.8000000000001
 30
0.0
  0
VERTEX
  5
40A
  8
1
  6
CONTINUOUS
 62
     7
 10
762.6356811344363
 20
306.7807852804033
 30
0.0
  0
VERTEX
  5
40B
  8
1
  6
CONTINUOUS
 62
     7
 10
762.4732207352992
 20
306.7238795325113
 30
0.0
  0
VERTEX
  5
40C
  8
1
  6
CONTINUOUS
 62
     7
 10
762.3234963739533
 20
306.6314696123025
 30
0.0
  0
VERTEX
  5
40D
  8
1
  6
CONTINUOUS
 62
     7
 10
762.1922618736389
 20
306.5071067811865
 30
0.0
  0
VERTEX
  5
40E
  8
1
  6
CONTINUOUS
 62
     7
 10
762.0845605026059
 20
306.3555702330195
 30
0.0
  0
VERTEX
  5
40F
  8
1
  6
CONTINUOUS
 62
     7
 10
762.0045311641435
 20
306.182683432365
 30
0.0
  0
VERTEX
  5
410
  8
1
  6
CONTINUOUS
 62
     7
 10
761.9552493408477
 20
305.995090322016
 30
0.0
  0
VERTEX
  5
411
  8
1
  6
CONTINUOUS
 62
     7
 10
761.9386089055504
 20
305.7999999999998
 30
0.0
  0
SEQEND
  5
55A
  8
1
  6
CONTINUOUS
 62
     7
  0
LINE
  5
1EB
  8
1
  6
CONTINUOUS
 62
     7
 10
765.0740527322437
 20
313.2
 30
0.0
 11
765.0740527322437
 21
306.8000000000001
 31
0.0
  0
LINE
  5
1EC
  8
1
  6
CONTINUOUS
 62
     7
 10
760.5740527322438
 20
296.0000000000001
 30
0.0
 11
760.5740527322438
 21
300.0000000000001
 31
0.0
  0
LINE
  5
1ED
  8
1
  6
CONTINUOUS
 62
     7
 10
760.5740527322438
 20
320.0000000000001
 30
0.0
 11
760.5740527322438
 21
324.0000000000001
 31
0.0
  0
ARC
  5
1EE
  8
1
  6
CONTINUOUS
 62
     7
 10
763.5740527322438
 20
296.0000000000001
 30
0.0
 40
3.000000000000003
 50
180.0
 51
270.0
  0
ARC
  5
1EF
  8
1
  6
CONTINUOUS
 62
     7
 10
763.5740527322438
 20
324.0000000000001
 30
0.0
 40
3.000000000000003
 50
90.0
 51
180.0
  0
LINE
  5
1F0
  8
1
  6
CONTINUOUS
 62
     7
 10
789.4098568748116
 20
303.0000000000001
 30
0.0
 11
790.6901069537274
 21
303.0000000000001
 31
0.0
  0
LINE
  5
1F1
  8
1
  6
CONTINUOUS
 62
     7
 10
790.6901069537274
 20
317.0000000000001
 30
0.0
 11
789.4098568748116
 21
317.0000000000001
 31
0.0
  0
LINE
  5
1F2
  8
1
  6
CONTINUOUS
 62
     7
 10
795.7499740831508
 20
305.0000000000001
 30
0.0
 11
795.8793128149822
 21
305.2388909180143
 31
0.0
  0
LINE
  5
1F3
  8
1
  6
CONTINUOUS
 62
     7
 10
795.8793128149822
 20
314.7611090819858
 30
0.0
 11
795.7499740831508
 21
315.0000000000001
 31
0.0
  0
LINE
  5
1F4
  8
1
  6
CONTINUOUS
 62
     7
 10
772.2263620181541
 20
303.0000000000001
 30
0.0
 11
772.4763620181542
 21
303.0000000000001
 31
0.0
  0
LINE
  5
1F5
  8
1
  6
CONTINUOUS
 62
     7
 10
772.4763620181542
 20
317.0000000000001
 30
0.0
 11
772.2263620181541
 21
317.0000000000001
 31
0.0
  0
LINE
  5
1F6
  8
1
  6
CONTINUOUS
 62
     7
 10
778.826104279347
 20
307.4
 30
0.0
 11
778.1048609299422
 21
307.4
 31
0.0
  0
LINE
  5
1F7
  8
1
  6
CONTINUOUS
 62
     7
 10
778.1048609299422
 20
312.6
 30
0.0
 11
778.826104279347
 21
312.6
 31
0.0
  0
LINE
  5
1F8
  8
1
  6
CONTINUOUS
 62
     7
 10
817.3945460292374
 20
313.0000000000001
 30
0.0
 11
796.3087384294563
 21
313.0000000000001
 31
0.0
  0
LINE
  5
1F9
  8
1
  6
CONTINUOUS
 62
     7
 10
796.3087384294563
 20
307.0000000000001
 30
0.0
 11
817.3945460292374
 21
307.0000000000001
 31
0.0
  0
LINE
  5
1FA
  8
1
  6
CONTINUOUS
 62
     7
 10
788.1261042793469
 20
293.0000000000001
 30
0.0
 11
788.1261042793469
 21
327.0000000000001
 31
0.0
  0
LINE
  5
1FB
  8
1
  6
CONTINUOUS
 62
     7
 10
788.1263177617747
 20
319.663166384568
 30
0.0
 11
788.2490884040662
 21
321.0000000000001
 31
0.0
  0
LINE
  5
1FC
  8
1
  6
CONTINUOUS
 62
     7
 10
788.2490884040662
 20
321.0000000000001
 30
0.0
 11
788.1262287268024
 21
322.3372010392093
 31
0.0
  0
LINE
  5
1FD
  8
1
  6
CONTINUOUS
 62
     7
 10
788.1263177617747
 20
297.6631663845679
 30
0.0
 11
788.2490884040662
 21
299.0000000000001
 31
0.0
  0
LINE
  5
1FE
  8
1
  6
CONTINUOUS
 62
     7
 10
788.2490884040662
 20
299.0000000000001
 30
0.0
 11
788.1262287268024
 21
300.3372010392093
 31
0.0
  0
ENDBLK
  8
0
  0
BLOCK
  8
0
  2
D_FRAME_VIEW_2185
 70
     0
 10
0.0
 20
0.0
 30
0.0
  0
ARC
  5
203
  8
1
  6
CONTINUOUS
 62
     9
 10
610.0
 20
175.9098581293407
 30
0.0
 40
3.000000000000038
 50
354.2966587844257
 51
29.92643486661445
  0
POLYLINE
  5
204
  8
1
  6
CONTINUOUS
 62
     7
 66
     1
 10
0.0
 20
0.0
 30
0.0
  0
VERTEX
  5
414
  8
1
  6
CONTINUOUS
 62
     7
 10
599.4999999999999
 20
150.4575848682017
 30
0.0
  0
VERTEX
  5
415
  8
1
  6
CONTINUOUS
 62
     7
 10
599.4935831547506
 20
150.5151523710485
 30
0.0
  0
VERTEX
  5
416
  8
1
  6
CONTINUOUS
 62
     7
 10
599.4746071250222
 20
150.5702571955142
 30
0.0
  0
VERTEX
  5
417
  8
1
  6
CONTINUOUS
 62
     7
 10
599.4438836857897
 20
150.6205420140583
 30
0.0
  0
VERTEX
  5
418
  8
1
  6
CONTINUOUS
 62
     7
 10
599.4027271540868
 20
150.6638556940208
 30
0.0
  0
VERTEX
  5
419
  8
1
  6
CONTINUOUS
 62
     7
 10
599.3528981638799
 20
150.6983453208584
 30
0.0
  0
SEQEND
  5
55B
  8
1
  6
CONTINUOUS
 62
     7
  0
LINE
  5
205
  8
1
  6
CONTINUOUS
 62
     7
 10
599.4999999999999
 20
150.4575848682017
 30
0.0
 11
599.4999999999999
 21
62.12269368383605
 31
0.0
  0
LINE
  5
206
  8
1
  6
CONTINUOUS
 62
     7
 10
620.5
 20
150.4575848682017
 30
0.0
 11
620.5
 21
62.12269368383605
 31
0.0
  0
POLYLINE
  5
207
  8
1
  6
CONTINUOUS
 62
     7
 66
     1
 10
0.0
 20
0.0
 30
0.0
  0
VERTEX
  5
41A
  8
1
  6
CONTINUOUS
 62
     7
 10
620.6471018361199
 20
150.6983453208585
 30
0.0
  0
VERTEX
  5
41B
  8
1
  6
CONTINUOUS
 62
     7
 10
620.5972728459129
 20
150.6638556940209
 30
0.0
  0
VERTEX
  5
41C
  8
1
  6
CONTINUOUS
 62
     7
 10
620.55611631421
 20
150.6205420140583
 30
0.0
  0
VERTEX
  5
41D
  8
1
  6
CONTINUOUS
 62
     7
 10
620.5253928749776
 20
150.5702571955142
 30
0.0
  0
VERTEX
  5
41E
  8
1
  6
CONTINUOUS
 62
     7
 10
620.5064168452492
 20
150.5151523710485
 30
0.0
  0
VERTEX
  5
41F
  8
1
  6
CONTINUOUS
 62
     7
 10
620.4999999999999
 20
150.4575848682017
 30
0.0
  0
SEQEND
  5
55C
  8
1
  6
CONTINUOUS
 62
     7
  0
POLYLINE
  5
208
  8
1
  6
CONTINUOUS
 62
     7
 66
     1
 10
0.0
 20
0.0
 30
0.0
  0
VERTEX
  5
420
  8
1
  6
CONTINUOUS
 62
     7
 10
622.1
 20
150.4575848682017
 30
0.0
  0
VERTEX
  5
421
  8
1
  6
CONTINUOUS
 62
     7
 10
622.0935831547507
 20
150.5151523710485
 30
0.0
  0
VERTEX
  5
422
  8
1
  6
CONTINUOUS
 62
     7
 10
622.0746071250223
 20
150.5702571955142
 30
0.0
  0
VERTEX
  5
423
  8
1
  6
CONTINUOUS
 62
     7
 10
622.0438836857899
 20
150.6205420140583
 30
0.0
  0
VERTEX
  5
424
  8
1
  6
CONTINUOUS
 62
     7
 10
622.002727154087
 20
150.6638556940209
 30
0.0
  0
VERTEX
  5
425
  8
1
  6
CONTINUOUS
 62
     7
 10
621.95289816388
 20
150.6983453208585
 30
0.0
  0
SEQEND
  5
55D
  8
1
  6
CONTINUOUS
 62
     7
  0
LINE
  5
209
  8
1
  6
CONTINUOUS
 62
     7
 10
622.1
 20
150.4575848682017
 30
0.0
 11
622.1
 21
62.1226936838361
 31
0.0
  0
POLYLINE
  5
20A
  8
1
  6
CONTINUOUS
 62
     7
 66
     1
 10
0.0
 20
0.0
 30
0.0
  0
VERTEX
  5
426
  8
1
  6
CONTINUOUS
 62
     7
 10
598.0471018361199
 20
150.6983453208585
 30
0.0
  0
VERTEX
  5
427
  8
1
  6
CONTINUOUS
 62
     7
 10
597.9972728459129
 20
150.6638556940209
 30
0.0
  0
VERTEX
  5
428
  8
1
  6
CONTINUOUS
 62
     7
 10
597.95611631421
 20
150.6205420140583
 30
0.0
  0
VERTEX
  5
429
  8
1
  6
CONTINUOUS
 62
     7
 10
597.9253928749775
 20
150.5702571955142
 30
0.0
  0
VERTEX
  5
42A
  8
1
  6
CONTINUOUS
 62
     7
 10
597.9064168452492
 20
150.5151523710485
 30
0.0
  0
VERTEX
  5
42B
  8
1
  6
CONTINUOUS
 62
     7
 10
597.8999999999999
 20
150.4575848682017
 30
0.0
  0
SEQEND
  5
55E
  8
1
  6
CONTINUOUS
 62
     7
  0
LINE
  5
20B
  8
1
  6
CONTINUOUS
 62
     7
 10
597.9
 20
150.4575848682017
 30
0.0
 11
597.9
 21
62.1226936838361
 31
0.0
  0
LINE
  5
20C
  8
1
  6
CONTINUOUS
 62
     7
 10
599.4999999999999
 20
150.2710303292651
 30
0.0
 11
600.0
 21
150.2710303292651
 31
0.0
  0
LINE
  5
20D
  8
1
  6
CONTINUOUS
 62
     7
 10
620.0
 20
150.2710303292651
 30
0.0
 11
620.4999999999999
 21
150.2710303292651
 31
0.0
  0
ARC
  5
20E
  8
1
  6
CONTINUOUS
 62
     7
 10
604.8396325073425
 20
132.3795022642561
 30
0.0
 40
4.851294434952388
 50
183.9735714052922
 51
271.8943510577816
  0
ARC
  5
20F
  8
1
  6
CONTINUOUS
 62
     7
 10
604.8279886551101
 20
132.6432537421451
 30
0.0
 40
4.839305865068593
 50
183.919227319542
 51
272.0369864656783
  0
ARC
  5
210
  8
1
  6
CONTINUOUS
 62
     7
 10
615.164332255645
 20
132.6517756840516
 30
0.0
 40
4.847556035081421
 50
268.0572996041478
 51
355.9864866106318
  0
LINE
  5
211
  8
1
  6
CONTINUOUS
 62
     7
 10
605.0
 20
127.8070058832243
 30
0.0
 11
615.0
 21
127.8070058832243
 31
0.0
  0
ARC
  5
212
  8
1
  6
CONTINUOUS
 62
     7
 10
615.1680021570796
 20
132.3710427389925
 30
0.0
 40
4.843098369077834
 50
268.0120688533966
 51
356.1200086835299
  0
LINE
  5
213
  8
1
  6
CONTINUOUS
 62
     7
 10
605.0
 20
127.5308591590257
 30
0.0
 11
615.0
 21
127.5308591590257
 31
0.0
  0
LINE
  5
214
  8
1
  6
CONTINUOUS
 62
     7
 10
600.0
 20
61.6773063161639
 30
0.0
 11
620.0
 21
61.6773063161639
 31
0.0
  0
ARC
  5
215
  8
1
  6
CONTINUOUS
 62
     7
 10
610.0
 20
175.9098581293407
 30
0.0
 40
6.999999999999985
 50
242.7971055877856
 51
297.2028944122143
  0
POLYLINE
  5
216
  8
1
  6
CONTINUOUS
 62
     7
 66
     1
 10
0.0
 20
0.0
 30
0.0
  0
VERTEX
  5
42C
  8
1
  6
CONTINUOUS
 62
     7
 10
610.0
 20
178.5598009119691
 30
0.0
  0
VERTEX
  5
42D
  8
1
  6
CONTINUOUS
 62
     7
 10
611.3656322541129
 20
178.6462577977319
 30
0.0
  0
VERTEX
  5
42E
  8
1
  6
CONTINUOUS
 62
     7
 10
612.6787840265556
 20
178.9023059653861
 30
0.0
  0
VERTEX
  5
42F
  8
1
  6
CONTINUOUS
 62
     7
 10
613.8889916311372
 20
179.3181056274422
 30
0.0
  0
VERTEX
  5
430
  8
1
  6
CONTINUOUS
 62
     7
 10
614.9497474683059
 20
179.8776778360705
 30
0.0
  0
VERTEX
  5
431
  8
1
  6
CONTINUOUS
 62
     7
 10
615.8202872861178
 20
180.5595185451052
 30
0.0
  0
VERTEX
  5
432
  8
1
  6
CONTINUOUS
 62
     7
 10
616.467156727579
 20
181.3374249984787
 30
0.0
  0
VERTEX
  5
433
  8
1
  6
CONTINUOUS
 62
     7
 10
616.8654969628226
 20
182.1815026874428
 30
0.0
  0
VERTEX
  5
434
  8
1
  6
CONTINUOUS
 62
     7
 10
617.0
 20
183.0593141797748
 30
0.0
  0
SEQEND
  5
55F
  8
1
  6
CONTINUOUS
 62
     7
  0
POLYLINE
  5
217
  8
1
  6
CONTINUOUS
 62
     7
 66
     1
 10
0.0
 20
0.0
 30
0.0
  0
VERTEX
  5
435
  8
1
  6
CONTINUOUS
 62
     7
 10
603.0
 20
183.0593141797748
 30
0.0
  0
VERTEX
  5
436
  8
1
  6
CONTINUOUS
 62
     7
 10
603.1345030371774
 20
182.1815026874428
 30
0.0
  0
VERTEX
  5
437
  8
1
  6
CONTINUOUS
 62
     7
 10
603.532843272421
 20
181.3374249984787
 30
0.0
  0
VERTEX
  5
438
  8
1
  6
CONTINUOUS
 62
     7
 10
604.1797127138822
 20
180.5595185451052
 30
0.0
  0
VERTEX
  5
439
  8
1
  6
CONTINUOUS
 62
     7
 10
605.0502525316941
 20
179.8776778360705
 30
0.0
  0
VERTEX
  5
43A
  8
1
  6
CONTINUOUS
 62
     7
 10
606.1110083688628
 20
179.3181056274422
 30
0.0
  0
VERTEX
  5
43B
  8
1
  6
CONTINUOUS
 62
     7
 10
607.3212159734444
 20
178.9023059653861
 30
0.0
  0
VERTEX
  5
43C
  8
1
  6
CONTINUOUS
 62
     7
 10
608.6343677458871
 20
178.6462577977319
 30
0.0
  0
VERTEX
  5
43D
  8
1
  6
CONTINUOUS
 62
     7
 10
610.0
 20
178.5598009119691
 30
0.0
  0
SEQEND
  5
560
  8
1
  6
CONTINUOUS
 62
     7
  0
POLYLINE
  5
218
  8
1
  6
CONTINUOUS
 62
     7
 66
     1
 10
0.0
 20
0.0
 30
0.0
  0
VERTEX
  5
43E
  8
1
  6
CONTINUOUS
 62
     7
 10
617.0
 20
183.0593141797748
 30
0.0
  0
VERTEX
  5
43F
  8
1
  6
CONTINUOUS
 62
     7
 10
616.8654969628226
 20
183.9371256721069
 30
0.0
  0
VERTEX
  5
440
  8
1
  6
CONTINUOUS
 62
     7
 10
616.467156727579
 20
184.781203361071
 30
0.0
  0
VERTEX
  5
441
  8
1
  6
CONTINUOUS
 62
     7
 10
615.8202872861178
 20
185.5591098144445
 30
0.0
  0
VERTEX
  5
442
  8
1
  6
CONTINUOUS
 62
     7
 10
614.9497474683059
 20
186.2409505234791
 30
0.0
  0
VERTEX
  5
443
  8
1
  6
CONTINUOUS
 62
     7
 10
613.8889916311372
 20
186.8005227321075
 30
0.0
  0
VERTEX
  5
444
  8
1
  6
CONTINUOUS
 62
     7
 10
612.6787840265556
 20
187.2163223941636
 30
0.0
  0
VERTEX
  5
445
  8
1
  6
CONTINUOUS
 62
     7
 10
611.3656322541129
 20
187.4723705618178
 30
0.0
  0
VERTEX
  5
446
  8
1
  6
CONTINUOUS
 62
     7
 10
610.0
 20
187.5588274475806
 30
0.0
  0
VERTEX
  5
447
  8
1
  6
CONTINUOUS
 62
     7
 10
608.6343677458871
 20
187.4723705618178
 30
0.0
  0
VERTEX
  5
448
  8
1
  6
CONTINUOUS
 62
     7
 10
607.3212159734444
 20
187.2163223941636
 30
0.0
  0
VERTEX
  5
449
  8
1
  6
CONTINUOUS
 62
     7
 10
606.1110083688627
 20
186.8005227321075
 30
0.0
  0
VERTEX
  5
44A
  8
1
  6
CONTINUOUS
 62
     7
 10
605.0502525316941
 20
186.2409505234791
 30
0.0
  0
VERTEX
  5
44B
  8
1
  6
CONTINUOUS
 62
     7
 10
604.1797127138822
 20
185.5591098144445
 30
0.0
  0
VERTEX
  5
44C
  8
1
  6
CONTINUOUS
 62
     7
 10
603.532843272421
 20
184.781203361071
 30
0.0
  0
VERTEX
  5
44D
  8
1
  6
CONTINUOUS
 62
     7
 10
603.1345030371774
 20
183.9371256721069
 30
0.0
  0
VERTEX
  5
44E
  8
1
  6
CONTINUOUS
 62
     7
 10
603.0
 20
183.0593141797748
 30
0.0
  0
SEQEND
  5
561
  8
1
  6
CONTINUOUS
 62
     7
  0
POLYLINE
  5
219
  8
1
  6
CONTINUOUS
 62
     7
 66
     1
 10
0.0
 20
0.0
 30
0.0
  0
VERTEX
  5
44F
  8
1
  6
CONTINUOUS
 62
     7
 10
603.0
 20
182.6762919582153
 30
0.0
  0
VERTEX
  5
450
  8
1
  6
CONTINUOUS
 62
     7
 10
603.1345030371774
 20
181.7984804658832
 30
0.0
  0
VERTEX
  5
451
  8
1
  6
CONTINUOUS
 62
     7
 10
603.532843272421
 20
180.9544027769191
 30
0.0
  0
VERTEX
  5
452
  8
1
  6
CONTINUOUS
 62
     7
 10
604.1797127138822
 20
180.1764963235456
 30
0.0
  0
VERTEX
  5
453
  8
1
  6
CONTINUOUS
 62
     7
 10
605.0502525316941
 20
179.494655614511
 30
0.0
  0
VERTEX
  5
454
  8
1
  6
CONTINUOUS
 62
     7
 10
606.1110083688628
 20
178.9350834058826
 30
0.0
  0
VERTEX
  5
455
  8
1
  6
CONTINUOUS
 62
     7
 10
607.3212159734444
 20
178.5192837438265
 30
0.0
  0
VERTEX
  5
456
  8
1
  6
CONTINUOUS
 62
     7
 10
608.6343677458871
 20
178.2632355761723
 30
0.0
  0
VERTEX
  5
457
  8
1
  6
CONTINUOUS
 62
     7
 10
610.0
 20
178.1767786904095
 30
0.0
  0
SEQEND
  5
562
  8
1
  6
CONTINUOUS
 62
     7
  0
POLYLINE
  5
21A
  8
1
  6
CONTINUOUS
 62
     7
 66
     1
 10
0.0
 20
0.0
 30
0.0
  0
VERTEX
  5
458
  8
1
  6
CONTINUOUS
 62
     7
 10
610.0
 20
178.1767786904095
 30
0.0
  0
VERTEX
  5
459
  8
1
  6
CONTINUOUS
 62
     7
 10
611.3656322541129
 20
178.2632355761723
 30
0.0
  0
VERTEX
  5
45A
  8
1
  6
CONTINUOUS
 62
     7
 10
612.6787840265556
 20
178.5192837438265
 30
0.0
  0
VERTEX
  5
45B
  8
1
  6
CONTINUOUS
 62
     7
 10
613.8889916311372
 20
178.9350834058826
 30
0.0
  0
VERTEX
  5
45C
  8
1
  6
CONTINUOUS
 62
     7
 10
614.9497474683059
 20
179.494655614511
 30
0.0
  0
VERTEX
  5
45D
  8
1
  6
CONTINUOUS
 62
     7
 10
615.8202872861178
 20
180.1764963235456
 30
0.0
  0
VERTEX
  5
45E
  8
1
  6
CONTINUOUS
 62
     7
 10
616.467156727579
 20
180.9544027769191
 30
0.0
  0
VERTEX
  5
45F
  8
1
  6
CONTINUOUS
 62
     7
 10
616.8654969628226
 20
181.7984804658832
 30
0.0
  0
VERTEX
  5
460
  8
1
  6
CONTINUOUS
 62
     7
 10
617.0
 20
182.6762919582153
 30
0.0
  0
SEQEND
  5
563
  8
1
  6
CONTINUOUS
 62
     7
  0
LINE
  5
21B
  8
1
  6
CONTINUOUS
 62
     7
 10
607.5
 20
178.4497957997987
 30
0.0
 11
607.5987616311259
 21
178.4497957997987
 31
0.0
  0
LINE
  5
21C
  8
1
  6
CONTINUOUS
 62
     7
 10
612.401238368874
 20
178.4497957997987
 30
0.0
 11
612.4999999999999
 21
178.4497957997987
 31
0.0
  0
POLYLINE
  5
21D
  8
1
  6
CONTINUOUS
 62
     7
 66
     1
 10
0.0
 20
0.0
 30
0.0
  0
VERTEX
  5
461
  8
1
  6
CONTINUOUS
 62
     7
 10
612.4999999999999
 20
178.4497957997987
 30
0.0
  0
VERTEX
  5
462
  8
1
  6
CONTINUOUS
 62
     7
 10
612.5937557559148
 20
178.4554965528373
 30
0.0
  0
VERTEX
  5
463
  8
1
  6
CONTINUOUS
 62
     7
 10
612.6841855086376
 20
178.47239657666
 30
0.0
  0
VERTEX
  5
464
  8
1
  6
CONTINUOUS
 62
     7
 10
612.7680812455691
 20
178.4998963397218
 30
0.0
  0
VERTEX
  5
465
  8
1
  6
CONTINUOUS
 62
     7
 10
612.8424667495572
 20
178.5370202827215
 30
0.0
  0
VERTEX
  5
466
  8
1
  6
CONTINUOUS
 62
     7
 10
612.9047031807645
 20
178.5824514267523
 30
0.0
  0
SEQEND
  5
564
  8
1
  6
CONTINUOUS
 62
     7
  0
POLYLINE
  5
21E
  8
1
  6
CONTINUOUS
 62
     7
 66
     1
 10
0.0
 20
0.0
 30
0.0
  0
VERTEX
  5
467
  8
1
  6
CONTINUOUS
 62
     7
 10
607.0952968192355
 20
178.5824514267524
 30
0.0
  0
VERTEX
  5
468
  8
1
  6
CONTINUOUS
 62
     7
 10
607.1575332504427
 20
178.5370202827215
 30
0.0
  0
VERTEX
  5
469
  8
1
  6
CONTINUOUS
 62
     7
 10
607.2319187544309
 20
178.4998963397218
 30
0.0
  0
VERTEX
  5
46A
  8
1
  6
CONTINUOUS
 62
     7
 10
607.3158144913623
 20
178.4723965766601
 30
0.0
  0
VERTEX
  5
46B
  8
1
  6
CONTINUOUS
 62
     7
 10
607.4062442440851
 20
178.4554965528374
 30
0.0
  0
VERTEX
  5
46C
  8
1
  6
CONTINUOUS
 62
     7
 10
607.5
 20
178.4497957997987
 30
0.0
  0
SEQEND
  5
565
  8
1
  6
CONTINUOUS
 62
     7
  0
ARC
  5
21F
  8
1
  6
CONTINUOUS
 62
     7
 10
610.0
 20
175.313591470627
 30
0.0
 40
2.600000000000047
 50
180.0
 51
0.0
  0
ARC
  5
220
  8
1
  6
CONTINUOUS
 62
     7
 10
610.0
 20
175.3135914706271
 30
0.0
 40
3.000000000000038
 50
150.0735651333857
 51
29.92643486661438
  0
ARC
  5
221
  8
1
  6
CONTINUOUS
 62
     7
 10
610.0
 20
177.9226936838361
 30
0.0
 40
3.199999999999981
 50
166.9100444220712
 51
180.0
  0
ARC
  5
222
  8
1
  6
CONTINUOUS
 62
     7
 10
610.0
 20
177.9226936838361
 30
0.0
 40
3.200000000000001
 50
0.0
 51
13.08995557792883
  0
POLYLINE
  5
223
  8
1
  6
CONTINUOUS
 62
     7
 66
     1
 10
0.0
 20
0.0
 30
0.0
  0
VERTEX
  5
46D
  8
1
  6
CONTINUOUS
 62
     7
 10
613.1999999999999
 20
172.5292562339921
 30
0.0
  0
VERTEX
  5
46E
  8
1
  6
CONTINUOUS
 62
     7
 10
613.2192147195967
 20
172.4038545922303
 30
0.0
  0
VERTEX
  5
46F
  8
1
  6
CONTINUOUS
 62
     7
 10
613.2761204674887
 20
172.2832720652355
 30
0.0
  0
VERTEX
  5
470
  8
1
  6
CONTINUOUS
 62
     7
 10
613.3685303876974
 20
172.1721425718964
 30
0.0
  0
VERTEX
  5
471
  8
1
  6
CONTINUOUS
 62
     7
 10
613.4928932188134
 20
172.07473675632
 30
0.0
  0
VERTEX
  5
472
  8
1
  6
CONTINUOUS
 62
     7
 10
613.6444297669804
 20
171.9947978693731
 30
0.0
  0
VERTEX
  5
473
  8
1
  6
CONTINUOUS
 62
     7
 10
613.8173165676349
 20
171.9353979176508
 30
0.0
  0
VERTEX
  5
474
  8
1
  6
CONTINUOUS
 62
     7
 10
614.0049096779838
 20
171.8988196079859
 30
0.0
  0
VERTEX
  5
475
  8
1
  6
CONTINUOUS
 62
     7
 10
614.1999999999999
 20
171.8864686243055
 30
0.0
  0
SEQEND
  5
566
  8
1
  6
CONTINUOUS
 62
     7
  0
POLYLINE
  5
224
  8
1
  6
CONTINUOUS
 62
     7
 66
     1
 10
0.0
 20
0.0
 30
0.0
  0
VERTEX
  5
476
  8
1
  6
CONTINUOUS
 62
     7
 10
613.1999999999999
 20
174.9805984519728
 30
0.0
  0
VERTEX
  5
477
  8
1
  6
CONTINUOUS
 62
     7
 10
613.2192147195967
 20
174.8551968102111
 30
0.0
  0
VERTEX
  5
478
  8
1
  6
CONTINUOUS
 62
     7
 10
613.2761204674887
 20
174.7346142832162
 30
0.0
  0
VERTEX
  5
479
  8
1
  6
CONTINUOUS
 62
     7
 10
613.3685303876973
 20
174.6234847898772
 30
0.0
  0
VERTEX
  5
47A
  8
1
  6
CONTINUOUS
 62
     7
 10
613.4928932188134
 20
174.5260789743008
 30
0.0
  0
VERTEX
  5
47B
  8
1
  6
CONTINUOUS
 62
     7
 10
613.6444297669802
 20
174.4461400873539
 30
0.0
  0
VERTEX
  5
47C
  8
1
  6
CONTINUOUS
 62
     7
 10
613.8173165676347
 20
174.3867401356316
 30
0.0
  0
VERTEX
  5
47D
  8
1
  6
CONTINUOUS
 62
     7
 10
614.0049096779837
 20
174.3501618259667
 30
0.0
  0
VERTEX
  5
47E
  8
1
  6
CONTINUOUS
 62
     7
 10
614.1999999999998
 20
174.3378108422862
 30
0.0
  0
SEQEND
  5
567
  8
1
  6
CONTINUOUS
 62
     7
  0
POLYLINE
  5
225
  8
1
  6
CONTINUOUS
 62
     7
 66
     1
 10
0.0
 20
0.0
 30
0.0
  0
VERTEX
  5
47F
  8
1
  6
CONTINUOUS
 62
     7
 10
593.0
 20
177.551748890719
 30
0.0
  0
VERTEX
  5
480
  8
1
  6
CONTINUOUS
 62
     7
 10
593.0960735979838
 20
176.9247406819103
 30
0.0
  0
VERTEX
  5
481
  8
1
  6
CONTINUOUS
 62
     7
 10
593.3806023374435
 20
176.321828046936
 30
0.0
  0
VERTEX
  5
482
  8
1
  6
CONTINUOUS
 62
     7
 10
593.8426519384873
 20
175.7661805802406
 30
0.0
  0
VERTEX
  5
483
  8
1
  6
CONTINUOUS
 62
     7
 10
594.4644660940672
 20
175.2791515023587
 30
0.0
  0
VERTEX
  5
484
  8
1
  6
CONTINUOUS
 62
     7
 10
595.222148834902
 20
174.8794570676242
 30
0.0
  0
VERTEX
  5
485
  8
1
  6
CONTINUOUS
 62
     7
 10
596.0865828381745
 20
174.5824573090127
 30
0.0
  0
VERTEX
  5
486
  8
1
  6
CONTINUOUS
 62
     7
 10
597.0245483899193
 20
174.3995657606883
 30
0.0
  0
VERTEX
  5
487
  8
1
  6
CONTINUOUS
 62
     7
 10
598.0
 20
174.3378108422863
 30
0.0
  0
SEQEND
  5
568
  8
1
  6
CONTINUOUS
 62
     7
  0
POLYLINE
  5
226
  8
1
  6
CONTINUOUS
 62
     7
 66
     1
 10
0.0
 20
0.0
 30
0.0
  0
VERTEX
  5
488
  8
1
  6
CONTINUOUS
 62
     7
 10
593.0
 20
175.1004066727382
 30
0.0
  0
VERTEX
  5
489
  8
1
  6
CONTINUOUS
 62
     7
 10
593.0960735979838
 20
174.4733984639296
 30
0.0
  0
VERTEX
  5
48A
  8
1
  6
CONTINUOUS
 62
     7
 10
593.3806023374435
 20
173.8704858289553
 30
0.0
  0
VERTEX
  5
48B
  8
1
  6
CONTINUOUS
 62
     7
 10
593.8426519384873
 20
173.3148383622599
 30
0.0
  0
VERTEX
  5
48C
  8
1
  6
CONTINUOUS
 62
     7
 10
594.4644660940672
 20
172.827809284378
 30
0.0
  0
VERTEX
  5
48D
  8
1
  6
CONTINUOUS
 62
     7
 10
595.222148834902
 20
172.4281148496435
 30
0.0
  0
VERTEX
  5
48E
  8
1
  6
CONTINUOUS
 62
     7
 10
596.0865828381745
 20
172.131115091032
 30
0.0
  0
VERTEX
  5
48F
  8
1
  6
CONTINUOUS
 62
     7
 10
597.0245483899193
 20
171.9482235427076
 30
0.0
  0
VERTEX
  5
490
  8
1
  6
CONTINUOUS
 62
     7
 10
598.0
 20
171.8864686243055
 30
0.0
  0
SEQEND
  5
569
  8
1
  6
CONTINUOUS
 62
     7
  0
LINE
  5
227
  8
1
  6
CONTINUOUS
 62
     7
 10
598.0
 20
171.8864686243055
 30
0.0
 11
605.8
 21
171.8864686243055
 31
0.0
  0
LINE
  5
228
  8
1
  6
CONTINUOUS
 62
     7
 10
598.0
 20
174.3378108422862
 30
0.0
 11
605.8
 21
174.3378108422862
 31
0.0
  0
LINE
  5
229
  8
1
  6
CONTINUOUS
 62
     7
 10
622.0
 20
174.3378108422862
 30
0.0
 11
614.1999999999999
 21
174.3378108422862
 31
0.0
  0
LINE
  5
22A
  8
1
  6
CONTINUOUS
 62
     7
 10
622.0
 20
171.8864686243055
 30
0.0
 11
614.1999999999999
 21
171.8864686243055
 31
0.0
  0
POLYLINE
  5
22B
  8
1
  6
CONTINUOUS
 62
     7
 66
     1
 10
0.0
 20
0.0
 30
0.0
  0
VERTEX
  5
491
  8
1
  6
CONTINUOUS
 62
     7
 10
622.0
 20
171.8864686243055
 30
0.0
  0
VERTEX
  5
492
  8
1
  6
CONTINUOUS
 62
     7
 10
622.9754516100807
 20
171.9482235427076
 30
0.0
  0
VERTEX
  5
493
  8
1
  6
CONTINUOUS
 62
     7
 10
623.9134171618255
 20
172.131115091032
 30
0.0
  0
VERTEX
  5
494
  8
1
  6
CONTINUOUS
 62
     7
 10
624.777851165098
 20
172.4281148496435
 30
0.0
  0
VERTEX
  5
495
  8
1
  6
CONTINUOUS
 62
     7
 10
625.5355339059328
 20
172.827809284378
 30
0.0
  0
VERTEX
  5
496
  8
1
  6
CONTINUOUS
 62
     7
 10
626.1573480615127
 20
173.3148383622599
 30
0.0
  0
VERTEX
  5
497
  8
1
  6
CONTINUOUS
 62
     7
 10
626.6193976625565
 20
173.8704858289553
 30
0.0
  0
VERTEX
  5
498
  8
1
  6
CONTINUOUS
 62
     7
 10
626.9039264020162
 20
174.4733984639296
 30
0.0
  0
VERTEX
  5
499
  8
1
  6
CONTINUOUS
 62
     7
 10
627.0
 20
175.1004066727382
 30
0.0
  0
SEQEND
  5
56A
  8
1
  6
CONTINUOUS
 62
     7
  0
POLYLINE
  5
22C
  8
1
  6
CONTINUOUS
 62
     7
 66
     1
 10
0.0
 20
0.0
 30
0.0
  0
VERTEX
  5
49A
  8
1
  6
CONTINUOUS
 62
     7
 10
622.0
 20
174.3378108422863
 30
0.0
  0
VERTEX
  5
49B
  8
1
  6
CONTINUOUS
 62
     7
 10
622.9754516100807
 20
174.3995657606883
 30
0.0
  0
VERTEX
  5
49C
  8
1
  6
CONTINUOUS
 62
     7
 10
623.9134171618255
 20
174.5824573090127
 30
0.0
  0
VERTEX
  5
49D
  8
1
  6
CONTINUOUS
 62
     7
 10
624.777851165098
 20
174.8794570676242
 30
0.0
  0
VERTEX
  5
49E
  8
1
  6
CONTINUOUS
 62
     7
 10
625.5355339059328
 20
175.2791515023587
 30
0.0
  0
VERTEX
  5
49F
  8
1
  6
CONTINUOUS
 62
     7
 10
626.1573480615127
 20
175.7661805802406
 30
0.0
  0
VERTEX
  5
4A0
  8
1
  6
CONTINUOUS
 62
     7
 10
626.6193976625565
 20
176.321828046936
 30
0.0
  0
VERTEX
  5
4A1
  8
1
  6
CONTINUOUS
 62
     7
 10
626.9039264020162
 20
176.9247406819103
 30
0.0
  0
VERTEX
  5
4A2
  8
1
  6
CONTINUOUS
 62
     7
 10
627.0
 20
177.551748890719
 30
0.0
  0
SEQEND
  5
56B
  8
1
  6
CONTINUOUS
 62
     7
  0
POLYLINE
  5
22D
  8
1
  6
CONTINUOUS
 62
     7
 66
     1
 10
0.0
 20
0.0
 30
0.0
  0
VERTEX
  5
4A3
  8
1
  6
CONTINUOUS
 62
     7
 10
605.8000000000001
 20
174.3378108422862
 30
0.0
  0
VERTEX
  5
4A4
  8
1
  6
CONTINUOUS
 62
     7
 10
605.9950903220162
 20
174.3501618259667
 30
0.0
  0
VERTEX
  5
4A5
  8
1
  6
CONTINUOUS
 62
     7
 10
606.1826834323651
 20
174.3867401356316
 30
0.0
  0
VERTEX
  5
4A6
  8
1
  6
CONTINUOUS
 62
     7
 10
606.3555702330196
 20
174.4461400873539
 30
0.0
  0
VERTEX
  5
4A7
  8
1
  6
CONTINUOUS
 62
     7
 10
606.5071067811865
 20
174.5260789743008
 30
0.0
  0
VERTEX
  5
4A8
  8
1
  6
CONTINUOUS
 62
     7
 10
606.6314696123026
 20
174.6234847898772
 30
0.0
  0
VERTEX
  5
4A9
  8
1
  6
CONTINUOUS
 62
     7
 10
606.7238795325112
 20
174.7346142832162
 30
0.0
  0
VERTEX
  5
4AA
  8
1
  6
CONTINUOUS
 62
     7
 10
606.7807852804032
 20
174.8551968102111
 30
0.0
  0
VERTEX
  5
4AB
  8
1
  6
CONTINUOUS
 62
     7
 10
606.8
 20
174.9805984519728
 30
0.0
  0
SEQEND
  5
56C
  8
1
  6
CONTINUOUS
 62
     7
  0
POLYLINE
  5
22E
  8
1
  6
CONTINUOUS
 62
     7
 66
     1
 10
0.0
 20
0.0
 30
0.0
  0
VERTEX
  5
4AC
  8
1
  6
CONTINUOUS
 62
     7
 10
605.8
 20
171.8864686243055
 30
0.0
  0
VERTEX
  5
4AD
  8
1
  6
CONTINUOUS
 62
     7
 10
605.995090322016
 20
171.8988196079859
 30
0.0
  0
VERTEX
  5
4AE
  8
1
  6
CONTINUOUS
 62
     7
 10
606.182683432365
 20
171.9353979176508
 30
0.0
  0
VERTEX
  5
4AF
  8
1
  6
CONTINUOUS
 62
     7
 10
606.3555702330195
 20
171.9947978693731
 30
0.0
  0
VERTEX
  5
4B0
  8
1
  6
CONTINUOUS
 62
     7
 10
606.5071067811865
 20
172.07473675632
 30
0.0
  0
VERTEX
  5
4B1
  8
1
  6
CONTINUOUS
 62
     7
 10
606.6314696123025
 20
172.1721425718964
 30
0.0
  0
VERTEX
  5
4B2
  8
1
  6
CONTINUOUS
 62
     7
 10
606.7238795325112
 20
172.2832720652355
 30
0.0
  0
VERTEX
  5
4B3
  8
1
  6
CONTINUOUS
 62
     7
 10
606.7807852804032
 20
172.4038545922303
 30
0.0
  0
VERTEX
  5
4B4
  8
1
  6
CONTINUOUS
 62
     7
 10
606.8
 20
172.5292562339921
 30
0.0
  0
SEQEND
  5
56D
  8
1
  6
CONTINUOUS
 62
     7
  0
LINE
  5
22F
  8
1
  6
CONTINUOUS
 62
     7
 10
624.0
 20
153.8497301304975
 30
0.0
 11
620.0
 21
153.8497301304975
 31
0.0
  0
LINE
  5
230
  8
1
  6
CONTINUOUS
 62
     7
 10
600.0
 20
153.8497301304975
 30
0.0
 11
596.0
 21
153.8497301304975
 31
0.0
  0
LINE
  5
231
  8
1
  6
CONTINUOUS
 62
     7
 10
624.0
 20
150.6983453208584
 30
0.0
 11
620.0
 21
150.6983453208584
 31
0.0
  0
LINE
  5
232
  8
1
  6
CONTINUOUS
 62
     7
 10
600.0
 20
150.6983453208584
 30
0.0
 11
596.0
 21
150.6983453208584
 31
0.0
  0
POLYLINE
  5
233
  8
1
  6
CONTINUOUS
 62
     7
 66
     1
 10
0.0
 20
0.0
 30
0.0
  0
VERTEX
  5
4B5
  8
1
  6
CONTINUOUS
 62
     7
 10
620.2784997659176
 20
156.0203323513341
 30
0.0
  0
VERTEX
  5
4B6
  8
1
  6
CONTINUOUS
 62
     7
 10
620.2704765409752
 20
156.0358239224964
 30
0.0
  0
VERTEX
  5
4B7
  8
1
  6
CONTINUOUS
 62
     7
 10
620.2466643547021
 20
156.0508183242181
 30
0.0
  0
SEQEND
  5
56E
  8
1
  6
CONTINUOUS
 62
     7
  0
LINE
  5
234
  8
1
  6
CONTINUOUS
 62
     7
 10
617.4999999999999
 20
157.3226936838361
 30
0.0
 11
620.2466643547021
 21
156.0508183242181
 31
0.0
  0
POLYLINE
  5
235
  8
1
  6
CONTINUOUS
 62
     7
 66
     1
 10
0.0
 20
0.0
 30
0.0
  0
VERTEX
  5
4B8
  8
1
  6
CONTINUOUS
 62
     7
 10
624.0
 20
153.8497301304975
 30
0.0
  0
VERTEX
  5
4B9
  8
1
  6
CONTINUOUS
 62
     7
 10
624.5852709660484
 20
153.8597399336246
 30
0.0
  0
VERTEX
  5
4BA
  8
1
  6
CONTINUOUS
 62
     7
 10
625.1480502970953
 20
153.8893846718852
 30
0.0
  0
VERTEX
  5
4BB
  8
1
  6
CONTINUOUS
 62
     7
 10
625.6667106990589
 20
153.937525114613
 30
0.0
  0
VERTEX
  5
4BC
  8
1
  6
CONTINUOUS
 62
     7
 10
626.1213203435597
 20
154.0023112515914
 30
0.0
  0
VERTEX
  5
4BD
  8
1
  6
CONTINUOUS
 62
     7
 10
626.4944088369076
 20
154.0812533879088
 30
0.0
  0
VERTEX
  5
4BE
  8
1
  6
CONTINUOUS
 62
     7
 10
626.7716385975339
 20
154.1713178215377
 30
0.0
  0
VERTEX
  5
4BF
  8
1
  6
CONTINUOUS
 62
     7
 10
626.9423558412097
 20
154.2690434268027
 30
0.0
  0
VERTEX
  5
4C0
  8
1
  6
CONTINUOUS
 62
     7
 10
627.0
 20
154.3706746634983
 30
0.0
  0
SEQEND
  5
56F
  8
1
  6
CONTINUOUS
 62
     7
  0
POLYLINE
  5
236
  8
1
  6
CONTINUOUS
 62
     7
 66
     1
 10
0.0
 20
0.0
 30
0.0
  0
VERTEX
  5
4C1
  8
1
  6
CONTINUOUS
 62
     7
 10
593.0
 20
154.3706746634983
 30
0.0
  0
VERTEX
  5
4C2
  8
1
  6
CONTINUOUS
 62
     7
 10
593.0576441587903
 20
154.2690434268027
 30
0.0
  0
VERTEX
  5
4C3
  8
1
  6
CONTINUOUS
 62
     7
 10
593.2283614024661
 20
154.1713178215377
 30
0.0
  0
VERTEX
  5
4C4
  8
1
  6
CONTINUOUS
 62
     7
 10
593.5055911630924
 20
154.0812533879088
 30
0.0
  0
VERTEX
  5
4C5
  8
1
  6
CONTINUOUS
 62
     7
 10
593.8786796564403
 20
154.0023112515914
 30
0.0
  0
VERTEX
  5
4C6
  8
1
  6
CONTINUOUS
 62
     7
 10
594.3332893009411
 20
153.937525114613
 30
0.0
  0
VERTEX
  5
4C7
  8
1
  6
CONTINUOUS
 62
     7
 10
594.8519497029047
 20
153.8893846718852
 30
0.0
  0
VERTEX
  5
4C8
  8
1
  6
CONTINUOUS
 62
     7
 10
595.4147290339516
 20
153.8597399336246
 30
0.0
  0
VERTEX
  5
4C9
  8
1
  6
CONTINUOUS
 62
     7
 10
596.0
 20
153.8497301304975
 30
0.0
  0
SEQEND
  5
570
  8
1
  6
CONTINUOUS
 62
     7
  0
LINE
  5
237
  8
1
  6
CONTINUOUS
 62
     7
 10
602.5
 20
157.3226936838361
 30
0.0
 11
599.7533356452979
 21
156.0508183242181
 31
0.0
  0
POLYLINE
  5
238
  8
1
  6
CONTINUOUS
 62
     7
 66
     1
 10
0.0
 20
0.0
 30
0.0
  0
VERTEX
  5
4CA
  8
1
  6
CONTINUOUS
 62
     7
 10
599.7533356452977
 20
156.0508183242181
 30
0.0
  0
VERTEX
  5
4CB
  8
1
  6
CONTINUOUS
 62
     7
 10
599.7295234590247
 20
156.0358239224964
 30
0.0
  0
VERTEX
  5
4CC
  8
1
  6
CONTINUOUS
 62
     7
 10
599.7215002340823
 20
156.0203323513341
 30
0.0
  0
SEQEND
  5
571
  8
1
  6
CONTINUOUS
 62
     7
  0
LINE
  5
239
  8
1
  6
CONTINUOUS
 62
     7
 10
600.2215002340822
 20
155.9335082625006
 30
0.0
 11
619.7784997659177
 21
155.9335082625006
 31
0.0
  0
LINE
  5
23A
  8
1
  6
CONTINUOUS
 62
     7
 10
599.5
 20
154.6311469299986
 30
0.0
 11
600.0
 21
154.6311469299986
 31
0.0
  0
LINE
  5
23B
  8
1
  6
CONTINUOUS
 62
     7
 10
620.0
 20
154.6311469299986
 30
0.0
 11
620.4999999999999
 21
154.6311469299986
 31
0.0
  0
LINE
  5
23C
  8
1
  6
CONTINUOUS
 62
     7
 10
620.4999999999999
 20
155.1520914629994
 30
0.0
 11
620.4999999999999
 21
154.6311469299986
 31
0.0
  0
LINE
  5
23D
  8
1
  6
CONTINUOUS
 62
     7
 10
599.5
 20
155.1520914629994
 30
0.0
 11
620.4999999999999
 21
155.1520914629994
 31
0.0
  0
LINE
  5
23E
  8
1
  6
CONTINUOUS
 62
     7
 10
599.5
 20
155.1520914629994
 30
0.0
 11
599.5
 21
154.6311469299986
 31
0.0
  0
POLYLINE
  5
23F
  8
1
  6
CONTINUOUS
 62
     7
 66
     1
 10
0.0
 20
0.0
 30
0.0
  0
VERTEX
  5
4CD
  8
1
  6
CONTINUOUS
 62
     7
 10
593.0
 20
151.2192898538592
 30
0.0
  0
VERTEX
  5
4CE
  8
1
  6
CONTINUOUS
 62
     7
 10
593.0576441587903
 20
151.1176586171636
 30
0.0
  0
VERTEX
  5
4CF
  8
1
  6
CONTINUOUS
 62
     7
 10
593.2283614024661
 20
151.0199330118987
 30
0.0
  0
VERTEX
  5
4D0
  8
1
  6
CONTINUOUS
 62
     7
 10
593.5055911630924
 20
150.9298685782697
 30
0.0
  0
VERTEX
  5
4D1
  8
1
  6
CONTINUOUS
 62
     7
 10
593.8786796564403
 20
150.8509264419523
 30
0.0
  0
VERTEX
  5
4D2
  8
1
  6
CONTINUOUS
 62
     7
 10
594.3332893009411
 20
150.7861403049739
 30
0.0
  0
VERTEX
  5
4D3
  8
1
  6
CONTINUOUS
 62
     7
 10
594.8519497029047
 20
150.7379998622462
 30
0.0
  0
VERTEX
  5
4D4
  8
1
  6
CONTINUOUS
 62
     7
 10
595.4147290339516
 20
150.7083551239855
 30
0.0
  0
VERTEX
  5
4D5
  8
1
  6
CONTINUOUS
 62
     7
 10
596.0
 20
150.6983453208584
 30
0.0
  0
SEQEND
  5
572
  8
1
  6
CONTINUOUS
 62
     7
  0
POLYLINE
  5
240
  8
1
  6
CONTINUOUS
 62
     7
 66
     1
 10
0.0
 20
0.0
 30
0.0
  0
VERTEX
  5
4D6
  8
1
  6
CONTINUOUS
 62
     7
 10
624.0
 20
150.6983453208584
 30
0.0
  0
VERTEX
  5
4D7
  8
1
  6
CONTINUOUS
 62
     7
 10
624.5852709660484
 20
150.7083551239855
 30
0.0
  0
VERTEX
  5
4D8
  8
1
  6
CONTINUOUS
 62
     7
 10
625.1480502970953
 20
150.7379998622461
 30
0.0
  0
VERTEX
  5
4D9
  8
1
  6
CONTINUOUS
 62
     7
 10
625.6667106990589
 20
150.7861403049739
 30
0.0
  0
VERTEX
  5
4DA
  8
1
  6
CONTINUOUS
 62
     7
 10
626.1213203435597
 20
150.8509264419523
 30
0.0
  0
VERTEX
  5
4DB
  8
1
  6
CONTINUOUS
 62
     7
 10
626.4944088369076
 20
150.9298685782697
 30
0.0
  0
VERTEX
  5
4DC
  8
1
  6
CONTINUOUS
 62
     7
 10
626.7716385975339
 20
151.0199330118987
 30
0.0
  0
VERTEX
  5
4DD
  8
1
  6
CONTINUOUS
 62
     7
 10
626.9423558412097
 20
151.1176586171636
 30
0.0
  0
VERTEX
  5
4DE
  8
1
  6
CONTINUOUS
 62
     7
 10
627.0
 20
151.2192898538592
 30
0.0
  0
SEQEND
  5
573
  8
1
  6
CONTINUOUS
 62
     7
  0
POLYLINE
  5
241
  8
1
  6
CONTINUOUS
 62
     7
 66
     1
 10
0.0
 20
0.0
 30
0.0
  0
VERTEX
  5
4DF
  8
1
  6
CONTINUOUS
 62
     7
 10
619.7784997659177
 20
155.9335082625007
 30
0.0
  0
VERTEX
  5
4E0
  8
1
  6
CONTINUOUS
 62
     7
 10
619.8760449269257
 20
155.9351765630219
 30
0.0
  0
VERTEX
  5
4E1
  8
1
  6
CONTINUOUS
 62
     7
 10
619.9698414821002
 20
155.940117352732
 30
0.0
  0
VERTEX
  5
4E2
  8
1
  6
CONTINUOUS
 62
     7
 10
620.0562848824275
 20
155.9481407598533
 30
0.0
  0
VERTEX
  5
4E3
  8
1
  6
CONTINUOUS
 62
     7
 10
620.1320531565109
 20
155.9589384493497
 30
0.0
  0
VERTEX
  5
4E4
  8
1
  6
CONTINUOUS
 62
     7
 10
620.1942345720689
 20
155.9720954720692
 30
0.0
  0
VERTEX
  5
4E5
  8
1
  6
CONTINUOUS
 62
     7
 10
620.2404395321732
 20
155.9871062110074
 30
0.0
  0
VERTEX
  5
4E6
  8
1
  6
CONTINUOUS
 62
     7
 10
620.2688924061192
 20
156.0033938118848
 30
0.0
  0
VERTEX
  5
4E7
  8
1
  6
CONTINUOUS
 62
     7
 10
620.2784997659176
 20
156.0203323513341
 30
0.0
  0
SEQEND
  5
574
  8
1
  6
CONTINUOUS
 62
     7
  0
POLYLINE
  5
242
  8
1
  6
CONTINUOUS
 62
     7
 66
     1
 10
0.0
 20
0.0
 30
0.0
  0
VERTEX
  5
4E8
  8
1
  6
CONTINUOUS
 62
     7
 10
599.7215002340823
 20
156.0203323513341
 30
0.0
  0
VERTEX
  5
4E9
  8
1
  6
CONTINUOUS
 62
     7
 10
599.7311075938807
 20
156.0033938118848
 30
0.0
  0
VERTEX
  5
4EA
  8
1
  6
CONTINUOUS
 62
     7
 10
599.7595604678266
 20
155.9871062110074
 30
0.0
  0
VERTEX
  5
4EB
  8
1
  6
CONTINUOUS
 62
     7
 10
599.805765427931
 20
155.9720954720692
 30
0.0
  0
VERTEX
  5
4EC
  8
1
  6
CONTINUOUS
 62
     7
 10
599.867946843489
 20
155.9589384493497
 30
0.0
  0
VERTEX
  5
4ED
  8
1
  6
CONTINUOUS
 62
     7
 10
599.9437151175724
 20
155.9481407598533
 30
0.0
  0
VERTEX
  5
4EE
  8
1
  6
CONTINUOUS
 62
     7
 10
600.0301585178997
 20
155.940117352732
 30
0.0
  0
VERTEX
  5
4EF
  8
1
  6
CONTINUOUS
 62
     7
 10
600.1239550730742
 20
155.9351765630219
 30
0.0
  0
VERTEX
  5
4F0
  8
1
  6
CONTINUOUS
 62
     7
 10
600.2215002340822
 20
155.9335082625007
 30
0.0
  0
SEQEND
  5
575
  8
1
  6
CONTINUOUS
 62
     7
  0
LINE
  5
243
  8
1
  6
CONTINUOUS
 62
     7
 10
617.4999999999999
 20
155.9335082625006
 30
0.0
 11
617.4999999999999
 21
156.8226936838361
 31
0.0
  0
POLYLINE
  5
244
  8
1
  6
CONTINUOUS
 62
     7
 66
     1
 10
0.0
 20
0.0
 30
0.0
  0
VERTEX
  5
4F1
  8
1
  6
CONTINUOUS
 62
     7
 10
617.0
 20
157.3226936838361
 30
0.0
  0
VERTEX
  5
4F2
  8
1
  6
CONTINUOUS
 62
     7
 10
617.0245338371637
 20
157.3220914119387
 30
0.0
  0
VERTEX
  5
4F3
  8
1
  6
CONTINUOUS
 62
     7
 10
617.0490085701648
 20
157.3202860471722
 30
0.0
  0
VERTEX
  5
4F4
  8
1
  6
CONTINUOUS
 62
     7
 10
617.0733652372277
 20
157.3172819388185
 30
0.0
  0
VERTEX
  5
4F5
  8
1
  6
CONTINUOUS
 62
     7
 10
617.097545161008
 20
157.3130863240377
 30
0.0
  0
VERTEX
  5
4F6
  8
1
  6
CONTINUOUS
 62
     7
 10
617.1214900899516
 20
157.3077093104334
 30
0.0
  0
VERTEX
  5
4F7
  8
1
  6
CONTINUOUS
 62
     7
 10
617.1451423386271
 20
157.3011638517022
 30
0.0
  0
VERTEX
  5
4F8
  8
1
  6
CONTINUOUS
 62
     7
 10
617.1684449266961
 20
157.2934657164276
 30
0.0
  0
VERTEX
  5
4F9
  8
1
  6
CONTINUOUS
 62
     7
 10
617.1913417161825
 20
157.2846334500917
 30
0.0
  0
VERTEX
  5
4FA
  8
1
  6
CONTINUOUS
 62
     7
 10
617.2137775467152
 20
157.2746883303978
 30
0.0
  0
VERTEX
  5
4FB
  8
1
  6
CONTINUOUS
 62
     7
 10
617.235698368413
 20
157.2636543160103
 30
0.0
  0
VERTEX
  5
4FC
  8
1
  6
CONTINUOUS
 62
     7
 10
617.2570513720966
 20
157.2515579888362
 30
0.0
  0
VERTEX
  5
4FD
  8
1
  6
CONTINUOUS
 62
     7
 10
617.2777851165098
 20
157.2384284899874
 30
0.0
  0
VERTEX
  5
4FE
  8
1
  6
CONTINUOUS
 62
     7
 10
617.2978496522462
 20
157.2242974495764
 30
0.0
  0
VERTEX
  5
4FF
  8
1
  6
CONTINUOUS
 62
     7
 10
617.3171966420819
 20
157.2091989105175
 30
0.0
  0
VERTEX
  5
500
  8
1
  6
CONTINUOUS
 62
     7
 10
617.3357794774234
 20
157.1931692465136
 30
0.0
  0
VERTEX
  5
501
  8
1
  6
CONTINUOUS
 62
     7
 10
617.3535533905932
 20
157.1762470744294
 30
0.0
  0
VERTEX
  5
502
  8
1
  6
CONTINUOUS
 62
     7
 10
617.3704755626774
 20
157.1584731612596
 30
0.0
  0
VERTEX
  5
503
  8
1
  6
CONTINUOUS
 62
     7
 10
617.3865052266814
 20
157.1398903259179
 30
0.0
  0
VERTEX
  5
504
  8
1
  6
CONTINUOUS
 62
     7
 10
617.4016037657402
 20
157.1205433360823
 30
0.0
  0
VERTEX
  5
505
  8
1
  6
CONTINUOUS
 62
     7
 10
617.4157348061512
 20
157.1004788003459
 30
0.0
  0
VERTEX
  5
506
  8
1
  6
CONTINUOUS
 62
     7
 10
617.428864305
 20
157.0797450559327
 30
0.0
  0
VERTEX
  5
507
  8
1
  6
CONTINUOUS
 62
     7
 10
617.4409606321741
 20
157.0583920522491
 30
0.0
  0
VERTEX
  5
508
  8
1
  6
CONTINUOUS
 62
     7
 10
617.4519946465617
 20
157.0364712305513
 30
0.0
  0
VERTEX
  5
509
  8
1
  6
CONTINUOUS
 62
     7
 10
617.4619397662556
 20
157.0140354000186
 30
0.0
  0
VERTEX
  5
50A
  8
1
  6
CONTINUOUS
 62
     7
 10
617.4707720325915
 20
156.9911386105322
 30
0.0
  0
VERTEX
  5
50B
  8
1
  6
CONTINUOUS
 62
     7
 10
617.478470167866
 20
156.9678360224633
 30
0.0
  0
VERTEX
  5
50C
  8
1
  6
CONTINUOUS
 62
     7
 10
617.4850156265973
 20
156.9441837737877
 30
0.0
  0
VERTEX
  5
50D
  8
1
  6
CONTINUOUS
 62
     7
 10
617.4903926402015
 20
156.9202388448442
 30
0.0
  0
VERTEX
  5
50E
  8
1
  6
CONTINUOUS
 62
     7
 10
617.4945882549823
 20
156.8960589210638
 30
0.0
  0
VERTEX
  5
50F
  8
1
  6
CONTINUOUS
 62
     7
 10
617.4975923633361
 20
156.8717022540009
 30
0.0
  0
VERTEX
  5
510
  8
1
  6
CONTINUOUS
 62
     7
 10
617.4993977281026
 20
156.8472275209998
 30
0.0
  0
VERTEX
  5
511
  8
1
  6
CONTINUOUS
 62
     7
 10
617.4999999999999
 20
156.8226936838361
 30
0.0
  0
SEQEND
  5
576
  8
1
  6
CONTINUOUS
 62
     7
  0
POLYLINE
  5
245
  8
1
  6
CONTINUOUS
 62
     7
 66
     1
 10
0.0
 20
0.0
 30
0.0
  0
VERTEX
  5
512
  8
1
  6
CONTINUOUS
 62
     7
 10
603.0
 20
157.3226936838361
 30
0.0
  0
VERTEX
  5
513
  8
1
  6
CONTINUOUS
 62
     7
 10
602.9754661628363
 20
157.3220914119387
 30
0.0
  0
VERTEX
  5
514
  8
1
  6
CONTINUOUS
 62
     7
 10
602.9509914298352
 20
157.3202860471722
 30
0.0
  0
VERTEX
  5
515
  8
1
  6
CONTINUOUS
 62
     7
 10
602.9266347627723
 20
157.3172819388185
 30
0.0
  0
VERTEX
  5
516
  8
1
  6
CONTINUOUS
 62
     7
 10
602.902454838992
 20
157.3130863240377
 30
0.0
  0
VERTEX
  5
517
  8
1
  6
CONTINUOUS
 62
     7
 10
602.8785099100484
 20
157.3077093104334
 30
0.0
  0
VERTEX
  5
518
  8
1
  6
CONTINUOUS
 62
     7
 10
602.8548576613728
 20
157.3011638517022
 30
0.0
  0
VERTEX
  5
519
  8
1
  6
CONTINUOUS
 62
     7
 10
602.8315550733039
 20
157.2934657164276
 30
0.0
  0
VERTEX
  5
51A
  8
1
  6
CONTINUOUS
 62
     7
 10
602.8086582838174
 20
157.2846334500917
 30
0.0
  0
VERTEX
  5
51B
  8
1
  6
CONTINUOUS
 62
     7
 10
602.7862224532848
 20
157.2746883303978
 30
0.0
  0
VERTEX
  5
51C
  8
1
  6
CONTINUOUS
 62
     7
 10
602.764301631587
 20
157.2636543160103
 30
0.0
  0
VERTEX
  5
51D
  8
1
  6
CONTINUOUS
 62
     7
 10
602.7429486279033
 20
157.2515579888362
 30
0.0
  0
VERTEX
  5
51E
  8
1
  6
CONTINUOUS
 62
     7
 10
602.7222148834902
 20
157.2384284899874
 30
0.0
  0
VERTEX
  5
51F
  8
1
  6
CONTINUOUS
 62
     7
 10
602.7021503477538
 20
157.2242974495764
 30
0.0
  0
VERTEX
  5
520
  8
1
  6
CONTINUOUS
 62
     7
 10
602.6828033579181
 20
157.2091989105175
 30
0.0
  0
VERTEX
  5
521
  8
1
  6
CONTINUOUS
 62
     7
 10
602.6642205225764
 20
157.1931692465136
 30
0.0
  0
VERTEX
  5
522
  8
1
  6
CONTINUOUS
 62
     7
 10
602.6464466094067
 20
157.1762470744294
 30
0.0
  0
VERTEX
  5
523
  8
1
  6
CONTINUOUS
 62
     7
 10
602.6295244373225
 20
157.1584731612596
 30
0.0
  0
VERTEX
  5
524
  8
1
  6
CONTINUOUS
 62
     7
 10
602.6134947733186
 20
157.1398903259179
 30
0.0
  0
VERTEX
  5
525
  8
1
  6
CONTINUOUS
 62
     7
 10
602.5983962342597
 20
157.1205433360823
 30
0.0
  0
VERTEX
  5
526
  8
1
  6
CONTINUOUS
 62
     7
 10
602.5842651938486
 20
157.1004788003459
 30
0.0
  0
VERTEX
  5
527
  8
1
  6
CONTINUOUS
 62
     7
 10
602.5711356949998
 20
157.0797450559327
 30
0.0
  0
VERTEX
  5
528
  8
1
  6
CONTINUOUS
 62
     7
 10
602.5590393678258
 20
157.0583920522491
 30
0.0
  0
VERTEX
  5
529
  8
1
  6
CONTINUOUS
 62
     7
 10
602.5480053534382
 20
157.0364712305513
 30
0.0
  0
VERTEX
  5
52A
  8
1
  6
CONTINUOUS
 62
     7
 10
602.5380602337443
 20
157.0140354000186
 30
0.0
  0
VERTEX
  5
52B
  8
1
  6
CONTINUOUS
 62
     7
 10
602.5292279674085
 20
156.9911386105322
 30
0.0
  0
VERTEX
  5
52C
  8
1
  6
CONTINUOUS
 62
     7
 10
602.5215298321339
 20
156.9678360224633
 30
0.0
  0
VERTEX
  5
52D
  8
1
  6
CONTINUOUS
 62
     7
 10
602.5149843734026
 20
156.9441837737877
 30
0.0
  0
VERTEX
  5
52E
  8
1
  6
CONTINUOUS
 62
     7
 10
602.5096073597985
 20
156.9202388448442
 30
0.0
  0
VERTEX
  5
52F
  8
1
  6
CONTINUOUS
 62
     7
 10
602.5054117450176
 20
156.8960589210638
 30
0.0
  0
VERTEX
  5
530
  8
1
  6
CONTINUOUS
 62
     7
 10
602.5024076366639
 20
156.8717022540009
 30
0.0
  0
VERTEX
  5
531
  8
1
  6
CONTINUOUS
 62
     7
 10
602.5006022718974
 20
156.8472275209998
 30
0.0
  0
VERTEX
  5
532
  8
1
  6
CONTINUOUS
 62
     7
 10
602.5
 20
156.8226936838361
 30
0.0
  0
SEQEND
  5
577
  8
1
  6
CONTINUOUS
 62
     7
  0
LINE
  5
246
  8
1
  6
CONTINUOUS
 62
     7
 10
602.5
 20
155.9335082625006
 30
0.0
 11
602.5
 21
156.8226936838361
 31
0.0
  0
LINE
  5
247
  8
1
  6
CONTINUOUS
 62
     7
 10
618.7763932022501
 20
188.2881931562966
 30
0.0
 11
618.1617834407456
 21
188.3226936838361
 31
0.0
  0
LINE
  5
248
  8
1
  6
CONTINUOUS
 62
     7
 10
600.7763932022502
 20
188.2881931562966
 30
0.0
 11
600.1617834407456
 21
188.3226936838361
 31
0.0
  0
LINE
  5
249
  8
1
  6
CONTINUOUS
 62
     7
 10
619.22360679775
 20
188.2881931562966
 30
0.0
 11
618.77639320225
 21
188.2881931562966
 31
0.0
  0
LINE
  5
24A
  8
1
  6
CONTINUOUS
 62
     7
 10
619.8382165592545
 20
188.3226936838361
 30
0.0
 11
619.2236067977499
 21
188.2881931562966
 31
0.0
  0
LINE
  5
24B
  8
1
  6
CONTINUOUS
 62
     7
 10
601.22360679775
 20
188.2881931562966
 30
0.0
 11
600.77639320225
 21
188.2881931562966
 31
0.0
  0
LINE
  5
24C
  8
1
  6
CONTINUOUS
 62
     7
 10
601.8382165592544
 20
188.3226936838361
 30
0.0
 11
601.2236067977499
 21
188.2881931562966
 31
0.0
  0
ARC
  5
24D
  8
1
  6
CONTINUOUS
 62
     7
 10
599.0
 20
173.3226936838361
 30
0.0
 40
1.999999999999988
 50
225.4710554572815
 51
314.101133533001
  0
ARC
  5
24E
  8
1
  6
CONTINUOUS
 62
     7
 10
610.0
 20
167.322693683836
 30
0.0
 40
3.199999999999981
 50
179.999999999998
 51
0.0
  0
ARC
  5
24F
  8
1
  6
CONTINUOUS
 62
     7
 10
621.0
 20
173.3226936838361
 30
0.0
 40
1.99999999999999
 50
225.8988664669989
 51
314.5289445427138
  0
ARC
  5
250
  8
1
  6
CONTINUOUS
 62
     7
 10
599.1999999999999
 20
62.1226936838361
 30
0.0
 40
0.3000000000000017
 50
270.000000000001
 51
359.9999999999987
  0
ARC
  5
251
  8
1
  6
CONTINUOUS
 62
     7
 10
620.8
 20
62.1226936838361
 30
0.0
 40
0.299999999999967
 50
180.0000000000014
 51
269.999999999999
  0
LINE
  5
252
  8
1
  6
CONTINUOUS
 62
     7
 10
620.8
 20
61.82269368383609
 30
0.0
 11
621.8
 21
61.82269368383609
 31
0.0
  0
ARC
  5
253
  8
1
  6
CONTINUOUS
 62
     7
 10
621.8
 20
62.1226936838361
 30
0.0
 40
0.3000000000000017
 50
269.9999999999993
 51
0.0
  0
ARC
  5
254
  8
1
  6
CONTINUOUS
 62
     7
 10
598.1999999999999
 20
62.1226936838361
 30
0.0
 40
0.299999999999967
 50
180.0
 51
270.0000000000007
  0
LINE
  5
255
  8
1
  6
CONTINUOUS
 62
     7
 10
598.1999999999999
 20
61.82269368383609
 30
0.0
 11
599.1999999999999
 21
61.82269368383609
 31
0.0
  0
LINE
  5
256
  8
1
  6
CONTINUOUS
 62
     7
 10
599.4999999999999
 20
62.32269368383609
 30
0.0
 11
600.0
 21
62.32269368383609
 31
0.0
  0
LINE
  5
257
  8
1
  6
CONTINUOUS
 62
     7
 10
620.0
 20
62.32269368383609
 30
0.0
 11
620.5
 21
62.32269368383609
 31
0.0
  0
LINE
  5
258
  8
1
  6
CONTINUOUS
 62
     7
 10
620.0
 20
155.0311469299987
 30
0.0
 11
600.0
 21
155.0311469299987
 31
0.0
  0
LINE
  5
259
  8
1
  6
CONTINUOUS
 62
     7
 10
603.0
 20
183.0593141797748
 30
0.0
 11
603.0
 21
182.6762919582153
 31
0.0
  0
LINE
  5
25A
  8
1
  6
CONTINUOUS
 62
     7
 10
617.0
 20
182.6762919582153
 30
0.0
 11
617.0
 21
183.0593141797748
 31
0.0
  0
LINE
  5
25B
  8
1
  6
CONTINUOUS
 62
     7
 10
600.1617834407456
 20
188.3226936838361
 30
0.0
 11
593.0
 21
188.3226936838361
 31
0.0
  0
LINE
  5
25C
  8
1
  6
CONTINUOUS
 62
     7
 10
618.1617834407456
 20
188.3226936838361
 30
0.0
 11
601.8382165592544
 21
188.3226936838361
 31
0.0
  0
LINE
  5
25D
  8
1
  6
CONTINUOUS
 62
     7
 10
627.0
 20
188.3226936838361
 30
0.0
 11
619.8382165592544
 21
188.3226936838361
 31
0.0
  0
ENDBLK
  8
0
  0
ENDSEC
  0
SECTION
  2
ENTITIES
  0
LINE
  5
70
  8
1
  6
CENTER
 62
     1
 10
489.0845094377617
 20
310.0000000000001
 30
0.0
 11
820.9154905622382
 21
310.0000000000001
 31
0.0
  0
LINE
  5
72
  8
1
  6
CENTER
 62
     1
 10
705.0
 20
63.32269368383614
 30
0.0
 11
705.0
 21
195.0
 31
0.0
  0
LINE
  5
73
  8
1
  6
CENTER
 62
     1
 10
610.0
 20
195.0
 30
0.0
 11
610.0
 21
61.6773063161639
 31
0.0
  0
LINE
  5
74
  8
1
  6
CENTER
 62
     1
 10
660.4962856277002
 20
107.826408056136
 30
0.0
 11
749.5037143722999
 21
107.826408056136
 31
0.0
  0
LINE
  5
75
  8
1
  6
CONTINUOUS
 62
     7
 10
627.0
 20
188.3226936838361
 30
0.0
 11
627.0
 21
151.2192898538592
 31
0.0
  0
LINE
  5
76
  8
1
  6
CONTINUOUS
 62
     7
 10
761.9386089055504
 20
300.0000000000001
 30
0.0
 11
516.879460021576
 21
300.0000000000001
 31
0.0
  0
LINE
  5
77
  8
1
  6
CONTINUOUS
 62
     7
 10
791.5408058138237
 20
315.0000000000001
 30
0.0
 11
795.7499702995106
 21
315.0000000000001
 31
0.0
  0
LINE
  5
78
  8
1
  6
CONTINUOUS
 62
     7
 10
795.7499703058429
 20
305.0000000000001
 30
0.0
 11
791.5408058138237
 21
305.0000000000001
 31
0.0
  0
LINE
  5
79
  8
1
  6
CONTINUOUS
 62
     7
 10
520.1848673109083
 20
322.1
 30
0.0
 11
760.5740527322438
 21
322.1
 31
0.0
  0
LINE
  5
7A
  8
1
  6
CONTINUOUS
 62
     7
 10
520.1848673109083
 20
297.9000000000001
 30
0.0
 11
760.5740527322438
 21
297.9000000000001
 31
0.0
  0
LINE
  5
7B
  8
1
  6
CONTINUOUS
 62
     7
 10
788.1261042793469
 20
293.0000000000001
 30
0.0
 11
763.5740527322438
 21
293.0000000000001
 31
0.0
  0
LINE
  5
7C
  8
1
  6
CONTINUOUS
 62
     7
 10
788.1261042793469
 20
327.0000000000001
 30
0.0
 11
763.5740527322438
 21
327.0000000000001
 31
0.0
  0
LINE
  5
7D
  8
1
  6
CONTINUOUS
 62
     7
 10
612.6
 20
175.313591470627
 30
0.0
 11
612.6
 21
178.4562892732989
 31
0.0
  0
LINE
  5
7E
  8
1
  6
CONTINUOUS
 62
     7
 10
520.1848673109083
 20
299.5000000000001
 30
0.0
 11
760.5740527322438
 21
299.5000000000001
 31
0.0
  0
LINE
  5
7F
  8
1
  6
CONTINUOUS
 62
     7
 10
564.3005151117122
 20
227.8082960901238
 30
0.0
 11
716.4584049314398
 21
227.8082960901238
 31
0.0
  0
LINE
  5
80
  8
1
  6
CONTINUOUS
 62
     7
 10
760.5740527322438
 20
233.0475271021727
 30
0.0
 11
780.5740527322438
 21
233.0475271021727
 31
0.0
  0
LINE
  5
81
  8
1
  6
CONTINUOUS
 62
     7
 10
696.8716371709404
 20
184.420827013193
 30
0.0
 11
681.9337705301203
 21
171.8864686243055
 31
0.0
  0
LINE
  5
82
  8
1
  6
CONTINUOUS
 62
     7
 10
606.8
 20
167.322693683836
 30
0.0
 11
606.8
 21
178.6744550903738
 31
0.0
  0
LINE
  5
83
  8
1
  6
CONTINUOUS
 62
     7
 10
682.1038449397558
 20
153.8497301304975
 30
0.0
 11
701.8000000000001
 21
157.322693683836
 31
0.0
  0
LINE
  5
84
  8
1
  6
CONTINUOUS
 62
     7
 10
705.0
 20
157.3226936838361
 30
0.0
 11
705.0
 21
185.8226936838361
 31
0.0
  0
LINE
  5
85
  8
1
  6
CONTINUOUS
 62
     7
 10
620.0
 20
155.0311469299987
 30
0.0
 11
620.0
 21
61.67730631616389
 31
0.0
  0
LINE
  5
86
  8
1
  6
CONTINUOUS
 62
     7
 10
702.3556741685343
 20
154.1713088741972
 30
0.0
 11
681.9779211834903
 21
150.5781612167213
 31
0.0
  0
LINE
  5
87
  8
1
  6
CONTINUOUS
 62
     7
 10
679.8768501791235
 20
174.3378108422862
 30
0.0
 11
694.8147168199436
 21
186.8721692311737
 31
0.0
  0
LINE
  5
88
  8
1
  6
CONTINUOUS
 62
     7
 10
600.0
 20
155.0311469299987
 30
0.0
 11
600.0
 21
61.67730631616391
 31
0.0
  0
LINE
  5
89
  8
1
  6
CONTINUOUS
 62
     7
 10
727.8961550602442
 20
153.8497301304975
 30
0.0
 11
708.2
 21
157.3226936838361
 31
0.0
  0
LINE
  5
8A
  8
1
  6
CONTINUOUS
 62
     7
 10
714.5
 20
180.9098581293407
 30
0.0
 11
714.5
 21
170.9098581293407
 31
0.0
  0
LINE
  5
8B
  8
1
  6
CONTINUOUS
 62
     7
 10
520.1848673109083
 20
320.5000000000001
 30
0.0
 11
760.5740527322438
 21
320.5000000000001
 31
0.0
  0
LINE
  5
8C
  8
1
  6
CONTINUOUS
 62
     7
 10
607.4
 20
178.4562892732989
 30
0.0
 11
607.4
 21
175.313591470627
 31
0.0
  0
LINE
  5
8D
  8
1
  6
CONTINUOUS
 62
     7
 10
593.0
 20
188.3226936838361
 30
0.0
 11
593.0
 21
151.2192898538592
 31
0.0
  0
LINE
  5
8E
  8
1
  6
CONTINUOUS
 62
     7
 10
613.1999999999999
 20
167.322693683836
 30
0.0
 11
613.1999999999999
 21
178.6744550903738
 31
0.0
  0
LINE
  5
8F
  8
1
  6
CONTINUOUS
 62
     7
 10
707.6443258314658
 20
154.1713088741971
 30
0.0
 11
728.0220788165099
 21
150.5781612167213
 31
0.0
  0
LINE
  5
90
  8
1
  6
CONTINUOUS
 62
     7
 10
761.9386089055504
 20
320.0000000000001
 30
0.0
 11
516.879460021576
 21
320.0000000000001
 31
0.0
  0
LINE
  5
91
  8
1
  6
CONTINUOUS
 62
     7
 10
593.0
 20
157.3226936838361
 30
0.0
 11
627.0
 21
157.3226936838361
 31
0.0
  0
LINE
  5
92
  8
1
  6
CONTINUOUS
 62
     7
 10
708.2
 20
157.3226936838361
 30
0.0
 11
708.2
 21
185.8226936838361
 31
0.0
  0
LINE
  5
93
  8
1
  6
CONTINUOUS
 62
     7
 10
709.5
 20
168.9098581293407
 30
0.0
 11
709.5
 21
182.9098581293407
 31
0.0
  0
LINE
  5
94
  8
1
  6
CONTINUOUS
 62
     7
 10
495.2358942474008
 20
261.1145480630206
 30
0.0
 11
500.1848673109081
 21
233.0475271021727
 31
0.0
  0
ARC
  5
95
  8
1
  6
CONTINUOUS
 62
     9
 10
610.0
 20
175.9098581293407
 30
0.0
 40
2.999999999999975
 50
150.0735651333858
 51
185.703341215574
  0
LINE
  5
96
  8
1
  6
CONTINUOUS
 62
     7
 10
562.2100606156757
 20
231.2082960901238
 30
0.0
 11
523.8794600215758
 21
231.2082960901238
 31
0.0
  0
ARC
  5
97
  8
1
  6
CONTINUOUS
 62
     7
 10
705.0
 20
107.826408056136
 30
0.0
 40
46.00371437229987
 50
111.1287631486715
 51
68.87123685132849
  0
LINE
  5
98
  8
1
  6
CONTINUOUS
 62
     7
 10
517.1848673109083
 20
293.0000000000001
 30
0.0
 11
492.6054539707625
 21
293.0000000000001
 31
0.0
  0
LINE
  5
99
  8
1
  6
CONTINUOUS
 62
     7
 10
755.380460121596
 20
230.4082960901238
 30
0.0
 11
723.8794600215759
 21
230.4082960901238
 31
0.0
  0
LINE
  5
9A
  8
1
  6
CONTINUOUS
 62
     7
 10
763.5386089055504
 20
250.8397801212296
 30
0.0
 11
780.426104279347
 21
260.5897801212296
 31
0.0
  0
LINE
  5
9B
  8
1
  6
CONTINUOUS
 62
     7
 10
500.1848673109083
 20
233.0475271021727
 30
0.0
 11
520.1848673109083
 21
233.0475271021727
 31
0.0
  0
LINE
  5
9C
  8
1
  6
CONTINUOUS
 62
     7
 10
564.3005151117122
 20
231.3082960901238
 30
0.0
 11
718.379460021576
 21
231.3082960901238
 31
0.0
  0
LINE
  5
9D
  8
1
  6
CONTINUOUS
 62
     7
 10
718.5488594274763
 20
231.2082960901238
 30
0.0
 11
756.8794600215763
 21
231.2082960901238
 31
0.0
  0
ARC
  5
9E
  8
1
  6
CONTINUOUS
 62
     7
 10
705.0
 20
107.826408056136
 30
0.0
 40
42.50371437229983
 50
111.1287631486715
 51
68.87123685132848
  0
LINE
  5
9F
  8
1
  6
CONTINUOUS
 62
     7
 10
780.5740527322438
 20
229.8475271021726
 30
0.0
 11
760.5740527322438
 21
229.8475271021726
 31
0.0
  0
LINE
  5
A0
  8
1
  6
CONTINUOUS
 62
     7
 10
788.194319631143
 20
242.4080771344158
 30
0.0
 11
790.6253941184801
 21
256.1953856765867
 31
0.0
  0
LINE
  5
A1
  8
1
  6
CONTINUOUS
 62
     7
 10
525.378459921556
 20
231.6082960901238
 30
0.0
 11
556.8794600215759
 21
231.6082960901238
 31
0.0
  0
LINE
  5
A2
  8
1
  6
CONTINUOUS
 62
     7
 10
789.4745697100589
 20
242.1823345034488
 30
0.0
 11
791.905644197396
 21
255.9696430456197
 31
0.0
  0
LINE
  5
A3
  8
1
  6
CONTINUOUS
 62
     7
 10
688.4172657495199
 20
150.7374166766066
 30
0.0
 11
689.678893656497
 21
147.4727122452167
 31
0.0
  0
LINE
  5
A4
  8
1
  6
CONTINUOUS
 62
     7
 10
517.1848673109083
 20
327.0000000000001
 30
0.0
 11
492.6054539707625
 21
327.0000000000001
 31
0.0
  0
LINE
  5
A5
  8
1
  6
CONTINUOUS
 62
     7
 10
680.5994350100409
 20
151.1746903186128
 30
0.0
 11
672.5622975865914
 21
140.4475238890942
 31
0.0
  0
LINE
  5
A6
  8
1
  6
CONTINUOUS
 62
     7
 10
515.3794600215754
 20
229.3082960901242
 30
0.0
 11
515.3794600215754
 21
225.8082960901242
 31
0.0
  0
LINE
  5
A7
  8
1
  6
CONTINUOUS
 62
     7
 10
737.4377024134088
 20
140.4475238890943
 30
0.0
 11
729.4005649899592
 21
151.1746903186128
 31
0.0
  0
LINE
  5
A8
  8
1
  6
CONTINUOUS
 62
     7
 10
721.5827342504803
 20
150.7374166766066
 30
0.0
 11
720.3211063435031
 21
147.4727122452167
 31
0.0
  0
LINE
  5
A9
  8
1
  6
CONTINUOUS
 62
     7
 10
497.0334825012691
 20
232.4918529336385
 30
0.0
 11
492.0845094377617
 21
260.5588738944864
 31
0.0
  0
LINE
  5
AA
  8
1
  6
CONTINUOUS
 62
     7
 10
727.8961550602442
 20
153.8497301304975
 30
0.0
 11
740.0815363729321
 21
137.5859030411454
 31
0.0
  0
LINE
  5
AB
  8
1
  6
CONTINUOUS
 62
     7
 10
525.378459921556
 20
230.4082960901238
 30
0.0
 11
556.8794600215759
 21
230.4082960901238
 31
0.0
  0
LINE
  5
AC
  8
1
  6
CONTINUOUS
 62
     7
 10
559.5488724706852
 20
230.8082960901238
 30
0.0
 11
523.8794600215758
 21
230.8082960901238
 31
0.0
  0
LINE
  5
AD
  8
1
  6
CONTINUOUS
 62
     7
 10
520.1848673109083
 20
229.8475271021727
 30
0.0
 11
500.1848673109083
 21
229.8475271021729
 31
0.0
  0
LINE
  5
AE
  8
1
  6
CONTINUOUS
 62
     7
 10
755.380460121596
 20
231.6082960901238
 30
0.0
 11
723.8794600215759
 21
231.6082960901238
 31
0.0
  0
LINE
  5
AF
  8
1
  6
CONTINUOUS
 62
     7
 10
796.4823866071222
 20
253.1317866512608
 30
0.0
 11
794.7459048304539
 21
243.2837091211385
 31
0.0
  0
LINE
  5
B0
  8
1
  6
CONTINUOUS
 62
     7
 10
721.2100475724667
 20
230.8082960901238
 30
0.0
 11
756.8794600215763
 21
230.8082960901238
 31
0.0
  0
LINE
  5
B1
  8
1
  6
CONTINUOUS
 62
     7
 10
778.826104279347
 20
263.3610614133398
 30
0.0
 11
761.9386089055504
 21
253.6110614133397
 31
0.0
  0
LINE
  5
B2
  8
1
  6
CONTINUOUS
 62
     7
 10
765.3794600215766
 20
229.3082960901242
 30
0.0
 11
765.3794600215766
 21
225.8082960901242
 31
0.0
  0
LINE
  5
B3
  8
1
  6
CONTINUOUS
 62
     7
 10
682.103844939756
 20
153.8497301304975
 30
0.0
 11
669.9184636270681
 21
137.5859030411455
 31
0.0
  0
INSERT
  5
13F
  8
1
  6
CONTINUOUS
 62
     7
  2
D_FRAME_VIEW_1474
 10
0.0
 20
0.0
 30
0.0
  0
INSERT
  5
187
  8
1
  6
CONTINUOUS
 62
     7
  2
D_FRAME_VIEW_1935
 10
0.0
 20
0.0
 30
0.0
  0
POINT
  5
188
  8
1
 62
     7
 10
610.0
 20
180.0
 30
0.0
  0
POINT
  5
189
  8
1
 62
     1
 10
655.0
 20
310.0000000000001
 30
0.0
  0
POINT
  5
18A
  8
1
 62
     7
 10
605.0
 20
195.0
 30
0.0
  0
INSERT
  5
1FF
  8
1
  6
CONTINUOUS
 62
     7
  2
D_FRAME_VIEW_1933
 10
0.0
 20
0.0
 30
0.0
  0
INSERT
  5
25E
  8
1
  6
CONTINUOUS
 62
     7
  2
D_FRAME_VIEW_2185
 10
0.0
 20
0.0
 30
0.0
  0
TEXT
  5
25F
  8
1
  6
CONTINUOUS
 62
     7
 10
650.345379517319
 20
204.1606352382143
 30
0.0
 40
8.0
  1
YHF-65
  0
ENDSEC
  0
EOF
