  0
SECTION
  2
HEADER
  9
$ACADVER
  1
AC1006
  9
$DWGCODEPAGE
  3
ansi_932
  9
$INSBASE
 10
0.0
 20
0.0
 30
0.0
  9
$EXTMIN
 10
0.0
 20
0.0
  9
$EXTMAX
 10
847.4154905622382
 20
327.0000000000002
  9
$LIMMIN
 10
0.0
 20
0.0
  9
$LIMMAX
 10
12.0
 20
9.0
  9
$ORTHOMODE
 70
     0
  9
$REGENMODE
 70
     1
  9
$FILLMODE
 70
     1
  9
$QTEXTMODE
 70
     0
  9
$MIRRTEXT
 70
     1
  9
$DRAGMODE
 70
     2
  9
$LTSCALE
 40
1.0
  9
$OSMODE
 70
    37
  9
$ATTMODE
 70
     1
  9
$TEXTSIZE
 40
0.2
  9
$TRACEWID
 40
0.05
  9
$TEXTSTYLE
  7
STANDARD
  9
$CLAYER
  8
0
  9
$CELTYPE
  6
BYLAYER
  9
$CECOLOR
 62
   256
  9
$DIMSCALE
 40
1.0
  9
$DIMASZ
 40
3.0
  9
$DIMEXO
 40
0.0625
  9
$DIMDLI
 40
0.38
  9
$DIMRND
 40
0.0
  9
$DIMDLE
 40
0.0
  9
$DIMEXE
 40
1.5
  9
$DIMTP
 40
0.0
  9
$DIMTM
 40
0.0
  9
$DIMTXT
 40
3.0
  9
$DIMCEN
 40
0.09
  9
$DIMTSZ
 40
0.0
  9
$DIMTOL
 70
     0
  9
$DIMLIM
 70
     0
  9
$DIMTIH
 70
     1
  9
$DIMTOH
 70
     1
  9
$DIMSE1
 70
     0
  9
$DIMSE2
 70
     0
  9
$DIMTAD
 70
     1
  9
$DIMZIN
 70
     0
  9
$DIMBLK
  1

  9
$DIMASO
 70
     1
  9
$DIMSHO
 70
     1
  9
$DIMPOST
  1

  9
$DIMAPOST
  1

  9
$DIMALT
 70
     0
  9
$DIMALTD
 70
     2
  9
$DIMALTF
 40
25.4
  9
$DIMLFAC
 40
1.0
  9
$DIMTOFL
 70
     0
  9
$DIMTVP
 40
0.0
  9
$DIMTIX
 70
     0
  9
$DIMSOXD
 70
     0
  9
$DIMSAH
 70
     0
  9
$DIMBLK1
  1

  9
$DIMBLK2
  1

  9
$LUNITS
 70
     2
  9
$LUPREC
 70
     4
  9
$SKETCHINC
 40
0.1
  9
$FILLETRAD
 40
0.5
  9
$AUNITS
 70
     0
  9
$AUPREC
 70
     0
  9
$MENU
  1
.
  9
$ELEVATION
 40
0.0
  9
$THICKNESS
 40
0.0
  9
$LIMCHECK
 70
     0
  9
$CHAMFERA
 40
0.0
  9
$CHAMFERB
 40
0.0
  9
$SKPOLY
 70
     0
  9
$TDCREATE
 40
2460455.755449884
  9
$TDUPDATE
 40
2460455.755450197
  9
$TDINDWG
 40
0.0000000116
  9
$TDUSRTIMER
 40
0.0000000116
  9
$USRTIMER
 70
     1
  9
$ANGBASE
 50
0.0
  9
$ANGDIR
 70
     0
  9
$PDMODE
 70
     0
  9
$PDSIZE
 40
0.0
  9
$PLINEWID
 40
0.0
  9
$COORDS
 70
     1
  9
$SPLFRAME
 70
     0
  9
$SPLINETYPE
 70
     6
  9
$SPLINESEGS
 70
     8
  9
$ATTDIA
 70
     0
  9
$ATTREQ
 70
     1
  9
$HANDLING
 70
     1
  9
$HANDSEED
  5
55B
  9
$SURFTAB1
 70
     6
  9
$SURFTAB2
 70
     6
  9
$SURFTYPE
 70
     6
  9
$SURFU
 70
     6
  9
$SURFV
 70
     6
  9
$UCSNAME
  2

  9
$UCSORG
 10
0.0
 20
0.0
 30
0.0
  9
$UCSXDIR
 10
1.0
 20
0.0
 30
0.0
  9
$UCSYDIR
 10
0.0
 20
1.0
 30
0.0
  9
$USERI1
 70
     0
  9
$USERI2
 70
     0
  9
$USERI3
 70
     0
  9
$USERI4
 70
     0
  9
$USERI5
 70
     0
  9
$USERR1
 40
0.0
  9
$USERR2
 40
0.0
  9
$USERR3
 40
0.0
  9
$USERR4
 40
0.0
  9
$USERR5
 40
0.0
  9
$WORLDVIEW
 70
     1
  0
ENDSEC
  0
SECTION
  2
TABLES
  0
TABLE
  2
VPORT
 70
     1
  0
VPORT
  2
*ACTIVE
 70
     0
 10
0.0
 20
0.0
 11
1.0
 21
1.0
 12
423.7077452811191
 22
163.5000000000001
 13
0.0
 23
0.0
 14
0.5
 24
0.5
 15
0.5
 25
0.5
 16
0.0
 26
0.0
 36
1.0
 17
0.0
 27
0.0
 37
0.0
 40
327.0000000000002
 41
1.6
 42
50.0
 43
0.0
 44
0.0
 50
0.0
 51
0.0
 71
     0
 72
   100
 73
     1
 74
     3
 75
     0
 76
     0
 77
     0
 78
     0
  0
ENDTAB
  0
TABLE
  2
LTYPE
 70
     2
  0
LTYPE
  2
CONTINUOUS
 70
     0
  3
Solid line
 72
    65
 73
     0
 40
0.0
  0
LTYPE
  2
CENTER
 70
     0
  3

 72
    65
 73
     0
 40
0.0
  0
ENDTAB
  0
TABLE
  2
LAYER
 70
     2
  0
LAYER
  2
0
 70
     0
 62
     7
  6
CONTINUOUS
  0
LAYER
  2
1
 70
     0
 62
     7
  6
CONTINUOUS
  0
ENDTAB
  0
TABLE
  2
STYLE
 70
     2
  0
STYLE
  2
STANDARD
 70
     0
 40
0.0
 41
1.0
 50
0.0
 71
     0
 42
0.2
  3
txt
  4

  0
STYLE
  2
ＭＳ_ゴシック
 70
     0
 40
0.0
 41
1.0
 50
0.0
 71
     0
 42
0.2
  3
ＭＳ ゴシック.shx
  4

  0
ENDTAB
  0
TABLE
  2
VIEW
 70
     0
  0
ENDTAB
  0
TABLE
  2
UCS
 70
     0
  0
ENDTAB
  0
ENDSEC
  0
SECTION
  2
BLOCKS
  0
BLOCK
  8
0
  2
D_FRAME_VIEW_1474
 70
     0
 10
0.0
 20
0.0
 30
0.0
  0
LINE
  5
B7
  8
1
  6
CONTINUOUS
 62
     7
 10
783.3794600215763
 20
230.8082960901238
 30
0.0
 11
783.3794600215763
 21
231.2082960901238
 31
0.0
  0
LINE
  5
B8
  8
1
  6
CONTINUOUS
 62
     7
 10
497.3794600215758
 20
230.8082960901238
 30
0.0
 11
497.3794600215758
 21
231.2082960901238
 31
0.0
  0
LINE
  5
B9
  8
1
  6
CONTINUOUS
 62
     7
 10
785.4862012763236
 20
229.5832757606033
 30
0.0
 11
783.2613000223456
 21
229.9755858810912
 31
0.0
  0
ARC
  5
BA
  8
1
  6
CONTINUOUS
 62
     7
 10
779.4584049314399
 20
208.4082960901239
 30
0.0
 40
21.89999999999997
 50
80.00000000000004
 51
89.99999999999973
  0
ARC
  5
BB
  8
1
  6
CONTINUOUS
 62
     7
 10
788.6292332920946
 20
247.4082960901238
 30
0.0
 40
18.10000000000009
 50
260.0000000000016
 51
269.9999999999998
  0
ARC
  5
BC
  8
1
  6
CONTINUOUS
 62
     7
 10
752.1292332920945
 20
248.4082960901238
 30
0.0
 40
18.1
 50
260.0000000000003
 51
270.0
  0
ARC
  5
BD
  8
1
  6
CONTINUOUS
 62
     7
 10
742.9584049314398
 20
209.4082960901239
 30
0.0
 40
21.89999999999999
 50
79.99999999999997
 51
90.00000000000001
  0
LINE
  5
BE
  8
1
  6
CONTINUOUS
 62
     7
 10
748.9862012763232
 20
230.583275760603
 30
0.0
 11
746.7613000223456
 21
230.9755858810912
 31
0.0
  0
LINE
  5
BF
  8
1
  6
CONTINUOUS
 62
     7
 10
779.4584049314399
 20
230.3082960901239
 30
0.0
 11
752.1292332920945
 21
230.3082960901238
 31
0.0
  0
LINE
  5
C0
  8
1
  6
CONTINUOUS
 62
     7
 10
791.8794600215766
 20
229.3082960901242
 30
0.0
 11
788.6292332920945
 21
229.3082960901237
 31
0.0
  0
ARC
  5
C1
  8
1
  6
CONTINUOUS
 62
     7
 10
492.1296867510575
 20
247.4082960901238
 30
0.0
 40
18.10000000000009
 50
270.0000000000002
 51
279.9999999999986
  0
LINE
  5
C2
  8
1
  6
CONTINUOUS
 62
     7
 10
495.2727187668284
 20
229.5832757606033
 30
0.0
 11
497.4976200208064
 21
229.9755858810912
 31
0.0
  0
ARC
  5
C3
  8
1
  6
CONTINUOUS
 62
     7
 10
501.3005151117122
 20
208.4082960901239
 30
0.0
 40
21.89999999999999
 50
90.00000000000034
 51
99.99999999999994
  0
LINE
  5
C4
  8
1
  6
CONTINUOUS
 62
     7
 10
531.7727187668288
 20
230.583275760603
 30
0.0
 11
533.9976200208064
 21
230.9755858810912
 31
0.0
  0
ARC
  5
C5
  8
1
  6
CONTINUOUS
 62
     7
 10
537.8005151117122
 20
209.4082960901239
 30
0.0
 40
21.89999999999999
 50
90.0
 51
100.0
  0
ARC
  5
C6
  8
1
  6
CONTINUOUS
 62
     7
 10
528.6296867510575
 20
248.4082960901238
 30
0.0
 40
18.1
 50
270.0
 51
279.9999999999998
  0
LINE
  5
C7
  8
1
  6
CONTINUOUS
 62
     7
 10
501.300515111712
 20
230.3082960901239
 30
0.0
 11
528.6296867510575
 21
230.3082960901238
 31
0.0
  0
LINE
  5
C8
  8
1
  6
CONTINUOUS
 62
     7
 10
488.8794600215754
 20
229.3082960901242
 30
0.0
 11
492.1296867510576
 21
229.3082960901237
 31
0.0
  0
LINE
  5
C9
  8
1
  6
CONTINUOUS
 62
     7
 10
755.879460021576
 20
232.1082960901238
 30
0.0
 11
762.879460021576
 21
232.1082960901238
 31
0.0
  0
LINE
  5
CA
  8
1
  6
CONTINUOUS
 62
     7
 10
770.879460021576
 20
232.1082960901238
 30
0.0
 11
777.879460021576
 21
232.1082960901238
 31
0.0
  0
LINE
  5
CB
  8
1
  6
CONTINUOUS
 62
     7
 10
750.379460021576
 20
230.4082960901238
 30
0.0
 11
750.379460021576
 21
230.8082960901238
 31
0.0
  0
LINE
  5
CC
  8
1
  6
CONTINUOUS
 62
     7
 10
750.379460021576
 20
231.6082960901238
 30
0.0
 11
750.379460021576
 21
231.2082960901238
 31
0.0
  0
ARC
  5
CD
  8
1
  6
CONTINUOUS
 62
     7
 10
781.880460121596
 20
237.2082960901238
 30
0.0
 40
5.599999999999998
 50
270.0
 51
315.5729959991943
  0
ARC
  5
CE
  8
1
  6
CONTINUOUS
 62
     7
 10
786.879460021576
 20
232.3082960901238
 30
0.0
 40
1.400000000000012
 50
90.0
 51
135.572995999194
  0
LINE
  5
CF
  8
1
  6
CONTINUOUS
 62
     7
 10
790.379460021576
 20
233.7082960901238
 30
0.0
 11
786.879460021576
 21
233.7082960901238
 31
0.0
  0
ARC
  5
D0
  8
1
  6
CONTINUOUS
 62
     7
 10
790.379460021576
 20
232.3082960901238
 30
0.0
 40
1.399999999999956
 50
31.87191672161674
 51
90.0
  0
LINE
  5
D1
  8
1
  6
CONTINUOUS
 62
     7
 10
791.779460021576
 20
229.7082960901238
 30
0.0
 11
791.779460021576
 21
229.8475271021726
 31
0.0
  0
ARC
  5
D2
  8
1
  6
CONTINUOUS
 62
     7
 10
781.880460121596
 20
224.8082960901238
 30
0.0
 40
5.599999999999991
 50
62.08797745975784
 51
90.00000000000001
  0
ARC
  5
D3
  8
1
  6
CONTINUOUS
 62
     7
 10
790.379460021576
 20
229.7082960901238
 30
0.0
 40
0.9999999999999423
 50
336.4218215218223
 51
0.0
  0
ARC
  5
D4
  8
1
  6
CONTINUOUS
 62
     7
 10
790.379460021576
 20
229.7082960901238
 30
0.0
 40
1.399999999999957
 50
343.3984504009968
 51
0.0
  0
ARC
  5
D5
  8
1
  6
CONTINUOUS
 62
     7
 10
790.379460021576
 20
232.3082960901238
 30
0.0
 40
1.000000000000001
 50
47.66595073467459
 51
90.0
  0
LINE
  5
D6
  8
1
  6
CONTINUOUS
 62
     7
 10
791.3794600215759
 20
229.8475271021726
 30
0.0
 11
791.3794600215759
 21
229.7082960901238
 31
0.0
  0
ARC
  5
D7
  8
1
  6
CONTINUOUS
 62
     7
 10
781.880460121596
 20
224.8082960901238
 30
0.0
 40
6.000000000000005
 50
52.63552651277519
 51
90.0
  0
LINE
  5
D8
  8
1
  6
CONTINUOUS
 62
     7
 10
786.879460021576
 20
233.3082960901238
 30
0.0
 11
790.379460021576
 21
233.3082960901238
 31
0.0
  0
ARC
  5
D9
  8
1
  6
CONTINUOUS
 62
     7
 10
781.880460121596
 20
237.2082960901238
 30
0.0
 40
6.000000000000005
 50
270.0
 51
315.5729959991941
  0
ARC
  5
DA
  8
1
  6
CONTINUOUS
 62
     7
 10
786.879460021576
 20
232.3082960901238
 30
0.0
 40
1.000000000000006
 50
90.0
 51
135.5729959991953
  0
LINE
  5
DB
  8
1
  6
CONTINUOUS
 62
     7
 10
524.879460021576
 20
232.1082960901238
 30
0.0
 11
517.879460021576
 21
232.1082960901238
 31
0.0
  0
LINE
  5
DC
  8
1
  6
CONTINUOUS
 62
     7
 10
509.879460021576
 20
232.1082960901238
 30
0.0
 11
502.879460021576
 21
232.1082960901238
 31
0.0
  0
LINE
  5
DD
  8
1
  6
CONTINUOUS
 62
     7
 10
530.3794600215759
 20
230.4082960901238
 30
0.0
 11
530.3794600215759
 21
230.8082960901238
 31
0.0
  0
ARC
  5
DE
  8
1
  6
CONTINUOUS
 62
     7
 10
498.878459921556
 20
237.2082960901238
 30
0.0
 40
6.000000000000005
 50
224.4270040008057
 51
270.0
  0
ARC
  5
DF
  8
1
  6
CONTINUOUS
 62
     7
 10
493.879460021576
 20
232.3082960901238
 30
0.0
 40
1.000000000000026
 50
44.42700400080587
 51
90.00000000000001
  0
LINE
  5
E0
  8
1
  6
CONTINUOUS
 62
     7
 10
493.879460021576
 20
233.3082960901238
 30
0.0
 11
490.379460021576
 21
233.3082960901238
 31
0.0
  0
ARC
  5
E1
  8
1
  6
CONTINUOUS
 62
     7
 10
490.379460021576
 20
232.3082960901238
 30
0.0
 40
1.000000000000001
 50
90.0
 51
132.3340492653249
  0
LINE
  5
E2
  8
1
  6
CONTINUOUS
 62
     7
 10
489.379460021576
 20
229.8475271021727
 30
0.0
 11
489.379460021576
 21
229.7082960901238
 31
0.0
  0
ARC
  5
E3
  8
1
  6
CONTINUOUS
 62
     7
 10
490.379460021576
 20
229.7082960901238
 30
0.0
 40
0.9999999999999931
 50
180.0
 51
203.5781784781777
  0
ARC
  5
E4
  8
1
  6
CONTINUOUS
 62
     7
 10
498.878459921556
 20
224.8082960901238
 30
0.0
 40
6.000000000000005
 50
90.0
 51
127.3644734872805
  0
ARC
  5
E5
  8
1
  6
CONTINUOUS
 62
     7
 10
490.379460021576
 20
229.7082960901238
 30
0.0
 40
1.400000000000012
 50
180.0
 51
196.6015495990034
  0
LINE
  5
E6
  8
1
  6
CONTINUOUS
 62
     7
 10
488.979460021576
 20
229.7082960901238
 30
0.0
 11
488.979460021576
 21
229.8475271021727
 31
0.0
  0
ARC
  5
E7
  8
1
  6
CONTINUOUS
 62
     7
 10
490.379460021576
 20
232.3082960901238
 30
0.0
 40
1.400000000000003
 50
90.0
 51
148.1280832783822
  0
LINE
  5
E8
  8
1
  6
CONTINUOUS
 62
     7
 10
490.379460021576
 20
233.7082960901238
 30
0.0
 11
493.879460021576
 21
233.7082960901238
 31
0.0
  0
ARC
  5
E9
  8
1
  6
CONTINUOUS
 62
     7
 10
493.879460021576
 20
232.3082960901238
 30
0.0
 40
1.400000000000012
 50
44.42700400080599
 51
90.0
  0
ARC
  5
EA
  8
1
  6
CONTINUOUS
 62
     7
 10
498.878459921556
 20
237.2082960901238
 30
0.0
 40
5.599999999999998
 50
224.4270040008057
 51
270.0
  0
ARC
  5
EB
  8
1
  6
CONTINUOUS
 62
     7
 10
498.878459921556
 20
224.8082960901238
 30
0.0
 40
5.599999999999991
 50
90.0
 51
117.9120225402422
  0
LINE
  5
EC
  8
1
  6
CONTINUOUS
 62
     7
 10
530.3794600215759
 20
231.6082960901238
 30
0.0
 11
530.3794600215759
 21
231.2082960901238
 31
0.0
  0
LINE
  5
ED
  8
1
  6
CONTINUOUS
 62
     7
 10
821.1730692046546
 20
245.4424009279798
 30
0.0
 11
816.688827843126
 21
246.2330936680261
 31
0.0
  0
ARC
  5
EE
  8
1
  6
CONTINUOUS
 62
     7
 10
818.6071626783586
 20
244.357177162495
 30
0.0
 40
2.785962476929839
 50
351.4588154626584
 51
22.92543200538228
  0
ARC
  5
EF
  8
1
  6
CONTINUOUS
 62
     7
 10
818.5377154421795
 20
244.5452083087979
 30
0.0
 40
2.887911492576666
 50
317.6435929533621
 51
347.9721595785865
  0
LINE
  5
F0
  8
1
  6
CONTINUOUS
 62
     7
 10
820.671790094053
 20
242.5995058214716
 30
0.0
 11
816.1875487325245
 21
243.3901985615179
 31
0.0
  0
LINE
  5
F1
  8
1
  6
CONTINUOUS
 62
     7
 10
822.6769065364589
 20
253.9710862475042
 30
0.0
 11
818.1926651749303
 21
254.7617789875505
 31
0.0
  0
ARC
  5
F2
  8
1
  6
CONTINUOUS
 62
     7
 10
820.1110000101643
 20
252.8858624820194
 30
0.0
 40
2.785962476928619
 50
351.4588154626563
 51
22.92543200539347
  0
ARC
  5
F3
  8
1
  6
CONTINUOUS
 62
     7
 10
820.0415527739837
 20
253.0738936283225
 30
0.0
 40
2.887911492576905
 50
317.6435929533634
 51
347.9721595785857
  0
LINE
  5
F4
  8
1
  6
CONTINUOUS
 62
     7
 10
822.1756274258573
 20
251.1281911409961
 30
0.0
 11
817.6913860643289
 21
251.9188838810424
 31
0.0
  0
ARC
  5
F5
  8
1
  6
CONTINUOUS
 62
     7
 10
812.1574412819089
 20
249.8782270437526
 30
0.0
 40
10.09586370050618
 50
350.4759411721716
 51
7.112012601827303
  0
ARC
  5
F6
  8
1
  6
CONTINUOUS
 62
     7
 10
811.8761420755512
 20
250.1490451118214
 30
0.0
 40
10.42042962248431
 50
333.1488196457628
 51
349.263226580243
  0
LINE
  5
F7
  8
1
  6
CONTINUOUS
 62
     7
 10
792.664184191663
 20
256.7979216925254
 30
0.0
 11
804.7885398446451
 21
263.7979216925254
 31
0.0
  0
LINE
  5
F8
  8
1
  6
CONTINUOUS
 62
     7
 10
792.9141841916631
 20
256.3649089906331
 30
0.0
 11
805.0385398446452
 21
263.3649089906331
 31
0.0
  0
LINE
  5
F9
  8
1
  6
CONTINUOUS
 62
     7
 10
844.4154905622382
 20
247.4227624736466
 30
0.0
 11
843.3736014962366
 21
241.5139159555734
 31
0.0
  0
LINE
  5
FA
  8
1
  6
CONTINUOUS
 62
     7
 10
796.4518429653159
 20
258.2375042548246
 30
0.0
 11
796.3782858068009
 21
258.3649089906331
 31
0.0
  0
LINE
  5
FB
  8
1
  6
CONTINUOUS
 62
     7
 10
801.5744382295076
 20
261.3649089906331
 30
0.0
 11
801.6479953880225
 21
261.2375042548247
 31
0.0
  0
ARC
  5
FC
  8
1
  6
CONTINUOUS
 62
     7
 10
473.6848673109083
 20
233.0475271021727
 30
0.0
 40
3.199999999999989
 50
189.9999999999998
 51
269.9999999999999
  0
LINE
  5
FD
  8
1
  6
CONTINUOUS
 62
     7
 10
465.5845094377618
 20
260.5588738944864
 30
0.0
 11
468.7358942474008
 21
261.1145480630206
 31
0.0
  0
LINE
  5
FE
  8
1
  6
CONTINUOUS
 62
     7
 10
493.6848673109083
 20
233.0475271021727
 30
0.0
 11
493.6848673109083
 21
229.8475271021727
 31
0.0
  0
LINE
  5
FF
  8
1
  6
CONTINUOUS
 62
     7
 10
790.0386089055504
 20
250.8397801212295
 30
0.0
 11
788.4386089055505
 21
253.6110614133398
 31
0.0
  0
LINE
  5
100
  8
1
  6
CONTINUOUS
 62
     7
 10
811.3805275383836
 20
257.4707593768754
 30
0.0
 11
807.0740527322438
 21
233.0475271021727
 31
0.0
  0
ARC
  5
101
  8
1
  6
CONTINUOUS
 62
     7
 10
808.426104279347
 20
257.9917039098763
 30
0.0
 40
3.000000000000039
 50
350.0000000000011
 51
119.999999999999
  0
ARC
  5
102
  8
1
  6
CONTINUOUS
 62
     7
 10
808.426104279347
 20
257.9917039098763
 30
0.0
 40
6.199999999999977
 50
350.0000000000001
 51
119.9999999999994
  0
LINE
  5
103
  8
1
  6
CONTINUOUS
 62
     7
 10
810.2254375418829
 20
232.4918529336385
 30
0.0
 11
814.5319123480227
 21
256.9150852083413
 31
0.0
  0
ARC
  5
104
  8
1
  6
CONTINUOUS
 62
     7
 10
807.0740527322438
 20
233.0475271021727
 30
0.0
 40
3.200000000000008
 50
270.0
 51
349.9999999999999
  0
LINE
  5
105
  8
1
  6
CONTINUOUS
 62
     7
 10
787.0740527322437
 20
229.8475271021727
 30
0.0
 11
787.0740527322437
 21
233.0475271021727
 31
0.0
  0
LINE
  5
106
  8
1
  6
CONTINUOUS
 62
     7
 10
814.7414922805724
 20
249.4655163448517
 30
0.0
 11
814.2205477475717
 21
246.5110930858151
 31
0.0
  0
ARC
  5
107
  8
1
  6
CONTINUOUS
 62
     7
 10
788.6292332920946
 20
247.4082960901238
 30
0.0
 40
21.6000000000001
 50
260.0000000000012
 51
269.9999999999998
  0
LINE
  5
108
  8
1
  6
CONTINUOUS
 62
     7
 10
782.653531400512
 20
226.5287587455488
 30
0.0
 11
784.8784326544888
 21
226.1364486250606
 31
0.0
  0
LINE
  5
109
  8
1
  6
CONTINUOUS
 62
     7
 10
788.6292332920953
 20
225.8082960901242
 30
0.0
 11
791.8794600215766
 21
225.8082960901242
 31
0.0
  0
LINE
  5
10A
  8
1
  6
CONTINUOUS
 62
     7
 10
752.1292332920947
 20
226.8082960901239
 30
0.0
 11
779.4584049314399
 21
226.8082960901239
 31
0.0
  0
ARC
  5
10B
  8
1
  6
CONTINUOUS
 62
     7
 10
779.4584049314399
 20
208.4082960901239
 30
0.0
 40
18.39999999999997
 50
80.0
 51
89.99999999999966
  0
ARC
  5
10C
  8
1
  6
CONTINUOUS
 62
     7
 10
752.1292332920945
 20
248.4082960901238
 30
0.0
 40
21.6
 50
260.0000000000003
 51
270.0000000000001
  0
LINE
  5
10D
  8
1
  6
CONTINUOUS
 62
     7
 10
746.1535314005114
 20
227.5287587455486
 30
0.0
 11
748.3784326544887
 21
227.1364486250603
 31
0.0
  0
ARC
  5
10E
  8
1
  6
CONTINUOUS
 62
     7
 10
742.9584049314398
 20
209.4082960901239
 30
0.0
 40
18.39999999999997
 50
80.00000000000004
 51
90.0
  0
ARC
  5
10F
  8
1
  6
CONTINUOUS
 62
     7
 10
492.1296867510575
 20
247.4082960901238
 30
0.0
 40
21.60000000000006
 50
270.0000000000001
 51
279.9999999999987
  0
LINE
  5
110
  8
1
  6
CONTINUOUS
 62
     7
 10
495.8804873886632
 20
226.1364486250606
 30
0.0
 11
498.1053886426401
 21
226.5287587455488
 31
0.0
  0
LINE
  5
111
  8
1
  6
CONTINUOUS
 62
     7
 10
488.8794600215754
 20
225.8082960901242
 30
0.0
 11
492.1296867510569
 21
225.8082960901242
 31
0.0
  0
LINE
  5
112
  8
1
  6
CONTINUOUS
 62
     7
 10
501.3005151117122
 20
226.8082960901239
 30
0.0
 11
528.6296867510573
 21
226.8082960901239
 31
0.0
  0
ARC
  5
113
  8
1
  6
CONTINUOUS
 62
     7
 10
501.3005151117122
 20
208.4082960901239
 30
0.0
 40
18.39999999999999
 50
90.0000000000004
 51
100.0000000000001
  0
LINE
  5
114
  8
1
  6
CONTINUOUS
 62
     7
 10
532.3804873886633
 20
227.1364486250603
 30
0.0
 11
534.6053886426406
 21
227.5287587455486
 31
0.0
  0
ARC
  5
115
  8
1
  6
CONTINUOUS
 62
     7
 10
528.6296867510575
 20
248.4082960901238
 30
0.0
 40
21.60000000000001
 50
270.0
 51
279.9999999999997
  0
ARC
  5
116
  8
1
  6
CONTINUOUS
 62
     7
 10
537.8005151117122
 20
209.4082960901239
 30
0.0
 40
18.39999999999997
 50
90.0
 51
100.0
  0
ARC
  5
117
  8
1
  6
CONTINUOUS
 62
     7
 10
759.3794600215759
 20
228.7749627567904
 30
0.0
 40
4.833333333333409
 50
43.60281897270401
 51
136.397181027296
  0
LINE
  5
118
  8
1
  6
CONTINUOUS
 62
     7
 10
762.879460021576
 20
231.6082960901238
 30
0.0
 11
762.879460021576
 21
232.1082960901238
 31
0.0
  0
LINE
  5
119
  8
1
  6
CONTINUOUS
 62
     7
 10
755.879460021576
 20
232.1082960901238
 30
0.0
 11
755.879460021576
 21
231.6082960901238
 31
0.0
  0
LINE
  5
11A
  8
1
  6
CONTINUOUS
 62
     7
 10
762.379460021576
 20
230.3082960901239
 30
0.0
 11
762.379460021576
 21
230.4082960901238
 31
0.0
  0
LINE
  5
11B
  8
1
  6
CONTINUOUS
 62
     7
 10
756.379460021576
 20
230.4082960901238
 30
0.0
 11
756.379460021576
 21
230.3082960901239
 31
0.0
  0
ARC
  5
11C
  8
1
  6
CONTINUOUS
 62
     7
 10
774.379460021576
 20
228.7749627567904
 30
0.0
 40
4.833333333333329
 50
43.60281897270401
 51
136.397181027296
  0
LINE
  5
11D
  8
1
  6
CONTINUOUS
 62
     7
 10
777.879460021576
 20
231.6082960901238
 30
0.0
 11
777.879460021576
 21
232.1082960901238
 31
0.0
  0
LINE
  5
11E
  8
1
  6
CONTINUOUS
 62
     7
 10
770.879460021576
 20
232.1082960901238
 30
0.0
 11
770.879460021576
 21
231.6082960901238
 31
0.0
  0
LINE
  5
11F
  8
1
  6
CONTINUOUS
 62
     7
 10
777.3794600215759
 20
230.3082960901238
 30
0.0
 11
777.3794600215759
 21
230.4082960901238
 31
0.0
  0
LINE
  5
120
  8
1
  6
CONTINUOUS
 62
     7
 10
771.3794600215759
 20
230.4082960901238
 30
0.0
 11
771.3794600215759
 21
230.3082960901238
 31
0.0
  0
ARC
  5
121
  8
1
  6
CONTINUOUS
 62
     7
 10
521.3794600215759
 20
228.7749627567904
 30
0.0
 40
4.833333333333409
 50
43.60281897270414
 51
136.3971810272959
  0
LINE
  5
122
  8
1
  6
CONTINUOUS
 62
     7
 10
524.879460021576
 20
231.6082960901238
 30
0.0
 11
524.879460021576
 21
232.1082960901238
 31
0.0
  0
LINE
  5
123
  8
1
  6
CONTINUOUS
 62
     7
 10
517.879460021576
 20
232.1082960901238
 30
0.0
 11
517.879460021576
 21
231.6082960901238
 31
0.0
  0
LINE
  5
124
  8
1
  6
CONTINUOUS
 62
     7
 10
524.3794600215759
 20
230.3082960901239
 30
0.0
 11
524.3794600215759
 21
230.4082960901238
 31
0.0
  0
LINE
  5
125
  8
1
  6
CONTINUOUS
 62
     7
 10
518.3794600215759
 20
230.4082960901238
 30
0.0
 11
518.3794600215759
 21
230.3082960901239
 31
0.0
  0
LINE
  5
126
  8
1
  6
CONTINUOUS
 62
     7
 10
509.879460021576
 20
231.6082960901238
 30
0.0
 11
509.879460021576
 21
232.1082960901238
 31
0.0
  0
LINE
  5
127
  8
1
  6
CONTINUOUS
 62
     7
 10
502.879460021576
 20
232.1082960901238
 30
0.0
 11
502.879460021576
 21
231.6082960901238
 31
0.0
  0
ARC
  5
128
  8
1
  6
CONTINUOUS
 62
     7
 10
506.3794600215761
 20
228.7749627567904
 30
0.0
 40
4.833333333333329
 50
43.60281897270401
 51
136.397181027296
  0
LINE
  5
129
  8
1
  6
CONTINUOUS
 62
     7
 10
509.3794600215759
 20
230.3082960901238
 30
0.0
 11
509.3794600215759
 21
230.4082960901238
 31
0.0
  0
LINE
  5
12A
  8
1
  6
CONTINUOUS
 62
     7
 10
503.3794600215759
 20
230.4082960901238
 30
0.0
 11
503.3794600215759
 21
230.3082960901238
 31
0.0
  0
LINE
  5
12B
  8
1
  6
CONTINUOUS
 62
     7
 10
814.6943196311431
 20
242.4080771344158
 30
0.0
 11
815.9745697100589
 21
242.1823345034488
 31
0.0
  0
LINE
  5
12C
  8
1
  6
CONTINUOUS
 62
     7
 10
818.4056441973959
 20
255.9696430456197
 30
0.0
 11
817.1253941184801
 21
256.1953856765867
 31
0.0
  0
LINE
  5
12D
  8
1
  6
CONTINUOUS
 62
     7
 10
822.9823866071232
 20
253.1317866512605
 30
0.0
 11
822.6769065364589
 21
253.9710862475042
 31
0.0
  0
LINE
  5
12E
  8
1
  6
CONTINUOUS
 62
     7
 10
820.671790094053
 20
242.5995058214716
 30
0.0
 11
821.2459048304539
 21
243.2837091211386
 31
0.0
  0
LINE
  5
12F
  8
1
  6
CONTINUOUS
 62
     7
 10
792.664184191663
 20
256.7979216925254
 30
0.0
 11
792.9141841916631
 21
256.3649089906331
 31
0.0
  0
LINE
  5
130
  8
1
  6
CONTINUOUS
 62
     7
 10
805.0385398446452
 20
263.3649089906331
 30
0.0
 11
804.7885398446452
 21
263.7979216925254
 31
0.0
  0
ARC
  5
131
  8
1
  6
CONTINUOUS
 62
     7
 10
803.0013620181542
 20
252.8934044901683
 30
0.0
 40
11.05000000000003
 50
80.692351883894
 51
159.3076481161059
  0
LINE
  5
132
  8
1
  6
CONTINUOUS
 62
     7
 10
844.4154905622382
 20
247.4227624736466
 30
0.0
 11
822.6523731373627
 21
251.2601872599789
 31
0.0
  0
LINE
  5
133
  8
1
  6
CONTINUOUS
 62
     7
 10
816.4480842933857
 20
252.3541707792807
 30
0.0
 11
813.8097296987352
 21
252.8193838789937
 31
0.0
  0
LINE
  5
134
  8
1
  6
CONTINUOUS
 62
     7
 10
814.245052262252
 20
246.6500650944201
 30
0.0
 11
815.406195227384
 21
246.4453242612074
 31
0.0
  0
LINE
  5
135
  8
1
  6
CONTINUOUS
 62
     7
 10
821.6104840713612
 20
245.3513407419057
 30
0.0
 11
843.3736014962366
 21
241.5139159555734
 31
0.0
  0
LINE
  5
136
  8
1
  6
CONTINUOUS
 62
     7
 10
805.9021892224781
 20
248.5273075894419
 30
0.0
 11
809.6859150941613
 21
247.8601346306595
 31
0.0
  0
LINE
  5
137
  8
1
  6
CONTINUOUS
 62
     7
 10
810.5888856180294
 20
252.981134946323
 30
0.0
 11
806.8051597463462
 21
253.6483079051054
 31
0.0
  0
LINE
  5
138
  8
1
  6
CONTINUOUS
 62
     7
 10
798.3982531268297
 20
255.6662229627145
 30
0.0
 11
800.2246959683146
 21
252.5027311641421
 31
0.0
  0
LINE
  5
139
  8
1
  6
CONTINUOUS
 62
     7
 10
804.7280280679937
 20
255.1027311641421
 30
0.0
 11
802.9015852265087
 21
258.2662229627144
 31
0.0
  0
ARC
  5
13A
  8
1
  6
CONTINUOUS
 62
     7
 10
807.3261042793469
 20
256.602731164142
 30
0.0
 40
2.999999999999983
 50
209.9999999999999
 51
259.9999999999998
  0
ARC
  5
13B
  8
1
  6
CONTINUOUS
 62
     7
 10
807.3261042793469
 20
256.602731164142
 30
0.0
 40
8.199999999999921
 50
209.9999999999999
 51
259.9999999999995
  0
LINE
  5
13C
  8
1
  6
CONTINUOUS
 62
     7
 10
814.3359124928999
 20
250.0447443101913
 30
0.0
 11
813.3511047398875
 21
250.2183924878583
 31
0.0
  0
LINE
  5
13D
  8
1
  6
CONTINUOUS
 62
     7
 10
812.6565120292198
 20
246.2791614758094
 30
0.0
 11
813.641319782232
 21
246.1055132981425
 31
0.0
  0
ARC
  5
13E
  8
1
  6
CONTINUOUS
 62
     7
 10
814.2490884040662
 20
249.5523404336852
 30
0.0
 40
0.5000000000000684
 50
349.9999999999994
 51
79.99999999999818
  0
ARC
  5
13F
  8
1
  6
CONTINUOUS
 62
     7
 10
813.7281438710655
 20
246.5979171746486
 30
0.0
 40
0.5000000000000089
 50
259.9999999999982
 51
349.9999999999994
  0
LINE
  5
140
  8
1
  6
CONTINUOUS
 62
     7
 10
807.8199012517717
 20
260.9297674640308
 30
0.0
 11
811.394314566962
 21
258.4269363160575
 31
0.0
  0
ENDBLK
  8
0
  0
BLOCK
  8
0
  2
D_FRAME_VIEW_1935
 70
     0
 10
0.0
 20
0.0
 30
0.0
  0
LINE
  5
145
  8
1
  6
CONTINUOUS
 62
     7
 10
744.7752326434999
 20
119.550663223253
 30
0.0
 11
745.0764970891672
 21
119.8174808322413
 31
0.0
  0
LINE
  5
146
  8
1
  6
CONTINUOUS
 62
     7
 10
741.70367188587
 20
123.5093643932354
 30
0.0
 11
742.9447887235646
 21
121.9981742363801
 31
0.0
  0
ARC
  5
147
  8
1
  6
CONTINUOUS
 62
     7
 10
699.7108236961344
 20
87.75610027204995
 30
0.0
 40
55.55156564696208
 50
35.25007785995014
 51
40.41956510956822
  0
ARC
  5
148
  8
1
  6
CONTINUOUS
 62
     7
 10
723.4159329375996
 20
134.0949034532186
 30
0.0
 40
4.999999999999964
 50
44.37692623972183
 51
80.0
  0
ARC
  5
149
  8
1
  6
CONTINUOUS
 62
     7
 10
722.8961550602443
 20
142.919223179189
 30
0.0
 40
0.4000000000000033
 50
44.37692623972237
 51
79.99999999999886
  0
LINE
  5
14A
  8
1
  6
CONTINUOUS
 62
     7
 10
718.533979442756
 20
144.0945630798951
 30
0.0
 11
722.965614331311
 21
143.3131462803939
 31
0.0
  0
LINE
  5
14B
  8
1
  6
CONTINUOUS
 62
     7
 10
723.1820568143536
 20
143.198973401704
 30
0.0
 11
739.4166675777893
 21
126.6073737496171
 31
0.0
  0
ARC
  5
14C
  8
1
  6
CONTINUOUS
 62
     7
 10
717.9088460031551
 20
140.5492551690512
 30
0.0
 40
0.399999999999976
 50
169.9999999999998
 51
260.0000000000011
  0
LINE
  5
14D
  8
1
  6
CONTINUOUS
 62
     7
 10
732.5009230365406
 20
131.959374837787
 30
0.0
 11
726.9897048639674
 21
137.5917812346552
 31
0.0
  0
LINE
  5
14E
  8
1
  6
CONTINUOUS
 62
     7
 10
724.2841738259342
 20
139.0189422182796
 30
0.0
 11
717.8393867320883
 21
140.1553320678463
 31
0.0
  0
ARC
  5
14F
  8
1
  6
CONTINUOUS
 62
     7
 10
718.4645201716893
 20
143.7006399786902
 30
0.0
 40
0.400000000000013
 50
79.99999999999977
 51
169.9999999999998
  0
ARC
  5
150
  8
1
  6
CONTINUOUS
 62
     7
 10
723.4159329375996
 20
134.0949034532186
 30
0.0
 40
5.399999999999978
 50
44.3769262397218
 51
79.99999999999977
  0
ARC
  5
151
  8
1
  6
CONTINUOUS
 62
     7
 10
699.7120614758428
 20
87.75706159785581
 30
0.0
 40
55.55000000000013
 50
40.41963800864323
 51
44.37692623972173
  0
LINE
  5
152
  8
1
  6
CONTINUOUS
 62
     7
 10
655.2247673565003
 20
119.550663223253
 30
0.0
 11
654.9235029108329
 21
119.8174808322413
 31
0.0
  0
ARC
  5
153
  8
1
  6
CONTINUOUS
 62
     7
 10
700.2891763038657
 20
87.75610027204995
 30
0.0
 40
55.55156564696208
 50
139.5804348904317
 51
144.7499221400499
  0
ARC
  5
154
  8
1
  6
CONTINUOUS
 62
     7
 10
676.5840670624005
 20
134.0949034532186
 30
0.0
 40
5.399999999999978
 50
100.0000000000002
 51
135.6230737602781
  0
LINE
  5
155
  8
1
  6
CONTINUOUS
 62
     7
 10
676.8179431856464
 20
143.198973401704
 30
0.0
 11
660.5833324222108
 21
126.6073737496171
 31
0.0
  0
ARC
  5
156
  8
1
  6
CONTINUOUS
 62
     7
 10
677.1038449397558
 20
142.919223179189
 30
0.0
 40
0.4000000000000033
 50
100.0000000000011
 51
135.6230737602776
  0
ARC
  5
157
  8
1
  6
CONTINUOUS
 62
     7
 10
681.5354798283108
 20
143.7006399786902
 30
0.0
 40
0.400000000000013
 50
10.00000000000027
 51
100.0000000000003
  0
ARC
  5
158
  8
1
  6
CONTINUOUS
 62
     7
 10
682.091153996845
 20
140.5492551690512
 30
0.0
 40
0.399999999999976
 50
279.9999999999989
 51
10.00000000000023
  0
LINE
  5
159
  8
1
  6
CONTINUOUS
 62
     7
 10
675.7158261740659
 20
139.0189422182796
 30
0.0
 11
682.1606132679118
 21
140.1553320678463
 31
0.0
  0
ARC
  5
15A
  8
1
  6
CONTINUOUS
 62
     7
 10
676.5840670624005
 20
134.0949034532186
 30
0.0
 40
4.999999999999964
 50
100.0
 51
135.6230737602782
  0
LINE
  5
15B
  8
1
  6
CONTINUOUS
 62
     7
 10
667.4990769634595
 20
131.959374837787
 30
0.0
 11
673.0102951360327
 21
137.5917812346552
 31
0.0
  0
LINE
  5
15C
  8
1
  6
CONTINUOUS
 62
     7
 10
681.4660205572441
 20
144.0945630798951
 30
0.0
 11
677.0343856686891
 21
143.3131462803939
 31
0.0
  0
ARC
  5
15D
  8
1
  6
CONTINUOUS
 62
     7
 10
700.2879385241573
 20
87.75706159785581
 30
0.0
 40
55.55000000000013
 50
135.6230737602782
 51
139.5803619913567
  0
LINE
  5
15E
  8
1
  6
CONTINUOUS
 62
     7
 10
675.0031255494532
 20
140.7723102896125
 30
0.0
 11
675.3029390496492
 21
140.5067777237383
 31
0.0
  0
LINE
  5
15F
  8
1
  6
CONTINUOUS
 62
     7
 10
724.9968744505469
 20
140.7723102896125
 30
0.0
 11
724.6970609503509
 21
140.5067777237383
 31
0.0
  0
ARC
  5
160
  8
1
  6
CONTINUOUS
 62
     7
 10
699.7120614758429
 20
87.75706159785584
 30
0.0
 40
55.14999999999997
 50
270.2991430126153
 51
352.0048990418064
  0
ARC
  5
161
  8
1
  6
CONTINUOUS
 62
     7
 10
700.2879385241572
 20
87.75706159785584
 30
0.0
 40
55.14999999999996
 50
187.9951009581944
 51
269.7008569873847
  0
ARC
  5
162
  8
1
  6
CONTINUOUS
 62
     7
 10
699.4044846145774
 20
164.8954884226052
 30
0.0
 40
10.09586370049887
 50
0.4759411721613331
 51
17.11201260182903
  0
ARC
  5
163
  8
1
  6
CONTINUOUS
 62
     7
 10
706.6138970587381
 20
169.4116672442506
 30
0.0
 40
2.887911492575195
 50
327.6435929533628
 51
357.972159578602
  0
ARC
  5
164
  8
1
  6
CONTINUOUS
 62
     7
 10
706.7149405012545
 20
160.5782980617278
 30
0.0
 40
2.785962476926405
 50
1.458815462636138
 51
32.92543200539885
  0
ARC
  5
165
  8
1
  6
CONTINUOUS
 62
     7
 10
699.0804319112412
 20
165.1133450611287
 30
0.0
 40
10.42042962247658
 50
343.1488196457586
 51
359.2632265802507
  0
LINE
  5
166
  8
1
  6
CONTINUOUS
 62
     7
 10
709.0534180126149
 20
162.0925998320841
 30
0.0
 11
704.5
 21
162.0925998320841
 31
0.0
  0
ARC
  5
167
  8
1
  6
CONTINUOUS
 62
     7
 10
706.6138970587381
 20
160.7514132064062
 30
0.0
 40
2.887911492575195
 50
327.6435929533628
 51
357.9721595786015
  0
LINE
  5
168
  8
1
  6
CONTINUOUS
 62
     7
 10
709.0534180126149
 20
159.2058484861359
 30
0.0
 11
704.5
 21
159.2058484861359
 31
0.0
  0
LINE
  5
169
  8
1
  6
CONTINUOUS
 62
     7
 10
709.0534180126149
 20
167.8661025239804
 30
0.0
 11
704.5
 21
167.8661025239804
 31
0.0
  0
LINE
  5
16A
  8
1
  6
CONTINUOUS
 62
     7
 10
709.0534180126149
 20
170.7528538699285
 30
0.0
 11
704.5
 21
170.7528538699285
 31
0.0
  0
ARC
  5
16B
  8
1
  6
CONTINUOUS
 62
     7
 10
706.7149405012545
 20
169.2385520995722
 30
0.0
 40
2.785962476926406
 50
1.458815462637279
 51
32.92543200539885
  0
LINE
  5
16C
  8
1
  6
CONTINUOUS
 62
     7
 10
678.6978886899203
 20
167.6292939606606
 30
0.0
 11
689.4225108935859
 21
176.6283204962721
 31
0.0
  0
LINE
  5
16D
  8
1
  6
CONTINUOUS
 62
     7
 10
679.0192824947636
 20
167.246271739101
 30
0.0
 11
689.7439046984292
 21
176.2452982747126
 31
0.0
  0
LINE
  5
16E
  8
1
  6
CONTINUOUS
 62
     7
 10
731.2909557458686
 20
167.3830845193183
 30
0.0
 11
731.2909557458685
 21
161.3830845193183
 31
0.0
  0
LINE
  5
16F
  8
1
  6
CONTINUOUS
 62
     7
 10
686.6797269259534
 20
173.6741478359665
 30
0.0
 11
686.8584963296913
 21
173.4610987568159
 31
0.0
  0
LINE
  5
170
  8
1
  6
CONTINUOUS
 62
     7
 10
682.2622296709775
 20
169.6043730986966
 30
0.0
 11
682.0834602672395
 21
169.8174221778472
 31
0.0
  0
LINE
  5
171
  8
1
  6
CONTINUOUS
 62
     7
 10
700.0
 20
174.8921867325276
 30
0.0
 11
703.2
 21
174.8921867325276
 31
0.0
  0
LINE
  5
172
  8
1
  6
CONTINUOUS
 62
     7
 10
722.8961550602442
 20
142.919223179189
 30
0.0
 11
722.3404808917101
 21
139.76783836955
 31
0.0
  0
ARC
  5
173
  8
1
  6
CONTINUOUS
 62
     7
 10
703.2
 20
146.3921867325277
 30
0.0
 40
3.199999999999981
 50
180.0
 51
259.9999999999999
  0
LINE
  5
174
  8
1
  6
CONTINUOUS
 62
     7
 10
696.8000000000001
 20
171.1921867325277
 30
0.0
 11
696.8000000000001
 21
146.3921867325276
 31
0.0
  0
ARC
  5
175
  8
1
  6
CONTINUOUS
 62
     7
 10
693.8000000000001
 20
171.1921867325277
 30
0.0
 40
3.000000000000002
 50
0.0000000000005684
 51
130.0000000000001
  0
ARC
  5
176
  8
1
  6
CONTINUOUS
 62
     7
 10
693.8000000000001
 20
171.1921867325277
 30
0.0
 40
6.199999999999983
 50
0.0
 51
129.9999999999997
  0
ARC
  5
177
  8
1
  6
CONTINUOUS
 62
     7
 10
696.8000000000001
 20
146.3921867325277
 30
0.0
 40
3.200000000000022
 50
279.9999999999999
 51
0.0
  0
LINE
  5
178
  8
1
  6
CONTINUOUS
 62
     7
 10
676.9337705301203
 20
160.9559616729971
 30
0.0
 11
674.8768501791235
 21
163.4073038909778
 31
0.0
  0
LINE
  5
179
  8
1
  6
CONTINUOUS
 62
     7
 10
677.65951910829
 20
139.76783836955
 30
0.0
 11
677.1038449397558
 21
142.919223179189
 31
0.0
  0
LINE
  5
17A
  8
1
  6
CONTINUOUS
 62
     7
 10
703.2
 20
157.9793511780322
 30
0.0
 11
704.5
 21
157.9793511780322
 31
0.0
  0
LINE
  5
17B
  8
1
  6
CONTINUOUS
 62
     7
 10
704.5
 20
171.9793511780323
 30
0.0
 11
703.2
 21
171.9793511780323
 31
0.0
  0
LINE
  5
17C
  8
1
  6
CONTINUOUS
 62
     7
 10
709.0534180126149
 20
159.2058484861359
 30
0.0
 11
709.5
 21
159.9793511780322
 31
0.0
  0
LINE
  5
17D
  8
1
  6
CONTINUOUS
 62
     7
 10
709.5
 20
169.9793511780323
 30
0.0
 11
709.0534180126149
 21
170.7528538699285
 31
0.0
  0
ARC
  5
17E
  8
1
  6
CONTINUOUS
 62
     7
 10
689.5560338545731
 20
165.579127239799
 30
0.0
 40
11.05000000000001
 50
90.69235188389403
 51
169.3076481161059
  0
LINE
  5
17F
  8
1
  6
CONTINUOUS
 62
     7
 10
678.6978886899203
 20
167.6292939606606
 30
0.0
 11
679.0192824947636
 21
167.246271739101
 31
0.0
  0
LINE
  5
180
  8
1
  6
CONTINUOUS
 62
     7
 10
689.7439046984293
 20
176.2452982747126
 30
0.0
 11
689.4225108935859
 21
176.6283204962721
 31
0.0
  0
LINE
  5
181
  8
1
  6
CONTINUOUS
 62
     7
 10
731.2909557458686
 20
167.3830845193183
 30
0.0
 11
709.5
 21
167.3830845193185
 31
0.0
  0
LINE
  5
182
  8
1
  6
CONTINUOUS
 62
     7
 10
709.5
 20
161.3830845193185
 30
0.0
 11
731.2909557458685
 21
161.3830845193183
 31
0.0
  0
LINE
  5
183
  8
1
  6
CONTINUOUS
 62
     7
 10
693.1709557458685
 20
161.7830845193186
 30
0.0
 11
696.8000000000001
 21
161.7830845193186
 31
0.0
  0
LINE
  5
184
  8
1
  6
CONTINUOUS
 62
     7
 10
696.8000000000001
 20
166.9830845193186
 30
0.0
 11
693.1709557458685
 21
166.9830845193186
 31
0.0
  0
ARC
  5
185
  8
1
  6
CONTINUOUS
 62
     7
 10
693.1709557458685
 20
169.9830845193186
 30
0.0
 40
3.000000000000003
 50
220.0
 51
269.9999999999993
  0
ARC
  5
186
  8
1
  6
CONTINUOUS
 62
     7
 10
693.1709557458685
 20
169.9830845193186
 30
0.0
 40
8.199999999999942
 50
220.0000000000001
 51
269.9999999999994
  0
LINE
  5
187
  8
1
  6
CONTINUOUS
 62
     7
 10
684.625567799222
 20
167.4101459245905
 30
0.0
 11
686.8893913122929
 21
164.712226119889
 31
0.0
  0
LINE
  5
188
  8
1
  6
CONTINUOUS
 62
     7
 10
690.8728224165116
 20
168.054721690259
 30
0.0
 11
688.6089989034407
 21
170.7526414949605
 31
0.0
  0
LINE
  5
189
  8
1
  6
CONTINUOUS
 62
     7
 10
692.6928171764959
 20
173.9803484484672
 30
0.0
 11
696.6475391896189
 21
172.1362312878738
 31
0.0
  0
ENDBLK
  8
0
  0
BLOCK
  8
0
  2
D_FRAME_VIEW_2185
 70
     0
 10
0.0
 20
0.0
 30
0.0
  0
ARC
  5
193
  8
1
  6
CONTINUOUS
 62
     9
 10
605.0
 20
164.9793511780323
 30
0.0
 40
3.000000000000052
 50
354.2966587843999
 51
29.92643486661445
  0
LINE
  5
194
  8
1
  6
CONTINUOUS
 62
     7
 10
594.4999999999999
 20
139.76783836955
 30
0.0
 11
594.4999999999999
 21
33.19218673252765
 31
0.0
  0
LINE
  5
195
  8
1
  6
CONTINUOUS
 62
     7
 10
615.5
 20
139.76783836955
 30
0.0
 11
615.5
 21
33.19218673252765
 31
0.0
  0
LINE
  5
196
  8
1
  6
CONTINUOUS
 62
     7
 10
617.1
 20
139.76783836955
 30
0.0
 11
617.1
 21
33.19218673252765
 31
0.0
  0
LINE
  5
197
  8
1
  6
CONTINUOUS
 62
     7
 10
592.9
 20
139.76783836955
 30
0.0
 11
592.9
 21
33.19218673252765
 31
0.0
  0
ARC
  5
198
  8
1
  6
CONTINUOUS
 62
     7
 10
599.578742441783
 20
124.1555497511254
 30
0.0
 40
4.624114819609944
 50
188.0329460200109
 51
275.2269011201009
  0
ARC
  5
199
  8
1
  6
CONTINUOUS
 62
     7
 10
599.5927585977307
 20
124.4403327978757
 30
0.0
 40
4.640754879961987
 50
188.2474962754727
 51
275.0343672986903
  0
ARC
  5
19A
  8
1
  6
CONTINUOUS
 62
     7
 10
610.4223780665296
 20
124.421207028112
 30
0.0
 40
4.623061552438119
 50
264.7579595686894
 51
351.9601768571486
  0
LINE
  5
19B
  8
1
  6
CONTINUOUS
 62
     7
 10
600.0
 20
119.8174808322413
 30
0.0
 11
610.0
 21
119.8174808322413
 31
0.0
  0
ARC
  5
19C
  8
1
  6
CONTINUOUS
 62
     7
 10
610.4062598760418
 20
124.1744924314784
 30
0.0
 40
4.641642342287962
 50
264.9787603458815
 51
351.7613925140061
  0
LINE
  5
19D
  8
1
  6
CONTINUOUS
 62
     7
 10
600.0
 20
119.550663223253
 30
0.0
 11
610.0
 21
119.550663223253
 31
0.0
  0
LINE
  5
19E
  8
1
  6
CONTINUOUS
 62
     7
 10
595.0
 20
32.60781326747235
 30
0.0
 11
615.0
 21
32.60781326747235
 31
0.0
  0
ARC
  5
19F
  8
1
  6
CONTINUOUS
 62
     7
 10
605.0
 20
164.9793511780323
 30
0.0
 40
7.00000000000001
 50
242.7971055877856
 51
297.2028944122143
  0
POLYLINE
  5
1A0
  8
1
  6
CONTINUOUS
 62
     7
 66
     1
 10
0.0
 20
0.0
 30
0.0
  0
VERTEX
  5
266
  8
1
  6
CONTINUOUS
 62
     7
 10
605.0
 20
167.6292939606606
 30
0.0
  0
VERTEX
  5
267
  8
1
  6
CONTINUOUS
 62
     7
 10
606.3656322541129
 20
167.7157508464234
 30
0.0
  0
VERTEX
  5
268
  8
1
  6
CONTINUOUS
 62
     7
 10
607.6787840265556
 20
167.9717990140777
 30
0.0
  0
VERTEX
  5
269
  8
1
  6
CONTINUOUS
 62
     7
 10
608.8889916311372
 20
168.3875986761338
 30
0.0
  0
VERTEX
  5
26A
  8
1
  6
CONTINUOUS
 62
     7
 10
609.9497474683059
 20
168.9471708847621
 30
0.0
  0
VERTEX
  5
26B
  8
1
  6
CONTINUOUS
 62
     7
 10
610.8202872861178
 20
169.6290115937967
 30
0.0
  0
VERTEX
  5
26C
  8
1
  6
CONTINUOUS
 62
     7
 10
611.467156727579
 20
170.4069180471702
 30
0.0
  0
VERTEX
  5
26D
  8
1
  6
CONTINUOUS
 62
     7
 10
611.8654969628226
 20
171.2509957361343
 30
0.0
  0
VERTEX
  5
26E
  8
1
  6
CONTINUOUS
 62
     7
 10
612.0
 20
172.1288072284664
 30
0.0
  0
SEQEND
  5
51A
  8
1
  6
CONTINUOUS
 62
     7
  0
POLYLINE
  5
1A1
  8
1
  6
CONTINUOUS
 62
     7
 66
     1
 10
0.0
 20
0.0
 30
0.0
  0
VERTEX
  5
26F
  8
1
  6
CONTINUOUS
 62
     7
 10
598.0
 20
172.1288072284664
 30
0.0
  0
VERTEX
  5
270
  8
1
  6
CONTINUOUS
 62
     7
 10
598.1345030371774
 20
171.2509957361343
 30
0.0
  0
VERTEX
  5
271
  8
1
  6
CONTINUOUS
 62
     7
 10
598.532843272421
 20
170.4069180471702
 30
0.0
  0
VERTEX
  5
272
  8
1
  6
CONTINUOUS
 62
     7
 10
599.1797127138822
 20
169.6290115937967
 30
0.0
  0
VERTEX
  5
273
  8
1
  6
CONTINUOUS
 62
     7
 10
600.0502525316941
 20
168.9471708847621
 30
0.0
  0
VERTEX
  5
274
  8
1
  6
CONTINUOUS
 62
     7
 10
601.1110083688628
 20
168.3875986761338
 30
0.0
  0
VERTEX
  5
275
  8
1
  6
CONTINUOUS
 62
     7
 10
602.3212159734444
 20
167.9717990140777
 30
0.0
  0
VERTEX
  5
276
  8
1
  6
CONTINUOUS
 62
     7
 10
603.6343677458871
 20
167.7157508464234
 30
0.0
  0
VERTEX
  5
277
  8
1
  6
CONTINUOUS
 62
     7
 10
605.0
 20
167.6292939606606
 30
0.0
  0
SEQEND
  5
51B
  8
1
  6
CONTINUOUS
 62
     7
  0
POLYLINE
  5
1A2
  8
1
  6
CONTINUOUS
 62
     7
 66
     1
 10
0.0
 20
0.0
 30
0.0
  0
VERTEX
  5
278
  8
1
  6
CONTINUOUS
 62
     7
 10
612.0
 20
172.1288072284664
 30
0.0
  0
VERTEX
  5
279
  8
1
  6
CONTINUOUS
 62
     7
 10
611.8654969628226
 20
173.0066187207985
 30
0.0
  0
VERTEX
  5
27A
  8
1
  6
CONTINUOUS
 62
     7
 10
611.467156727579
 20
173.8506964097626
 30
0.0
  0
VERTEX
  5
27B
  8
1
  6
CONTINUOUS
 62
     7
 10
610.8202872861178
 20
174.6286028631361
 30
0.0
  0
VERTEX
  5
27C
  8
1
  6
CONTINUOUS
 62
     7
 10
609.9497474683059
 20
175.3104435721707
 30
0.0
  0
VERTEX
  5
27D
  8
1
  6
CONTINUOUS
 62
     7
 10
608.8889916311372
 20
175.870015780799
 30
0.0
  0
VERTEX
  5
27E
  8
1
  6
CONTINUOUS
 62
     7
 10
607.6787840265556
 20
176.2858154428551
 30
0.0
  0
VERTEX
  5
27F
  8
1
  6
CONTINUOUS
 62
     7
 10
606.3656322541129
 20
176.5418636105094
 30
0.0
  0
VERTEX
  5
280
  8
1
  6
CONTINUOUS
 62
     7
 10
605.0
 20
176.6283204962722
 30
0.0
  0
VERTEX
  5
281
  8
1
  6
CONTINUOUS
 62
     7
 10
603.6343677458871
 20
176.5418636105094
 30
0.0
  0
VERTEX
  5
282
  8
1
  6
CONTINUOUS
 62
     7
 10
602.3212159734444
 20
176.2858154428551
 30
0.0
  0
VERTEX
  5
283
  8
1
  6
CONTINUOUS
 62
     7
 10
601.1110083688627
 20
175.870015780799
 30
0.0
  0
VERTEX
  5
284
  8
1
  6
CONTINUOUS
 62
     7
 10
600.0502525316941
 20
175.3104435721707
 30
0.0
  0
VERTEX
  5
285
  8
1
  6
CONTINUOUS
 62
     7
 10
599.1797127138822
 20
174.6286028631361
 30
0.0
  0
VERTEX
  5
286
  8
1
  6
CONTINUOUS
 62
     7
 10
598.532843272421
 20
173.8506964097626
 30
0.0
  0
VERTEX
  5
287
  8
1
  6
CONTINUOUS
 62
     7
 10
598.1345030371774
 20
173.0066187207985
 30
0.0
  0
VERTEX
  5
288
  8
1
  6
CONTINUOUS
 62
     7
 10
598.0
 20
172.1288072284664
 30
0.0
  0
SEQEND
  5
51C
  8
1
  6
CONTINUOUS
 62
     7
  0
POLYLINE
  5
1A3
  8
1
  6
CONTINUOUS
 62
     7
 66
     1
 10
0.0
 20
0.0
 30
0.0
  0
VERTEX
  5
289
  8
1
  6
CONTINUOUS
 62
     7
 10
598.0
 20
171.7457850069069
 30
0.0
  0
VERTEX
  5
28A
  8
1
  6
CONTINUOUS
 62
     7
 10
598.1345030371774
 20
170.8679735145748
 30
0.0
  0
VERTEX
  5
28B
  8
1
  6
CONTINUOUS
 62
     7
 10
598.532843272421
 20
170.0238958256107
 30
0.0
  0
VERTEX
  5
28C
  8
1
  6
CONTINUOUS
 62
     7
 10
599.1797127138822
 20
169.2459893722372
 30
0.0
  0
VERTEX
  5
28D
  8
1
  6
CONTINUOUS
 62
     7
 10
600.0502525316941
 20
168.5641486632026
 30
0.0
  0
VERTEX
  5
28E
  8
1
  6
CONTINUOUS
 62
     7
 10
601.1110083688628
 20
168.0045764545742
 30
0.0
  0
VERTEX
  5
28F
  8
1
  6
CONTINUOUS
 62
     7
 10
602.3212159734444
 20
167.5887767925181
 30
0.0
  0
VERTEX
  5
290
  8
1
  6
CONTINUOUS
 62
     7
 10
603.6343677458871
 20
167.3327286248639
 30
0.0
  0
VERTEX
  5
291
  8
1
  6
CONTINUOUS
 62
     7
 10
605.0
 20
167.2462717391011
 30
0.0
  0
SEQEND
  5
51D
  8
1
  6
CONTINUOUS
 62
     7
  0
POLYLINE
  5
1A4
  8
1
  6
CONTINUOUS
 62
     7
 66
     1
 10
0.0
 20
0.0
 30
0.0
  0
VERTEX
  5
292
  8
1
  6
CONTINUOUS
 62
     7
 10
605.0
 20
167.2462717391011
 30
0.0
  0
VERTEX
  5
293
  8
1
  6
CONTINUOUS
 62
     7
 10
606.3656322541129
 20
167.3327286248639
 30
0.0
  0
VERTEX
  5
294
  8
1
  6
CONTINUOUS
 62
     7
 10
607.6787840265556
 20
167.5887767925181
 30
0.0
  0
VERTEX
  5
295
  8
1
  6
CONTINUOUS
 62
     7
 10
608.8889916311372
 20
168.0045764545742
 30
0.0
  0
VERTEX
  5
296
  8
1
  6
CONTINUOUS
 62
     7
 10
609.9497474683059
 20
168.5641486632026
 30
0.0
  0
VERTEX
  5
297
  8
1
  6
CONTINUOUS
 62
     7
 10
610.8202872861178
 20
169.2459893722372
 30
0.0
  0
VERTEX
  5
298
  8
1
  6
CONTINUOUS
 62
     7
 10
611.467156727579
 20
170.0238958256107
 30
0.0
  0
VERTEX
  5
299
  8
1
  6
CONTINUOUS
 62
     7
 10
611.8654969628226
 20
170.8679735145748
 30
0.0
  0
VERTEX
  5
29A
  8
1
  6
CONTINUOUS
 62
     7
 10
612.0
 20
171.7457850069069
 30
0.0
  0
SEQEND
  5
51E
  8
1
  6
CONTINUOUS
 62
     7
  0
LINE
  5
1A5
  8
1
  6
CONTINUOUS
 62
     7
 10
602.5
 20
167.5192888484903
 30
0.0
 11
602.598761631126
 21
167.5192888484903
 31
0.0
  0
LINE
  5
1A6
  8
1
  6
CONTINUOUS
 62
     7
 10
607.4012383688739
 20
167.5192888484903
 30
0.0
 11
607.4999999999999
 21
167.5192888484903
 31
0.0
  0
POLYLINE
  5
1A7
  8
1
  6
CONTINUOUS
 62
     7
 66
     1
 10
0.0
 20
0.0
 30
0.0
  0
VERTEX
  5
29B
  8
1
  6
CONTINUOUS
 62
     7
 10
607.4999999999999
 20
167.5192888484902
 30
0.0
  0
VERTEX
  5
29C
  8
1
  6
CONTINUOUS
 62
     7
 10
607.5937557559149
 20
167.5249896015289
 30
0.0
  0
VERTEX
  5
29D
  8
1
  6
CONTINUOUS
 62
     7
 10
607.6841855086378
 20
167.5418896253516
 30
0.0
  0
VERTEX
  5
29E
  8
1
  6
CONTINUOUS
 62
     7
 10
607.7680812455693
 20
167.5693893884134
 30
0.0
  0
VERTEX
  5
29F
  8
1
  6
CONTINUOUS
 62
     7
 10
607.8424667495574
 20
167.6065133314131
 30
0.0
  0
VERTEX
  5
2A0
  8
1
  6
CONTINUOUS
 62
     7
 10
607.9047031807647
 20
167.6519444754441
 30
0.0
  0
SEQEND
  5
51F
  8
1
  6
CONTINUOUS
 62
     7
  0
POLYLINE
  5
1A8
  8
1
  6
CONTINUOUS
 62
     7
 66
     1
 10
0.0
 20
0.0
 30
0.0
  0
VERTEX
  5
2A1
  8
1
  6
CONTINUOUS
 62
     7
 10
602.0952968192353
 20
167.6519444754441
 30
0.0
  0
VERTEX
  5
2A2
  8
1
  6
CONTINUOUS
 62
     7
 10
602.1575332504425
 20
167.6065133314132
 30
0.0
  0
VERTEX
  5
2A3
  8
1
  6
CONTINUOUS
 62
     7
 10
602.2319187544307
 20
167.5693893884135
 30
0.0
  0
VERTEX
  5
2A4
  8
1
  6
CONTINUOUS
 62
     7
 10
602.3158144913622
 20
167.5418896253516
 30
0.0
  0
VERTEX
  5
2A5
  8
1
  6
CONTINUOUS
 62
     7
 10
602.406244244085
 20
167.524989601529
 30
0.0
  0
VERTEX
  5
2A6
  8
1
  6
CONTINUOUS
 62
     7
 10
602.5
 20
167.5192888484903
 30
0.0
  0
SEQEND
  5
520
  8
1
  6
CONTINUOUS
 62
     7
  0
ARC
  5
1A9
  8
1
  6
CONTINUOUS
 62
     7
 10
605.0
 20
164.3830845193186
 30
0.0
 40
2.600000000000047
 50
180.0
 51
0.0
  0
ARC
  5
1AA
  8
1
  6
CONTINUOUS
 62
     7
 10
605.0
 20
164.3830845193187
 30
0.0
 40
3.000000000000052
 50
150.0735651333857
 51
29.92643486661438
  0
ARC
  5
1AB
  8
1
  6
CONTINUOUS
 62
     7
 10
605.0
 20
166.9921867325276
 30
0.0
 40
3.199999999999981
 50
166.9100444220697
 51
180.0
  0
ARC
  5
1AC
  8
1
  6
CONTINUOUS
 62
     7
 10
605.0
 20
166.9921867325276
 30
0.0
 40
3.20000000000002
 50
0.0
 51
13.08995557793037
  0
POLYLINE
  5
1AD
  8
1
  6
CONTINUOUS
 62
     7
 66
     1
 10
0.0
 20
0.0
 30
0.0
  0
VERTEX
  5
2A7
  8
1
  6
CONTINUOUS
 62
     7
 10
608.1999999999999
 20
161.5987492826837
 30
0.0
  0
VERTEX
  5
2A8
  8
1
  6
CONTINUOUS
 62
     7
 10
608.2192147195967
 20
161.4733476409219
 30
0.0
  0
VERTEX
  5
2A9
  8
1
  6
CONTINUOUS
 62
     7
 10
608.2761204674887
 20
161.3527651139271
 30
0.0
  0
VERTEX
  5
2AA
  8
1
  6
CONTINUOUS
 62
     7
 10
608.3685303876973
 20
161.241635620588
 30
0.0
  0
VERTEX
  5
2AB
  8
1
  6
CONTINUOUS
 62
     7
 10
608.4928932188134
 20
161.1442298050116
 30
0.0
  0
VERTEX
  5
2AC
  8
1
  6
CONTINUOUS
 62
     7
 10
608.6444297669804
 20
161.0642909180647
 30
0.0
  0
VERTEX
  5
2AD
  8
1
  6
CONTINUOUS
 62
     7
 10
608.8173165676349
 20
161.0048909663424
 30
0.0
  0
VERTEX
  5
2AE
  8
1
  6
CONTINUOUS
 62
     7
 10
609.0049096779838
 20
160.9683126566775
 30
0.0
  0
VERTEX
  5
2AF
  8
1
  6
CONTINUOUS
 62
     7
 10
609.1999999999999
 20
160.9559616729971
 30
0.0
  0
SEQEND
  5
521
  8
1
  6
CONTINUOUS
 62
     7
  0
POLYLINE
  5
1AE
  8
1
  6
CONTINUOUS
 62
     7
 66
     1
 10
0.0
 20
0.0
 30
0.0
  0
VERTEX
  5
2B0
  8
1
  6
CONTINUOUS
 62
     7
 10
608.1999999999999
 20
164.0500915006643
 30
0.0
  0
VERTEX
  5
2B1
  8
1
  6
CONTINUOUS
 62
     7
 10
608.2192147195967
 20
163.9246898589026
 30
0.0
  0
VERTEX
  5
2B2
  8
1
  6
CONTINUOUS
 62
     7
 10
608.2761204674887
 20
163.8041073319078
 30
0.0
  0
VERTEX
  5
2B3
  8
1
  6
CONTINUOUS
 62
     7
 10
608.3685303876973
 20
163.6929778385687
 30
0.0
  0
VERTEX
  5
2B4
  8
1
  6
CONTINUOUS
 62
     7
 10
608.4928932188134
 20
163.5955720229923
 30
0.0
  0
VERTEX
  5
2B5
  8
1
  6
CONTINUOUS
 62
     7
 10
608.6444297669802
 20
163.5156331360454
 30
0.0
  0
VERTEX
  5
2B6
  8
1
  6
CONTINUOUS
 62
     7
 10
608.8173165676347
 20
163.4562331843231
 30
0.0
  0
VERTEX
  5
2B7
  8
1
  6
CONTINUOUS
 62
     7
 10
609.0049096779837
 20
163.4196548746582
 30
0.0
  0
VERTEX
  5
2B8
  8
1
  6
CONTINUOUS
 62
     7
 10
609.1999999999998
 20
163.4073038909778
 30
0.0
  0
SEQEND
  5
522
  8
1
  6
CONTINUOUS
 62
     7
  0
POLYLINE
  5
1AF
  8
1
  6
CONTINUOUS
 62
     7
 66
     1
 10
0.0
 20
0.0
 30
0.0
  0
VERTEX
  5
2B9
  8
1
  6
CONTINUOUS
 62
     7
 10
588.0
 20
166.6212419394105
 30
0.0
  0
VERTEX
  5
2BA
  8
1
  6
CONTINUOUS
 62
     7
 10
588.0960735979838
 20
165.9942337306018
 30
0.0
  0
VERTEX
  5
2BB
  8
1
  6
CONTINUOUS
 62
     7
 10
588.3806023374435
 20
165.3913210956275
 30
0.0
  0
VERTEX
  5
2BC
  8
1
  6
CONTINUOUS
 62
     7
 10
588.8426519384873
 20
164.8356736289321
 30
0.0
  0
VERTEX
  5
2BD
  8
1
  6
CONTINUOUS
 62
     7
 10
589.4644660940672
 20
164.3486445510502
 30
0.0
  0
VERTEX
  5
2BE
  8
1
  6
CONTINUOUS
 62
     7
 10
590.222148834902
 20
163.9489501163157
 30
0.0
  0
VERTEX
  5
2BF
  8
1
  6
CONTINUOUS
 62
     7
 10
591.0865828381745
 20
163.6519503577042
 30
0.0
  0
VERTEX
  5
2C0
  8
1
  6
CONTINUOUS
 62
     7
 10
592.0245483899193
 20
163.4690588093798
 30
0.0
  0
VERTEX
  5
2C1
  8
1
  6
CONTINUOUS
 62
     7
 10
593.0
 20
163.4073038909778
 30
0.0
  0
SEQEND
  5
523
  8
1
  6
CONTINUOUS
 62
     7
  0
POLYLINE
  5
1B0
  8
1
  6
CONTINUOUS
 62
     7
 66
     1
 10
0.0
 20
0.0
 30
0.0
  0
VERTEX
  5
2C2
  8
1
  6
CONTINUOUS
 62
     7
 10
588.0
 20
164.1698997214297
 30
0.0
  0
VERTEX
  5
2C3
  8
1
  6
CONTINUOUS
 62
     7
 10
588.0960735979838
 20
163.5428915126211
 30
0.0
  0
VERTEX
  5
2C4
  8
1
  6
CONTINUOUS
 62
     7
 10
588.3806023374435
 20
162.9399788776468
 30
0.0
  0
VERTEX
  5
2C5
  8
1
  6
CONTINUOUS
 62
     7
 10
588.8426519384873
 20
162.3843314109514
 30
0.0
  0
VERTEX
  5
2C6
  8
1
  6
CONTINUOUS
 62
     7
 10
589.4644660940672
 20
161.8973023330695
 30
0.0
  0
VERTEX
  5
2C7
  8
1
  6
CONTINUOUS
 62
     7
 10
590.222148834902
 20
161.497607898335
 30
0.0
  0
VERTEX
  5
2C8
  8
1
  6
CONTINUOUS
 62
     7
 10
591.0865828381745
 20
161.2006081397235
 30
0.0
  0
VERTEX
  5
2C9
  8
1
  6
CONTINUOUS
 62
     7
 10
592.0245483899193
 20
161.0177165913991
 30
0.0
  0
VERTEX
  5
2CA
  8
1
  6
CONTINUOUS
 62
     7
 10
593.0
 20
160.955961672997
 30
0.0
  0
SEQEND
  5
524
  8
1
  6
CONTINUOUS
 62
     7
  0
LINE
  5
1B1
  8
1
  6
CONTINUOUS
 62
     7
 10
593.0
 20
160.9559616729971
 30
0.0
 11
600.8
 21
160.9559616729971
 31
0.0
  0
LINE
  5
1B2
  8
1
  6
CONTINUOUS
 62
     7
 10
593.0
 20
163.4073038909778
 30
0.0
 11
600.8
 21
163.4073038909778
 31
0.0
  0
LINE
  5
1B3
  8
1
  6
CONTINUOUS
 62
     7
 10
617.0
 20
163.4073038909778
 30
0.0
 11
609.1999999999999
 21
163.4073038909778
 31
0.0
  0
LINE
  5
1B4
  8
1
  6
CONTINUOUS
 62
     7
 10
617.0
 20
160.9559616729971
 30
0.0
 11
609.1999999999999
 21
160.9559616729971
 31
0.0
  0
POLYLINE
  5
1B5
  8
1
  6
CONTINUOUS
 62
     7
 66
     1
 10
0.0
 20
0.0
 30
0.0
  0
VERTEX
  5
2CB
  8
1
  6
CONTINUOUS
 62
     7
 10
617.0
 20
160.955961672997
 30
0.0
  0
VERTEX
  5
2CC
  8
1
  6
CONTINUOUS
 62
     7
 10
617.9754516100807
 20
161.0177165913991
 30
0.0
  0
VERTEX
  5
2CD
  8
1
  6
CONTINUOUS
 62
     7
 10
618.9134171618255
 20
161.2006081397235
 30
0.0
  0
VERTEX
  5
2CE
  8
1
  6
CONTINUOUS
 62
     7
 10
619.777851165098
 20
161.497607898335
 30
0.0
  0
VERTEX
  5
2CF
  8
1
  6
CONTINUOUS
 62
     7
 10
620.5355339059328
 20
161.8973023330695
 30
0.0
  0
VERTEX
  5
2D0
  8
1
  6
CONTINUOUS
 62
     7
 10
621.1573480615127
 20
162.3843314109514
 30
0.0
  0
VERTEX
  5
2D1
  8
1
  6
CONTINUOUS
 62
     7
 10
621.6193976625565
 20
162.9399788776468
 30
0.0
  0
VERTEX
  5
2D2
  8
1
  6
CONTINUOUS
 62
     7
 10
621.9039264020162
 20
163.5428915126211
 30
0.0
  0
VERTEX
  5
2D3
  8
1
  6
CONTINUOUS
 62
     7
 10
622.0
 20
164.1698997214297
 30
0.0
  0
SEQEND
  5
525
  8
1
  6
CONTINUOUS
 62
     7
  0
POLYLINE
  5
1B6
  8
1
  6
CONTINUOUS
 62
     7
 66
     1
 10
0.0
 20
0.0
 30
0.0
  0
VERTEX
  5
2D4
  8
1
  6
CONTINUOUS
 62
     7
 10
617.0
 20
163.4073038909778
 30
0.0
  0
VERTEX
  5
2D5
  8
1
  6
CONTINUOUS
 62
     7
 10
617.9754516100807
 20
163.4690588093798
 30
0.0
  0
VERTEX
  5
2D6
  8
1
  6
CONTINUOUS
 62
     7
 10
618.9134171618255
 20
163.6519503577042
 30
0.0
  0
VERTEX
  5
2D7
  8
1
  6
CONTINUOUS
 62
     7
 10
619.777851165098
 20
163.9489501163157
 30
0.0
  0
VERTEX
  5
2D8
  8
1
  6
CONTINUOUS
 62
     7
 10
620.5355339059328
 20
164.3486445510503
 30
0.0
  0
VERTEX
  5
2D9
  8
1
  6
CONTINUOUS
 62
     7
 10
621.1573480615127
 20
164.8356736289321
 30
0.0
  0
VERTEX
  5
2DA
  8
1
  6
CONTINUOUS
 62
     7
 10
621.6193976625565
 20
165.3913210956275
 30
0.0
  0
VERTEX
  5
2DB
  8
1
  6
CONTINUOUS
 62
     7
 10
621.9039264020162
 20
165.9942337306018
 30
0.0
  0
VERTEX
  5
2DC
  8
1
  6
CONTINUOUS
 62
     7
 10
622.0
 20
166.6212419394105
 30
0.0
  0
SEQEND
  5
526
  8
1
  6
CONTINUOUS
 62
     7
  0
POLYLINE
  5
1B7
  8
1
  6
CONTINUOUS
 62
     7
 66
     1
 10
0.0
 20
0.0
 30
0.0
  0
VERTEX
  5
2DD
  8
1
  6
CONTINUOUS
 62
     7
 10
600.8000000000001
 20
163.4073038909778
 30
0.0
  0
VERTEX
  5
2DE
  8
1
  6
CONTINUOUS
 62
     7
 10
600.9950903220162
 20
163.4196548746582
 30
0.0
  0
VERTEX
  5
2DF
  8
1
  6
CONTINUOUS
 62
     7
 10
601.1826834323651
 20
163.4562331843231
 30
0.0
  0
VERTEX
  5
2E0
  8
1
  6
CONTINUOUS
 62
     7
 10
601.3555702330196
 20
163.5156331360454
 30
0.0
  0
VERTEX
  5
2E1
  8
1
  6
CONTINUOUS
 62
     7
 10
601.5071067811865
 20
163.5955720229923
 30
0.0
  0
VERTEX
  5
2E2
  8
1
  6
CONTINUOUS
 62
     7
 10
601.6314696123026
 20
163.6929778385687
 30
0.0
  0
VERTEX
  5
2E3
  8
1
  6
CONTINUOUS
 62
     7
 10
601.7238795325112
 20
163.8041073319078
 30
0.0
  0
VERTEX
  5
2E4
  8
1
  6
CONTINUOUS
 62
     7
 10
601.7807852804032
 20
163.9246898589026
 30
0.0
  0
VERTEX
  5
2E5
  8
1
  6
CONTINUOUS
 62
     7
 10
601.8
 20
164.0500915006643
 30
0.0
  0
SEQEND
  5
527
  8
1
  6
CONTINUOUS
 62
     7
  0
POLYLINE
  5
1B8
  8
1
  6
CONTINUOUS
 62
     7
 66
     1
 10
0.0
 20
0.0
 30
0.0
  0
VERTEX
  5
2E6
  8
1
  6
CONTINUOUS
 62
     7
 10
600.8
 20
160.9559616729971
 30
0.0
  0
VERTEX
  5
2E7
  8
1
  6
CONTINUOUS
 62
     7
 10
600.995090322016
 20
160.9683126566775
 30
0.0
  0
VERTEX
  5
2E8
  8
1
  6
CONTINUOUS
 62
     7
 10
601.182683432365
 20
161.0048909663424
 30
0.0
  0
VERTEX
  5
2E9
  8
1
  6
CONTINUOUS
 62
     7
 10
601.3555702330195
 20
161.0642909180647
 30
0.0
  0
VERTEX
  5
2EA
  8
1
  6
CONTINUOUS
 62
     7
 10
601.5071067811865
 20
161.1442298050116
 30
0.0
  0
VERTEX
  5
2EB
  8
1
  6
CONTINUOUS
 62
     7
 10
601.6314696123026
 20
161.241635620588
 30
0.0
  0
VERTEX
  5
2EC
  8
1
  6
CONTINUOUS
 62
     7
 10
601.7238795325112
 20
161.3527651139271
 30
0.0
  0
VERTEX
  5
2ED
  8
1
  6
CONTINUOUS
 62
     7
 10
601.7807852804032
 20
161.4733476409219
 30
0.0
  0
VERTEX
  5
2EE
  8
1
  6
CONTINUOUS
 62
     7
 10
601.8
 20
161.5987492826837
 30
0.0
  0
SEQEND
  5
528
  8
1
  6
CONTINUOUS
 62
     7
  0
LINE
  5
1B9
  8
1
  6
CONTINUOUS
 62
     7
 10
619.0
 20
142.919223179189
 30
0.0
 11
615.0
 21
142.919223179189
 31
0.0
  0
LINE
  5
1BA
  8
1
  6
CONTINUOUS
 62
     7
 10
595.0
 20
142.919223179189
 30
0.0
 11
591.0
 21
142.919223179189
 31
0.0
  0
LINE
  5
1BB
  8
1
  6
CONTINUOUS
 62
     7
 10
619.0
 20
139.76783836955
 30
0.0
 11
615.0
 21
139.76783836955
 31
0.0
  0
LINE
  5
1BC
  8
1
  6
CONTINUOUS
 62
     7
 10
595.0
 20
139.76783836955
 30
0.0
 11
591.0
 21
139.76783836955
 31
0.0
  0
POLYLINE
  5
1BD
  8
1
  6
CONTINUOUS
 62
     7
 66
     1
 10
0.0
 20
0.0
 30
0.0
  0
VERTEX
  5
2EF
  8
1
  6
CONTINUOUS
 62
     7
 10
615.2784997659176
 20
145.0898254000257
 30
0.0
  0
VERTEX
  5
2F0
  8
1
  6
CONTINUOUS
 62
     7
 10
615.2704765409753
 20
145.105316971188
 30
0.0
  0
VERTEX
  5
2F1
  8
1
  6
CONTINUOUS
 62
     7
 10
615.2466643547021
 20
145.1203113729097
 30
0.0
  0
SEQEND
  5
529
  8
1
  6
CONTINUOUS
 62
     7
  0
LINE
  5
1BE
  8
1
  6
CONTINUOUS
 62
     7
 10
612.4999999999999
 20
146.3921867325276
 30
0.0
 11
615.246664354702
 21
145.1203113729096
 31
0.0
  0
POLYLINE
  5
1BF
  8
1
  6
CONTINUOUS
 62
     7
 66
     1
 10
0.0
 20
0.0
 30
0.0
  0
VERTEX
  5
2F2
  8
1
  6
CONTINUOUS
 62
     7
 10
619.0
 20
142.9192231791891
 30
0.0
  0
VERTEX
  5
2F3
  8
1
  6
CONTINUOUS
 62
     7
 10
619.5852709660484
 20
142.9292329823161
 30
0.0
  0
VERTEX
  5
2F4
  8
1
  6
CONTINUOUS
 62
     7
 10
620.1480502970953
 20
142.9588777205768
 30
0.0
  0
VERTEX
  5
2F5
  8
1
  6
CONTINUOUS
 62
     7
 10
620.6667106990589
 20
143.0070181633046
 30
0.0
  0
VERTEX
  5
2F6
  8
1
  6
CONTINUOUS
 62
     7
 10
621.1213203435597
 20
143.0718043002829
 30
0.0
  0
VERTEX
  5
2F7
  8
1
  6
CONTINUOUS
 62
     7
 10
621.4944088369076
 20
143.1507464366003
 30
0.0
  0
VERTEX
  5
2F8
  8
1
  6
CONTINUOUS
 62
     7
 10
621.7716385975339
 20
143.2408108702293
 30
0.0
  0
VERTEX
  5
2F9
  8
1
  6
CONTINUOUS
 62
     7
 10
621.9423558412097
 20
143.3385364754942
 30
0.0
  0
VERTEX
  5
2FA
  8
1
  6
CONTINUOUS
 62
     7
 10
622.0
 20
143.4401677121899
 30
0.0
  0
SEQEND
  5
52A
  8
1
  6
CONTINUOUS
 62
     7
  0
POLYLINE
  5
1C0
  8
1
  6
CONTINUOUS
 62
     7
 66
     1
 10
0.0
 20
0.0
 30
0.0
  0
VERTEX
  5
2FB
  8
1
  6
CONTINUOUS
 62
     7
 10
588.0
 20
143.4401677121899
 30
0.0
  0
VERTEX
  5
2FC
  8
1
  6
CONTINUOUS
 62
     7
 10
588.0576441587903
 20
143.3385364754942
 30
0.0
  0
VERTEX
  5
2FD
  8
1
  6
CONTINUOUS
 62
     7
 10
588.2283614024661
 20
143.2408108702293
 30
0.0
  0
VERTEX
  5
2FE
  8
1
  6
CONTINUOUS
 62
     7
 10
588.5055911630924
 20
143.1507464366003
 30
0.0
  0
VERTEX
  5
2FF
  8
1
  6
CONTINUOUS
 62
     7
 10
588.8786796564403
 20
143.0718043002829
 30
0.0
  0
VERTEX
  5
300
  8
1
  6
CONTINUOUS
 62
     7
 10
589.3332893009411
 20
143.0070181633046
 30
0.0
  0
VERTEX
  5
301
  8
1
  6
CONTINUOUS
 62
     7
 10
589.8519497029047
 20
142.9588777205768
 30
0.0
  0
VERTEX
  5
302
  8
1
  6
CONTINUOUS
 62
     7
 10
590.4147290339516
 20
142.9292329823161
 30
0.0
  0
VERTEX
  5
303
  8
1
  6
CONTINUOUS
 62
     7
 10
591.0
 20
142.9192231791891
 30
0.0
  0
SEQEND
  5
52B
  8
1
  6
CONTINUOUS
 62
     7
  0
LINE
  5
1C1
  8
1
  6
CONTINUOUS
 62
     7
 10
597.5
 20
146.3921867325276
 30
0.0
 11
594.7533356452979
 21
145.1203113729096
 31
0.0
  0
POLYLINE
  5
1C2
  8
1
  6
CONTINUOUS
 62
     7
 66
     1
 10
0.0
 20
0.0
 30
0.0
  0
VERTEX
  5
304
  8
1
  6
CONTINUOUS
 62
     7
 10
594.7533356452977
 20
145.1203113729097
 30
0.0
  0
VERTEX
  5
305
  8
1
  6
CONTINUOUS
 62
     7
 10
594.7295234590246
 20
145.105316971188
 30
0.0
  0
VERTEX
  5
306
  8
1
  6
CONTINUOUS
 62
     7
 10
594.7215002340823
 20
145.0898254000257
 30
0.0
  0
SEQEND
  5
52C
  8
1
  6
CONTINUOUS
 62
     7
  0
LINE
  5
1C3
  8
1
  6
CONTINUOUS
 62
     7
 10
595.2215002340822
 20
145.0030013111922
 30
0.0
 11
614.7784997659177
 21
145.0030013111922
 31
0.0
  0
LINE
  5
1C4
  8
1
  6
CONTINUOUS
 62
     7
 10
594.5
 20
143.7006399786901
 30
0.0
 11
595.0
 21
143.7006399786901
 31
0.0
  0
LINE
  5
1C5
  8
1
  6
CONTINUOUS
 62
     7
 10
615.0
 20
143.7006399786901
 30
0.0
 11
615.4999999999999
 21
143.7006399786901
 31
0.0
  0
LINE
  5
1C6
  8
1
  6
CONTINUOUS
 62
     7
 10
615.4999999999999
 20
144.221584511691
 30
0.0
 11
615.4999999999999
 21
143.7006399786902
 31
0.0
  0
LINE
  5
1C7
  8
1
  6
CONTINUOUS
 62
     7
 10
594.5
 20
144.221584511691
 30
0.0
 11
615.4999999999999
 21
144.221584511691
 31
0.0
  0
LINE
  5
1C8
  8
1
  6
CONTINUOUS
 62
     7
 10
594.5
 20
144.221584511691
 30
0.0
 11
594.5
 21
143.7006399786902
 31
0.0
  0
POLYLINE
  5
1C9
  8
1
  6
CONTINUOUS
 62
     7
 66
     1
 10
0.0
 20
0.0
 30
0.0
  0
VERTEX
  5
307
  8
1
  6
CONTINUOUS
 62
     7
 10
588.0
 20
140.2887829025508
 30
0.0
  0
VERTEX
  5
308
  8
1
  6
CONTINUOUS
 62
     7
 10
588.0576441587903
 20
140.1871516658551
 30
0.0
  0
VERTEX
  5
309
  8
1
  6
CONTINUOUS
 62
     7
 10
588.2283614024661
 20
140.0894260605902
 30
0.0
  0
VERTEX
  5
30A
  8
1
  6
CONTINUOUS
 62
     7
 10
588.5055911630924
 20
139.9993616269612
 30
0.0
  0
VERTEX
  5
30B
  8
1
  6
CONTINUOUS
 62
     7
 10
588.8786796564403
 20
139.9204194906438
 30
0.0
  0
VERTEX
  5
30C
  8
1
  6
CONTINUOUS
 62
     7
 10
589.3332893009411
 20
139.8556333536655
 30
0.0
  0
VERTEX
  5
30D
  8
1
  6
CONTINUOUS
 62
     7
 10
589.8519497029047
 20
139.8074929109377
 30
0.0
  0
VERTEX
  5
30E
  8
1
  6
CONTINUOUS
 62
     7
 10
590.4147290339516
 20
139.777848172677
 30
0.0
  0
VERTEX
  5
30F
  8
1
  6
CONTINUOUS
 62
     7
 10
591.0
 20
139.76783836955
 30
0.0
  0
SEQEND
  5
52D
  8
1
  6
CONTINUOUS
 62
     7
  0
POLYLINE
  5
1CA
  8
1
  6
CONTINUOUS
 62
     7
 66
     1
 10
0.0
 20
0.0
 30
0.0
  0
VERTEX
  5
310
  8
1
  6
CONTINUOUS
 62
     7
 10
619.0
 20
139.76783836955
 30
0.0
  0
VERTEX
  5
311
  8
1
  6
CONTINUOUS
 62
     7
 10
619.5852709660484
 20
139.777848172677
 30
0.0
  0
VERTEX
  5
312
  8
1
  6
CONTINUOUS
 62
     7
 10
620.1480502970953
 20
139.8074929109377
 30
0.0
  0
VERTEX
  5
313
  8
1
  6
CONTINUOUS
 62
     7
 10
620.6667106990589
 20
139.8556333536655
 30
0.0
  0
VERTEX
  5
314
  8
1
  6
CONTINUOUS
 62
     7
 10
621.1213203435597
 20
139.9204194906438
 30
0.0
  0
VERTEX
  5
315
  8
1
  6
CONTINUOUS
 62
     7
 10
621.4944088369076
 20
139.9993616269612
 30
0.0
  0
VERTEX
  5
316
  8
1
  6
CONTINUOUS
 62
     7
 10
621.7716385975339
 20
140.0894260605902
 30
0.0
  0
VERTEX
  5
317
  8
1
  6
CONTINUOUS
 62
     7
 10
621.9423558412097
 20
140.1871516658551
 30
0.0
  0
VERTEX
  5
318
  8
1
  6
CONTINUOUS
 62
     7
 10
622.0
 20
140.2887829025508
 30
0.0
  0
SEQEND
  5
52E
  8
1
  6
CONTINUOUS
 62
     7
  0
POLYLINE
  5
1CB
  8
1
  6
CONTINUOUS
 62
     7
 66
     1
 10
0.0
 20
0.0
 30
0.0
  0
VERTEX
  5
319
  8
1
  6
CONTINUOUS
 62
     7
 10
614.7784997659177
 20
145.0030013111922
 30
0.0
  0
VERTEX
  5
31A
  8
1
  6
CONTINUOUS
 62
     7
 10
614.8760449269257
 20
145.0046696117134
 30
0.0
  0
VERTEX
  5
31B
  8
1
  6
CONTINUOUS
 62
     7
 10
614.9698414821002
 20
145.0096104014235
 30
0.0
  0
VERTEX
  5
31C
  8
1
  6
CONTINUOUS
 62
     7
 10
615.0562848824275
 20
145.0176338085448
 30
0.0
  0
VERTEX
  5
31D
  8
1
  6
CONTINUOUS
 62
     7
 10
615.1320531565109
 20
145.0284314980412
 30
0.0
  0
VERTEX
  5
31E
  8
1
  6
CONTINUOUS
 62
     7
 10
615.1942345720689
 20
145.0415885207608
 30
0.0
  0
VERTEX
  5
31F
  8
1
  6
CONTINUOUS
 62
     7
 10
615.2404395321732
 20
145.0565992596989
 30
0.0
  0
VERTEX
  5
320
  8
1
  6
CONTINUOUS
 62
     7
 10
615.2688924061192
 20
145.0728868605764
 30
0.0
  0
VERTEX
  5
321
  8
1
  6
CONTINUOUS
 62
     7
 10
615.2784997659176
 20
145.0898254000257
 30
0.0
  0
SEQEND
  5
52F
  8
1
  6
CONTINUOUS
 62
     7
  0
POLYLINE
  5
1CC
  8
1
  6
CONTINUOUS
 62
     7
 66
     1
 10
0.0
 20
0.0
 30
0.0
  0
VERTEX
  5
322
  8
1
  6
CONTINUOUS
 62
     7
 10
594.7215002340823
 20
145.0898254000257
 30
0.0
  0
VERTEX
  5
323
  8
1
  6
CONTINUOUS
 62
     7
 10
594.7311075938807
 20
145.0728868605764
 30
0.0
  0
VERTEX
  5
324
  8
1
  6
CONTINUOUS
 62
     7
 10
594.7595604678266
 20
145.0565992596989
 30
0.0
  0
VERTEX
  5
325
  8
1
  6
CONTINUOUS
 62
     7
 10
594.805765427931
 20
145.0415885207608
 30
0.0
  0
VERTEX
  5
326
  8
1
  6
CONTINUOUS
 62
     7
 10
594.867946843489
 20
145.0284314980412
 30
0.0
  0
VERTEX
  5
327
  8
1
  6
CONTINUOUS
 62
     7
 10
594.9437151175724
 20
145.0176338085448
 30
0.0
  0
VERTEX
  5
328
  8
1
  6
CONTINUOUS
 62
     7
 10
595.0301585178997
 20
145.0096104014235
 30
0.0
  0
VERTEX
  5
329
  8
1
  6
CONTINUOUS
 62
     7
 10
595.1239550730742
 20
145.0046696117134
 30
0.0
  0
VERTEX
  5
32A
  8
1
  6
CONTINUOUS
 62
     7
 10
595.2215002340822
 20
145.0030013111922
 30
0.0
  0
SEQEND
  5
530
  8
1
  6
CONTINUOUS
 62
     7
  0
LINE
  5
1CD
  8
1
  6
CONTINUOUS
 62
     7
 10
612.4999999999999
 20
145.0030013111922
 30
0.0
 11
612.4999999999999
 21
145.8921867325276
 31
0.0
  0
POLYLINE
  5
1CE
  8
1
  6
CONTINUOUS
 62
     7
 66
     1
 10
0.0
 20
0.0
 30
0.0
  0
VERTEX
  5
32B
  8
1
  6
CONTINUOUS
 62
     7
 10
612.0
 20
146.3921867325276
 30
0.0
  0
VERTEX
  5
32C
  8
1
  6
CONTINUOUS
 62
     7
 10
612.0245338371637
 20
146.3915844606302
 30
0.0
  0
VERTEX
  5
32D
  8
1
  6
CONTINUOUS
 62
     7
 10
612.0490085701647
 20
146.3897790958638
 30
0.0
  0
VERTEX
  5
32E
  8
1
  6
CONTINUOUS
 62
     7
 10
612.0733652372277
 20
146.38677498751
 30
0.0
  0
VERTEX
  5
32F
  8
1
  6
CONTINUOUS
 62
     7
 10
612.097545161008
 20
146.3825793727293
 30
0.0
  0
VERTEX
  5
330
  8
1
  6
CONTINUOUS
 62
     7
 10
612.1214900899516
 20
146.3772023591249
 30
0.0
  0
VERTEX
  5
331
  8
1
  6
CONTINUOUS
 62
     7
 10
612.1451423386271
 20
146.3706569003938
 30
0.0
  0
VERTEX
  5
332
  8
1
  6
CONTINUOUS
 62
     7
 10
612.1684449266961
 20
146.3629587651192
 30
0.0
  0
VERTEX
  5
333
  8
1
  6
CONTINUOUS
 62
     7
 10
612.1913417161825
 20
146.3541264987833
 30
0.0
  0
VERTEX
  5
334
  8
1
  6
CONTINUOUS
 62
     7
 10
612.2137775467152
 20
146.3441813790894
 30
0.0
  0
VERTEX
  5
335
  8
1
  6
CONTINUOUS
 62
     7
 10
612.235698368413
 20
146.3331473647018
 30
0.0
  0
VERTEX
  5
336
  8
1
  6
CONTINUOUS
 62
     7
 10
612.2570513720966
 20
146.3210510375278
 30
0.0
  0
VERTEX
  5
337
  8
1
  6
CONTINUOUS
 62
     7
 10
612.2777851165098
 20
146.3079215386789
 30
0.0
  0
VERTEX
  5
338
  8
1
  6
CONTINUOUS
 62
     7
 10
612.2978496522462
 20
146.293790498268
 30
0.0
  0
VERTEX
  5
339
  8
1
  6
CONTINUOUS
 62
     7
 10
612.3171966420819
 20
146.278691959209
 30
0.0
  0
VERTEX
  5
33A
  8
1
  6
CONTINUOUS
 62
     7
 10
612.3357794774234
 20
146.2626622952051
 30
0.0
  0
VERTEX
  5
33B
  8
1
  6
CONTINUOUS
 62
     7
 10
612.3535533905932
 20
146.2457401231209
 30
0.0
  0
VERTEX
  5
33C
  8
1
  6
CONTINUOUS
 62
     7
 10
612.3704755626774
 20
146.2279662099511
 30
0.0
  0
VERTEX
  5
33D
  8
1
  6
CONTINUOUS
 62
     7
 10
612.3865052266814
 20
146.2093833746095
 30
0.0
  0
VERTEX
  5
33E
  8
1
  6
CONTINUOUS
 62
     7
 10
612.4016037657402
 20
146.1900363847738
 30
0.0
  0
VERTEX
  5
33F
  8
1
  6
CONTINUOUS
 62
     7
 10
612.4157348061512
 20
146.1699718490375
 30
0.0
  0
VERTEX
  5
340
  8
1
  6
CONTINUOUS
 62
     7
 10
612.428864305
 20
146.1492381046243
 30
0.0
  0
VERTEX
  5
341
  8
1
  6
CONTINUOUS
 62
     7
 10
612.4409606321741
 20
146.1278851009407
 30
0.0
  0
VERTEX
  5
342
  8
1
  6
CONTINUOUS
 62
     7
 10
612.4519946465617
 20
146.1059642792428
 30
0.0
  0
VERTEX
  5
343
  8
1
  6
CONTINUOUS
 62
     7
 10
612.4619397662556
 20
146.0835284487102
 30
0.0
  0
VERTEX
  5
344
  8
1
  6
CONTINUOUS
 62
     7
 10
612.4707720325914
 20
146.0606316592237
 30
0.0
  0
VERTEX
  5
345
  8
1
  6
CONTINUOUS
 62
     7
 10
612.478470167866
 20
146.0373290711549
 30
0.0
  0
VERTEX
  5
346
  8
1
  6
CONTINUOUS
 62
     7
 10
612.4850156265973
 20
146.0136768224793
 30
0.0
  0
VERTEX
  5
347
  8
1
  6
CONTINUOUS
 62
     7
 10
612.4903926402015
 20
145.9897318935357
 30
0.0
  0
VERTEX
  5
348
  8
1
  6
CONTINUOUS
 62
     7
 10
612.4945882549823
 20
145.9655519697553
 30
0.0
  0
VERTEX
  5
349
  8
1
  6
CONTINUOUS
 62
     7
 10
612.4975923633361
 20
145.9411953026924
 30
0.0
  0
VERTEX
  5
34A
  8
1
  6
CONTINUOUS
 62
     7
 10
612.4993977281026
 20
145.9167205696913
 30
0.0
  0
VERTEX
  5
34B
  8
1
  6
CONTINUOUS
 62
     7
 10
612.4999999999999
 20
145.8921867325276
 30
0.0
  0
SEQEND
  5
531
  8
1
  6
CONTINUOUS
 62
     7
  0
POLYLINE
  5
1CF
  8
1
  6
CONTINUOUS
 62
     7
 66
     1
 10
0.0
 20
0.0
 30
0.0
  0
VERTEX
  5
34C
  8
1
  6
CONTINUOUS
 62
     7
 10
598.0
 20
146.3921867325276
 30
0.0
  0
VERTEX
  5
34D
  8
1
  6
CONTINUOUS
 62
     7
 10
597.9754661628363
 20
146.3915844606302
 30
0.0
  0
VERTEX
  5
34E
  8
1
  6
CONTINUOUS
 62
     7
 10
597.9509914298352
 20
146.3897790958638
 30
0.0
  0
VERTEX
  5
34F
  8
1
  6
CONTINUOUS
 62
     7
 10
597.9266347627723
 20
146.38677498751
 30
0.0
  0
VERTEX
  5
350
  8
1
  6
CONTINUOUS
 62
     7
 10
597.902454838992
 20
146.3825793727293
 30
0.0
  0
VERTEX
  5
351
  8
1
  6
CONTINUOUS
 62
     7
 10
597.8785099100483
 20
146.3772023591249
 30
0.0
  0
VERTEX
  5
352
  8
1
  6
CONTINUOUS
 62
     7
 10
597.8548576613728
 20
146.3706569003938
 30
0.0
  0
VERTEX
  5
353
  8
1
  6
CONTINUOUS
 62
     7
 10
597.8315550733039
 20
146.3629587651192
 30
0.0
  0
VERTEX
  5
354
  8
1
  6
CONTINUOUS
 62
     7
 10
597.8086582838174
 20
146.3541264987833
 30
0.0
  0
VERTEX
  5
355
  8
1
  6
CONTINUOUS
 62
     7
 10
597.7862224532848
 20
146.3441813790894
 30
0.0
  0
VERTEX
  5
356
  8
1
  6
CONTINUOUS
 62
     7
 10
597.764301631587
 20
146.3331473647018
 30
0.0
  0
VERTEX
  5
357
  8
1
  6
CONTINUOUS
 62
     7
 10
597.7429486279033
 20
146.3210510375278
 30
0.0
  0
VERTEX
  5
358
  8
1
  6
CONTINUOUS
 62
     7
 10
597.7222148834902
 20
146.3079215386789
 30
0.0
  0
VERTEX
  5
359
  8
1
  6
CONTINUOUS
 62
     7
 10
597.7021503477538
 20
146.293790498268
 30
0.0
  0
VERTEX
  5
35A
  8
1
  6
CONTINUOUS
 62
     7
 10
597.6828033579181
 20
146.278691959209
 30
0.0
  0
VERTEX
  5
35B
  8
1
  6
CONTINUOUS
 62
     7
 10
597.6642205225764
 20
146.2626622952051
 30
0.0
  0
VERTEX
  5
35C
  8
1
  6
CONTINUOUS
 62
     7
 10
597.6464466094067
 20
146.2457401231209
 30
0.0
  0
VERTEX
  5
35D
  8
1
  6
CONTINUOUS
 62
     7
 10
597.6295244373225
 20
146.2279662099511
 30
0.0
  0
VERTEX
  5
35E
  8
1
  6
CONTINUOUS
 62
     7
 10
597.6134947733186
 20
146.2093833746095
 30
0.0
  0
VERTEX
  5
35F
  8
1
  6
CONTINUOUS
 62
     7
 10
597.5983962342597
 20
146.1900363847738
 30
0.0
  0
VERTEX
  5
360
  8
1
  6
CONTINUOUS
 62
     7
 10
597.5842651938486
 20
146.1699718490375
 30
0.0
  0
VERTEX
  5
361
  8
1
  6
CONTINUOUS
 62
     7
 10
597.5711356949998
 20
146.1492381046243
 30
0.0
  0
VERTEX
  5
362
  8
1
  6
CONTINUOUS
 62
     7
 10
597.5590393678258
 20
146.1278851009407
 30
0.0
  0
VERTEX
  5
363
  8
1
  6
CONTINUOUS
 62
     7
 10
597.5480053534382
 20
146.1059642792428
 30
0.0
  0
VERTEX
  5
364
  8
1
  6
CONTINUOUS
 62
     7
 10
597.5380602337443
 20
146.0835284487102
 30
0.0
  0
VERTEX
  5
365
  8
1
  6
CONTINUOUS
 62
     7
 10
597.5292279674085
 20
146.0606316592237
 30
0.0
  0
VERTEX
  5
366
  8
1
  6
CONTINUOUS
 62
     7
 10
597.5215298321339
 20
146.0373290711549
 30
0.0
  0
VERTEX
  5
367
  8
1
  6
CONTINUOUS
 62
     7
 10
597.5149843734026
 20
146.0136768224793
 30
0.0
  0
VERTEX
  5
368
  8
1
  6
CONTINUOUS
 62
     7
 10
597.5096073597985
 20
145.9897318935357
 30
0.0
  0
VERTEX
  5
369
  8
1
  6
CONTINUOUS
 62
     7
 10
597.5054117450176
 20
145.9655519697553
 30
0.0
  0
VERTEX
  5
36A
  8
1
  6
CONTINUOUS
 62
     7
 10
597.5024076366639
 20
145.9411953026924
 30
0.0
  0
VERTEX
  5
36B
  8
1
  6
CONTINUOUS
 62
     7
 10
597.5006022718974
 20
145.9167205696913
 30
0.0
  0
VERTEX
  5
36C
  8
1
  6
CONTINUOUS
 62
     7
 10
597.5
 20
145.8921867325276
 30
0.0
  0
SEQEND
  5
532
  8
1
  6
CONTINUOUS
 62
     7
  0
LINE
  5
1D0
  8
1
  6
CONTINUOUS
 62
     7
 10
597.5
 20
145.0030013111922
 30
0.0
 11
597.5
 21
145.8921867325276
 31
0.0
  0
LINE
  5
1D1
  8
1
  6
CONTINUOUS
 62
     7
 10
613.7763932022501
 20
177.3576862049882
 30
0.0
 11
613.1617834407456
 21
177.3921867325276
 31
0.0
  0
LINE
  5
1D2
  8
1
  6
CONTINUOUS
 62
     7
 10
595.7763932022501
 20
177.3576862049882
 30
0.0
 11
595.1617834407455
 21
177.3921867325276
 31
0.0
  0
LINE
  5
1D3
  8
1
  6
CONTINUOUS
 62
     7
 10
614.22360679775
 20
177.3576862049881
 30
0.0
 11
613.77639320225
 21
177.3576862049881
 31
0.0
  0
LINE
  5
1D4
  8
1
  6
CONTINUOUS
 62
     7
 10
614.8382165592545
 20
177.3921867325277
 30
0.0
 11
614.2236067977499
 21
177.3576862049882
 31
0.0
  0
LINE
  5
1D5
  8
1
  6
CONTINUOUS
 62
     7
 10
596.22360679775
 20
177.3576862049881
 30
0.0
 11
595.77639320225
 21
177.3576862049881
 31
0.0
  0
LINE
  5
1D6
  8
1
  6
CONTINUOUS
 62
     7
 10
596.8382165592544
 20
177.3921867325277
 30
0.0
 11
596.2236067977499
 21
177.3576862049882
 31
0.0
  0
ARC
  5
1D7
  8
1
  6
CONTINUOUS
 62
     7
 10
594.0
 20
162.3921867325276
 30
0.0
 40
2.000000000000006
 50
225.4710554572735
 51
314.1011335330016
  0
ARC
  5
1D8
  8
1
  6
CONTINUOUS
 62
     7
 10
605.0
 20
156.3921867325276
 30
0.0
 40
3.199999999999981
 50
179.999999999998
 51
0.0
  0
ARC
  5
1D9
  8
1
  6
CONTINUOUS
 62
     7
 10
616.0
 20
162.3921867325276
 30
0.0
 40
2.000000000000007
 50
225.8988664669985
 51
314.528944542723
  0
ARC
  5
1DA
  8
1
  6
CONTINUOUS
 62
     7
 10
594.1999999999999
 20
33.19218673252765
 30
0.0
 40
0.3000000000000017
 50
270.0000000000013
 51
359.9999999999974
  0
ARC
  5
1DB
  8
1
  6
CONTINUOUS
 62
     7
 10
615.8
 20
33.19218673252765
 30
0.0
 40
0.299999999999967
 50
180.0000000000026
 51
269.9999999999987
  0
LINE
  5
1DC
  8
1
  6
CONTINUOUS
 62
     7
 10
615.8
 20
32.89218673252764
 30
0.0
 11
616.8
 21
32.89218673252764
 31
0.0
  0
ARC
  5
1DD
  8
1
  6
CONTINUOUS
 62
     7
 10
616.8
 20
33.19218673252765
 30
0.0
 40
0.3000000000000017
 50
269.999999999999
 51
0.0
  0
ARC
  5
1DE
  8
1
  6
CONTINUOUS
 62
     7
 10
593.1999999999999
 20
33.19218673252765
 30
0.0
 40
0.299999999999967
 50
180.0
 51
270.000000000001
  0
LINE
  5
1DF
  8
1
  6
CONTINUOUS
 62
     7
 10
593.1999999999999
 20
32.89218673252764
 30
0.0
 11
594.1999999999999
 21
32.89218673252764
 31
0.0
  0
LINE
  5
1E0
  8
1
  6
CONTINUOUS
 62
     7
 10
594.4999999999999
 20
33.39218673252766
 30
0.0
 11
595.0
 21
33.39218673252766
 31
0.0
  0
LINE
  5
1E1
  8
1
  6
CONTINUOUS
 62
     7
 10
615.0
 20
33.39218673252766
 30
0.0
 11
615.5
 21
33.39218673252766
 31
0.0
  0
LINE
  5
1E2
  8
1
  6
CONTINUOUS
 62
     7
 10
615.0
 20
144.1006399786902
 30
0.0
 11
595.0
 21
144.1006399786902
 31
0.0
  0
LINE
  5
1E3
  8
1
  6
CONTINUOUS
 62
     7
 10
598.0
 20
172.1288072284663
 30
0.0
 11
598.0
 21
171.7457850069068
 31
0.0
  0
LINE
  5
1E4
  8
1
  6
CONTINUOUS
 62
     7
 10
612.0
 20
171.7457850069068
 30
0.0
 11
612.0
 21
172.1288072284663
 31
0.0
  0
LINE
  5
1E5
  8
1
  6
CONTINUOUS
 62
     7
 10
595.1617834407456
 20
177.3921867325276
 30
0.0
 11
588.0
 21
177.3921867325276
 31
0.0
  0
LINE
  5
1E6
  8
1
  6
CONTINUOUS
 62
     7
 10
613.1617834407456
 20
177.3921867325276
 30
0.0
 11
596.8382165592544
 21
177.3921867325276
 31
0.0
  0
LINE
  5
1E7
  8
1
  6
CONTINUOUS
 62
     7
 10
622.0
 20
177.3921867325276
 30
0.0
 11
614.8382165592544
 21
177.3921867325276
 31
0.0
  0
ENDBLK
  8
0
  0
BLOCK
  8
0
  2
D_FRAME_VIEW_1933
 70
     0
 10
0.0
 20
0.0
 30
0.0
  0
LINE
  5
1EC
  8
1
  6
CONTINUOUS
 62
     7
 10
791.8794600215766
 20
313.2
 30
0.0
 11
791.8794600215766
 21
306.8000000000001
 31
0.0
  0
LINE
  5
1ED
  8
1
  6
CONTINUOUS
 62
     7
 10
488.8794600215754
 20
320.5000000000002
 30
0.0
 11
488.8794600215754
 21
299.5000000000001
 31
0.0
  0
CIRCLE
  5
1EE
  8
1
  6
CONTINUOUS
 62
     7
 10
759.3794600215759
 20
310.0000000000001
 30
0.0
 40
3.500000000000059
  0
CIRCLE
  5
1EF
  8
1
  6
CONTINUOUS
 62
     7
 10
774.379460021576
 20
310.0000000000001
 30
0.0
 40
3.499999999999948
  0
LINE
  5
1F0
  8
1
  6
CONTINUOUS
 62
     7
 10
791.779460021576
 20
313.2
 30
0.0
 11
791.779460021576
 21
306.8000000000001
 31
0.0
  0
ARC
  5
1F1
  8
1
  6
CONTINUOUS
 62
     7
 10
755.379460021576
 20
315.0000000000001
 30
0.0
 40
5.000000000000004
 50
90.0
 51
180.0
  0
ARC
  5
1F2
  8
1
  6
CONTINUOUS
 62
     7
 10
755.379460021576
 20
305.0000000000001
 30
0.0
 40
5.000000000000004
 50
180.0
 51
270.0
  0
LINE
  5
1F3
  8
1
  6
CONTINUOUS
 62
     7
 10
750.379460021576
 20
315.0000000000001
 30
0.0
 11
750.379460021576
 21
305.0000000000001
 31
0.0
  0
CIRCLE
  5
1F4
  8
1
  6
CONTINUOUS
 62
     7
 10
521.3794600215759
 20
310.0000000000001
 30
0.0
 40
3.500000000000059
  0
CIRCLE
  5
1F5
  8
1
  6
CONTINUOUS
 62
     7
 10
506.3794600215761
 20
310.0000000000001
 30
0.0
 40
3.499999999999948
  0
LINE
  5
1F6
  8
1
  6
CONTINUOUS
 62
     7
 10
488.979460021576
 20
320.0000000000001
 30
0.0
 11
488.979460021576
 21
300.0000000000001
 31
0.0
  0
LINE
  5
1F7
  8
1
  6
CONTINUOUS
 62
     7
 10
488.979460021576
 20
300.0000000000001
 30
0.0
 11
489.1848673109083
 21
300.0000000000001
 31
0.0
  0
LINE
  5
1F8
  8
1
  6
CONTINUOUS
 62
     7
 10
488.979460021576
 20
320.0000000000001
 30
0.0
 11
489.1848673109083
 21
320.0000000000001
 31
0.0
  0
ARC
  5
1F9
  8
1
  6
CONTINUOUS
 62
     7
 10
525.3794600215759
 20
305.0000000000001
 30
0.0
 40
5.000000000000004
 50
270.0
 51
0.0
  0
ARC
  5
1FA
  8
1
  6
CONTINUOUS
 62
     7
 10
525.3794600215759
 20
315.0000000000001
 30
0.0
 40
5.000000000000004
 50
0.0
 51
90.0
  0
LINE
  5
1FB
  8
1
  6
CONTINUOUS
 62
     7
 10
530.3794600215759
 20
315.0000000000001
 30
0.0
 11
530.3794600215759
 21
305.0000000000001
 31
0.0
  0
POLYLINE
  5
1FC
  8
1
  6
CONTINUOUS
 62
     7
 66
     1
 10
0.0
 20
0.0
 30
0.0
  0
VERTEX
  5
36F
  8
1
  6
CONTINUOUS
 62
     7
 10
815.9098568748116
 20
303.0000000000001
 30
0.0
  0
VERTEX
  5
370
  8
1
  6
CONTINUOUS
 62
     7
 10
816.1469964271015
 20
303.1345030371774
 30
0.0
  0
VERTEX
  5
371
  8
1
  6
CONTINUOUS
 62
     7
 10
816.3750228393862
 20
303.532843272421
 30
0.0
  0
VERTEX
  5
372
  8
1
  6
CONTINUOUS
 62
     7
 10
816.5851731845205
 20
304.1797127138822
 30
0.0
  0
VERTEX
  5
373
  8
1
  6
CONTINUOUS
 62
     7
 10
816.7693715025944
 20
305.0502525316942
 30
0.0
  0
VERTEX
  5
374
  8
1
  6
CONTINUOUS
 62
     7
 10
816.9205391555439
 20
306.1110083688628
 30
0.0
  0
VERTEX
  5
375
  8
1
  6
CONTINUOUS
 62
     7
 10
817.0328668552421
 20
307.3212159734445
 30
0.0
  0
VERTEX
  5
376
  8
1
  6
CONTINUOUS
 62
     7
 10
817.1020379111835
 20
308.6343677458872
 30
0.0
  0
VERTEX
  5
377
  8
1
  6
CONTINUOUS
 62
     7
 10
817.1253941184801
 20
310.0000000000001
 30
0.0
  0
VERTEX
  5
378
  8
1
  6
CONTINUOUS
 62
     7
 10
817.1020379111835
 20
311.3656322541129
 30
0.0
  0
VERTEX
  5
379
  8
1
  6
CONTINUOUS
 62
     7
 10
817.0328668552421
 20
312.6787840265557
 30
0.0
  0
VERTEX
  5
37A
  8
1
  6
CONTINUOUS
 62
     7
 10
816.9205391555439
 20
313.8889916311373
 30
0.0
  0
VERTEX
  5
37B
  8
1
  6
CONTINUOUS
 62
     7
 10
816.7693715025944
 20
314.9497474683059
 30
0.0
  0
VERTEX
  5
37C
  8
1
  6
CONTINUOUS
 62
     7
 10
816.5851731845205
 20
315.8202872861179
 30
0.0
  0
VERTEX
  5
37D
  8
1
  6
CONTINUOUS
 62
     7
 10
816.3750228393862
 20
316.4671567275791
 30
0.0
  0
VERTEX
  5
37E
  8
1
  6
CONTINUOUS
 62
     7
 10
816.1469964271015
 20
316.8654969628226
 30
0.0
  0
VERTEX
  5
37F
  8
1
  6
CONTINUOUS
 62
     7
 10
815.9098568748116
 20
317.0000000000001
 30
0.0
  0
SEQEND
  5
533
  8
1
  6
CONTINUOUS
 62
     7
  0
POLYLINE
  5
1FD
  8
1
  6
CONTINUOUS
 62
     7
 66
     1
 10
0.0
 20
0.0
 30
0.0
  0
VERTEX
  5
380
  8
1
  6
CONTINUOUS
 62
     7
 10
815.9098568748116
 20
317.0000000000001
 30
0.0
  0
VERTEX
  5
381
  8
1
  6
CONTINUOUS
 62
     7
 10
815.6827024682144
 20
316.8766849326442
 30
0.0
  0
VERTEX
  5
382
  8
1
  6
CONTINUOUS
 62
     7
 10
815.4635513647457
 20
316.5110844751015
 30
0.0
  0
VERTEX
  5
383
  8
1
  6
CONTINUOUS
 62
     7
 10
815.2601248881442
 20
315.9160797830997
 30
0.0
  0
VERTEX
  5
384
  8
1
  6
CONTINUOUS
 62
     7
 10
815.079590338314
 20
315.112634583402
 30
0.0
  0
VERTEX
  5
385
  8
1
  6
CONTINUOUS
 62
     7
 10
814.9283084667327
 20
314.1290565614135
 30
0.0
  0
VERTEX
  5
386
  8
1
  6
CONTINUOUS
 62
     7
 10
814.8116093688814
 20
313.0000000000002
 30
0.0
  0
SEQEND
  5
534
  8
1
  6
CONTINUOUS
 62
     7
  0
POLYLINE
  5
1FE
  8
1
  6
CONTINUOUS
 62
     7
 66
     1
 10
0.0
 20
0.0
 30
0.0
  0
VERTEX
  5
387
  8
1
  6
CONTINUOUS
 62
     7
 10
814.8116093688814
 20
307.0
 30
0.0
  0
VERTEX
  5
388
  8
1
  6
CONTINUOUS
 62
     7
 10
814.9283084667327
 20
305.8709434385866
 30
0.0
  0
VERTEX
  5
389
  8
1
  6
CONTINUOUS
 62
     7
 10
815.079590338314
 20
304.8873654165981
 30
0.0
  0
VERTEX
  5
38A
  8
1
  6
CONTINUOUS
 62
     7
 10
815.2601248881442
 20
304.0839202169004
 30
0.0
  0
VERTEX
  5
38B
  8
1
  6
CONTINUOUS
 62
     7
 10
815.4635513647457
 20
303.4889155248986
 30
0.0
  0
VERTEX
  5
38C
  8
1
  6
CONTINUOUS
 62
     7
 10
815.6827024682144
 20
303.1233150673559
 30
0.0
  0
VERTEX
  5
38D
  8
1
  6
CONTINUOUS
 62
     7
 10
815.9098568748116
 20
303.0000000000001
 30
0.0
  0
SEQEND
  5
535
  8
1
  6
CONTINUOUS
 62
     7
  0
POLYLINE
  5
1FF
  8
1
  6
CONTINUOUS
 62
     7
 66
     1
 10
0.0
 20
0.0
 30
0.0
  0
VERTEX
  5
38E
  8
1
  6
CONTINUOUS
 62
     7
 10
817.1901069537275
 20
303.0000000000001
 30
0.0
  0
VERTEX
  5
38F
  8
1
  6
CONTINUOUS
 62
     7
 10
817.4272465060175
 20
303.1345030371774
 30
0.0
  0
VERTEX
  5
390
  8
1
  6
CONTINUOUS
 62
     7
 10
817.6552729183022
 20
303.532843272421
 30
0.0
  0
VERTEX
  5
391
  8
1
  6
CONTINUOUS
 62
     7
 10
817.8654232634365
 20
304.1797127138822
 30
0.0
  0
VERTEX
  5
392
  8
1
  6
CONTINUOUS
 62
     7
 10
818.0496215815103
 20
305.0502525316942
 30
0.0
  0
VERTEX
  5
393
  8
1
  6
CONTINUOUS
 62
     7
 10
818.2007892344599
 20
306.1110083688628
 30
0.0
  0
VERTEX
  5
394
  8
1
  6
CONTINUOUS
 62
     7
 10
818.3131169341581
 20
307.3212159734445
 30
0.0
  0
VERTEX
  5
395
  8
1
  6
CONTINUOUS
 62
     7
 10
818.3822879900995
 20
308.6343677458872
 30
0.0
  0
VERTEX
  5
396
  8
1
  6
CONTINUOUS
 62
     7
 10
818.4056441973961
 20
310.0000000000001
 30
0.0
  0
VERTEX
  5
397
  8
1
  6
CONTINUOUS
 62
     7
 10
818.3822879900995
 20
311.3656322541129
 30
0.0
  0
VERTEX
  5
398
  8
1
  6
CONTINUOUS
 62
     7
 10
818.3131169341581
 20
312.6787840265557
 30
0.0
  0
VERTEX
  5
399
  8
1
  6
CONTINUOUS
 62
     7
 10
818.2007892344599
 20
313.8889916311373
 30
0.0
  0
VERTEX
  5
39A
  8
1
  6
CONTINUOUS
 62
     7
 10
818.0496215815103
 20
314.9497474683059
 30
0.0
  0
VERTEX
  5
39B
  8
1
  6
CONTINUOUS
 62
     7
 10
817.8654232634365
 20
315.8202872861179
 30
0.0
  0
VERTEX
  5
39C
  8
1
  6
CONTINUOUS
 62
     7
 10
817.6552729183022
 20
316.4671567275791
 30
0.0
  0
VERTEX
  5
39D
  8
1
  6
CONTINUOUS
 62
     7
 10
817.4272465060175
 20
316.8654969628226
 30
0.0
  0
VERTEX
  5
39E
  8
1
  6
CONTINUOUS
 62
     7
 10
817.1901069537275
 20
317.0000000000001
 30
0.0
  0
SEQEND
  5
536
  8
1
  6
CONTINUOUS
 62
     7
  0
ARC
  5
200
  8
1
  6
CONTINUOUS
 62
     7
 10
814.6193213173289
 20
311.5677981573407
 30
0.0
 40
8.299263310351098
 50
6.449269371751522
 51
24.42835089638696
  0
ARC
  5
201
  8
1
  6
CONTINUOUS
 62
     7
 10
815.2415002797534
 20
311.819742317609
 30
0.0
 40
7.65484998577711
 50
346.2477463090125
 51
5.098385669701429
  0
LINE
  5
202
  8
1
  6
CONTINUOUS
 62
     7
 10
822.6769065364589
 20
310.0000000000001
 30
0.0
 11
818.4056441973959
 21
310.0000000000001
 31
0.0
  0
ARC
  5
203
  8
1
  6
CONTINUOUS
 62
     7
 10
815.3549234259807
 20
308.1888396337031
 30
0.0
 40
7.542661237426241
 50
354.7601155497141
 51
13.89375247157159
  0
ARC
  5
204
  8
1
  6
CONTINUOUS
 62
     7
 10
814.4541129608328
 20
308.4778282247526
 30
0.0
 40
8.468593436602626
 50
335.7528401783545
 51
353.3695395535067
  0
POLYLINE
  5
205
  8
1
  6
CONTINUOUS
 62
     7
 66
     1
 10
0.0
 20
0.0
 30
0.0
  0
VERTEX
  5
39F
  8
1
  6
CONTINUOUS
 62
     7
 10
822.8660643846907
 20
307.5000000000001
 30
0.0
  0
VERTEX
  5
3A0
  8
1
  6
CONTINUOUS
 62
     7
 10
822.9398918733532
 20
308.4549150281253
 30
0.0
  0
VERTEX
  5
3A1
  8
1
  6
CONTINUOUS
 62
     7
 10
822.9776302926914
 20
309.4773576836618
 30
0.0
  0
VERTEX
  5
3A2
  8
1
  6
CONTINUOUS
 62
     7
 10
822.9776302926914
 20
310.5226423163383
 30
0.0
  0
VERTEX
  5
3A3
  8
1
  6
CONTINUOUS
 62
     7
 10
822.9398918733532
 20
311.5450849718748
 30
0.0
  0
VERTEX
  5
3A4
  8
1
  6
CONTINUOUS
 62
     7
 10
822.8660643846907
 20
312.5000000000001
 30
0.0
  0
SEQEND
  5
537
  8
1
  6
CONTINUOUS
 62
     7
  0
POLYLINE
  5
206
  8
1
  6
CONTINUOUS
 62
     7
 66
     1
 10
0.0
 20
0.0
 30
0.0
  0
VERTEX
  5
3A5
  8
1
  6
CONTINUOUS
 62
     7
 10
822.3793128149823
 20
305.2388909180142
 30
0.0
  0
VERTEX
  5
3A6
  8
1
  6
CONTINUOUS
 62
     7
 10
822.5262620957188
 20
305.5991449892773
 30
0.0
  0
VERTEX
  5
3A7
  8
1
  6
CONTINUOUS
 62
     7
 10
822.659266721768
 20
306.1083094336525
 30
0.0
  0
VERTEX
  5
3A8
  8
1
  6
CONTINUOUS
 62
     7
 10
822.7738262566365
 20
306.7491558109383
 30
0.0
  0
VERTEX
  5
3A9
  8
1
  6
CONTINUOUS
 62
     7
 10
822.8660643846907
 20
307.5000000000001
 30
0.0
  0
SEQEND
  5
538
  8
1
  6
CONTINUOUS
 62
     7
  0
POLYLINE
  5
207
  8
1
  6
CONTINUOUS
 62
     7
 66
     1
 10
0.0
 20
0.0
 30
0.0
  0
VERTEX
  5
3AA
  8
1
  6
CONTINUOUS
 62
     7
 10
822.8660643846907
 20
312.5000000000001
 30
0.0
  0
VERTEX
  5
3AB
  8
1
  6
CONTINUOUS
 62
     7
 10
822.7738262566365
 20
313.2508441890618
 30
0.0
  0
VERTEX
  5
3AC
  8
1
  6
CONTINUOUS
 62
     7
 10
822.659266721768
 20
313.8916905663476
 30
0.0
  0
VERTEX
  5
3AD
  8
1
  6
CONTINUOUS
 62
     7
 10
822.5262620957188
 20
314.4008550107228
 30
0.0
  0
VERTEX
  5
3AE
  8
1
  6
CONTINUOUS
 62
     7
 10
822.3793128149823
 20
314.7611090819859
 30
0.0
  0
SEQEND
  5
539
  8
1
  6
CONTINUOUS
 62
     7
  0
POLYLINE
  5
208
  8
1
  6
CONTINUOUS
 62
     7
 66
     1
 10
0.0
 20
0.0
 30
0.0
  0
VERTEX
  5
3AF
  8
1
  6
CONTINUOUS
 62
     7
 10
792.6641841916631
 20
310.0000000000001
 30
0.0
  0
VERTEX
  5
3B0
  8
1
  6
CONTINUOUS
 62
     7
 10
792.7806672387449
 20
308.6343677458872
 30
0.0
  0
VERTEX
  5
3B1
  8
1
  6
CONTINUOUS
 62
     7
 10
793.1256400018153
 20
307.3212159734445
 30
0.0
  0
VERTEX
  5
3B2
  8
1
  6
CONTINUOUS
 62
     7
 10
793.6858453710526
 20
306.1110083688628
 30
0.0
  0
VERTEX
  5
3B3
  8
1
  6
CONTINUOUS
 62
     7
 10
794.4397549682836
 20
305.0502525316942
 30
0.0
  0
VERTEX
  5
3B4
  8
1
  6
CONTINUOUS
 62
     7
 10
795.3583964704843
 20
304.1797127138822
 30
0.0
  0
VERTEX
  5
3B5
  8
1
  6
CONTINUOUS
 62
     7
 10
796.4064669999051
 20
303.532843272421
 30
0.0
  0
VERTEX
  5
3B6
  8
1
  6
CONTINUOUS
 62
     7
 10
797.543689793865
 20
303.1345030371774
 30
0.0
  0
VERTEX
  5
3B7
  8
1
  6
CONTINUOUS
 62
     7
 10
798.7263620181542
 20
303.0000000000001
 30
0.0
  0
SEQEND
  5
53A
  8
1
  6
CONTINUOUS
 62
     7
  0
POLYLINE
  5
209
  8
1
  6
CONTINUOUS
 62
     7
 66
     1
 10
0.0
 20
0.0
 30
0.0
  0
VERTEX
  5
3B8
  8
1
  6
CONTINUOUS
 62
     7
 10
798.7263620181541
 20
317.0000000000001
 30
0.0
  0
VERTEX
  5
3B9
  8
1
  6
CONTINUOUS
 62
     7
 10
797.5436897938649
 20
316.8654969628226
 30
0.0
  0
VERTEX
  5
3BA
  8
1
  6
CONTINUOUS
 62
     7
 10
796.406466999905
 20
316.467156727579
 30
0.0
  0
VERTEX
  5
3BB
  8
1
  6
CONTINUOUS
 62
     7
 10
795.3583964704842
 20
315.8202872861178
 30
0.0
  0
VERTEX
  5
3BC
  8
1
  6
CONTINUOUS
 62
     7
 10
794.4397549682836
 20
314.9497474683058
 30
0.0
  0
VERTEX
  5
3BD
  8
1
  6
CONTINUOUS
 62
     7
 10
793.6858453710526
 20
313.8889916311372
 30
0.0
  0
VERTEX
  5
3BE
  8
1
  6
CONTINUOUS
 62
     7
 10
793.1256400018153
 20
312.6787840265556
 30
0.0
  0
VERTEX
  5
3BF
  8
1
  6
CONTINUOUS
 62
     7
 10
792.7806672387449
 20
311.3656322541129
 30
0.0
  0
VERTEX
  5
3C0
  8
1
  6
CONTINUOUS
 62
     7
 10
792.6641841916631
 20
310.0
 30
0.0
  0
SEQEND
  5
53B
  8
1
  6
CONTINUOUS
 62
     7
  0
POLYLINE
  5
20A
  8
1
  6
CONTINUOUS
 62
     7
 66
     1
 10
0.0
 20
0.0
 30
0.0
  0
VERTEX
  5
3C1
  8
1
  6
CONTINUOUS
 62
     7
 10
798.7263620181542
 20
303.0000000000001
 30
0.0
  0
VERTEX
  5
3C2
  8
1
  6
CONTINUOUS
 62
     7
 10
799.9090342424433
 20
303.1345030371774
 30
0.0
  0
VERTEX
  5
3C3
  8
1
  6
CONTINUOUS
 62
     7
 10
801.0462570364033
 20
303.532843272421
 30
0.0
  0
VERTEX
  5
3C4
  8
1
  6
CONTINUOUS
 62
     7
 10
802.0943275658241
 20
304.1797127138822
 30
0.0
  0
VERTEX
  5
3C5
  8
1
  6
CONTINUOUS
 62
     7
 10
803.0129690680247
 20
305.0502525316942
 30
0.0
  0
VERTEX
  5
3C6
  8
1
  6
CONTINUOUS
 62
     7
 10
803.7668786652558
 20
306.1110083688628
 30
0.0
  0
VERTEX
  5
3C7
  8
1
  6
CONTINUOUS
 62
     7
 10
804.327084034493
 20
307.3212159734445
 30
0.0
  0
VERTEX
  5
3C8
  8
1
  6
CONTINUOUS
 62
     7
 10
804.6720567975635
 20
308.6343677458872
 30
0.0
  0
VERTEX
  5
3C9
  8
1
  6
CONTINUOUS
 62
     7
 10
804.7885398446452
 20
310.0000000000001
 30
0.0
  0
VERTEX
  5
3CA
  8
1
  6
CONTINUOUS
 62
     7
 10
804.6720567975635
 20
311.3656322541129
 30
0.0
  0
VERTEX
  5
3CB
  8
1
  6
CONTINUOUS
 62
     7
 10
804.327084034493
 20
312.6787840265557
 30
0.0
  0
VERTEX
  5
3CC
  8
1
  6
CONTINUOUS
 62
     7
 10
803.7668786652558
 20
313.8889916311373
 30
0.0
  0
VERTEX
  5
3CD
  8
1
  6
CONTINUOUS
 62
     7
 10
803.0129690680247
 20
314.9497474683059
 30
0.0
  0
VERTEX
  5
3CE
  8
1
  6
CONTINUOUS
 62
     7
 10
802.0943275658241
 20
315.8202872861179
 30
0.0
  0
VERTEX
  5
3CF
  8
1
  6
CONTINUOUS
 62
     7
 10
801.0462570364033
 20
316.4671567275791
 30
0.0
  0
VERTEX
  5
3D0
  8
1
  6
CONTINUOUS
 62
     7
 10
799.9090342424433
 20
316.8654969628227
 30
0.0
  0
VERTEX
  5
3D1
  8
1
  6
CONTINUOUS
 62
     7
 10
798.7263620181542
 20
317.0000000000001
 30
0.0
  0
SEQEND
  5
53C
  8
1
  6
CONTINUOUS
 62
     7
  0
POLYLINE
  5
20B
  8
1
  6
CONTINUOUS
 62
     7
 66
     1
 10
0.0
 20
0.0
 30
0.0
  0
VERTEX
  5
3D2
  8
1
  6
CONTINUOUS
 62
     7
 10
798.9763620181542
 20
303.0000000000001
 30
0.0
  0
VERTEX
  5
3D3
  8
1
  6
CONTINUOUS
 62
     7
 10
800.1590342424433
 20
303.1345030371774
 30
0.0
  0
VERTEX
  5
3D4
  8
1
  6
CONTINUOUS
 62
     7
 10
801.2962570364033
 20
303.532843272421
 30
0.0
  0
VERTEX
  5
3D5
  8
1
  6
CONTINUOUS
 62
     7
 10
802.3443275658241
 20
304.1797127138822
 30
0.0
  0
VERTEX
  5
3D6
  8
1
  6
CONTINUOUS
 62
     7
 10
803.2629690680247
 20
305.0502525316942
 30
0.0
  0
VERTEX
  5
3D7
  8
1
  6
CONTINUOUS
 62
     7
 10
804.0168786652558
 20
306.1110083688628
 30
0.0
  0
VERTEX
  5
3D8
  8
1
  6
CONTINUOUS
 62
     7
 10
804.577084034493
 20
307.3212159734445
 30
0.0
  0
VERTEX
  5
3D9
  8
1
  6
CONTINUOUS
 62
     7
 10
804.9220567975635
 20
308.6343677458872
 30
0.0
  0
VERTEX
  5
3DA
  8
1
  6
CONTINUOUS
 62
     7
 10
805.0385398446452
 20
310.0000000000001
 30
0.0
  0
VERTEX
  5
3DB
  8
1
  6
CONTINUOUS
 62
     7
 10
804.9220567975635
 20
311.3656322541129
 30
0.0
  0
VERTEX
  5
3DC
  8
1
  6
CONTINUOUS
 62
     7
 10
804.577084034493
 20
312.6787840265557
 30
0.0
  0
VERTEX
  5
3DD
  8
1
  6
CONTINUOUS
 62
     7
 10
804.0168786652558
 20
313.8889916311373
 30
0.0
  0
VERTEX
  5
3DE
  8
1
  6
CONTINUOUS
 62
     7
 10
803.2629690680247
 20
314.9497474683059
 30
0.0
  0
VERTEX
  5
3DF
  8
1
  6
CONTINUOUS
 62
     7
 10
802.3443275658241
 20
315.8202872861179
 30
0.0
  0
VERTEX
  5
3E0
  8
1
  6
CONTINUOUS
 62
     7
 10
801.2962570364033
 20
316.4671567275791
 30
0.0
  0
VERTEX
  5
3E1
  8
1
  6
CONTINUOUS
 62
     7
 10
800.1590342424433
 20
316.8654969628227
 30
0.0
  0
VERTEX
  5
3E2
  8
1
  6
CONTINUOUS
 62
     7
 10
798.9763620181542
 20
317.0000000000001
 30
0.0
  0
SEQEND
  5
53D
  8
1
  6
CONTINUOUS
 62
     7
  0
POLYLINE
  5
20C
  8
1
  6
CONTINUOUS
 62
     7
 66
     1
 10
0.0
 20
0.0
 30
0.0
  0
VERTEX
  5
3E3
  8
1
  6
CONTINUOUS
 62
     7
 10
844.4154905622383
 20
310.0000000000001
 30
0.0
  0
VERTEX
  5
3E4
  8
1
  6
CONTINUOUS
 62
     7
 10
844.4054807591112
 20
310.5852709660484
 30
0.0
  0
VERTEX
  5
3E5
  8
1
  6
CONTINUOUS
 62
     7
 10
844.3758360208507
 20
311.1480502970953
 30
0.0
  0
VERTEX
  5
3E6
  8
1
  6
CONTINUOUS
 62
     7
 10
844.3276955781229
 20
311.6667106990589
 30
0.0
  0
VERTEX
  5
3E7
  8
1
  6
CONTINUOUS
 62
     7
 10
844.2629094411444
 20
312.1213203435597
 30
0.0
  0
VERTEX
  5
3E8
  8
1
  6
CONTINUOUS
 62
     7
 10
844.1839673048271
 20
312.4944088369077
 30
0.0
  0
VERTEX
  5
3E9
  8
1
  6
CONTINUOUS
 62
     7
 10
844.0939028711981
 20
312.7716385975339
 30
0.0
  0
VERTEX
  5
3EA
  8
1
  6
CONTINUOUS
 62
     7
 10
843.9961772659332
 20
312.9423558412097
 30
0.0
  0
VERTEX
  5
3EB
  8
1
  6
CONTINUOUS
 62
     7
 10
843.8945460292375
 20
313.0000000000001
 30
0.0
  0
SEQEND
  5
53E
  8
1
  6
CONTINUOUS
 62
     7
  0
POLYLINE
  5
20D
  8
1
  6
CONTINUOUS
 62
     7
 66
     1
 10
0.0
 20
0.0
 30
0.0
  0
VERTEX
  5
3EC
  8
1
  6
CONTINUOUS
 62
     7
 10
843.8945460292375
 20
307.0000000000001
 30
0.0
  0
VERTEX
  5
3ED
  8
1
  6
CONTINUOUS
 62
     7
 10
843.9961772659332
 20
307.0576441587904
 30
0.0
  0
VERTEX
  5
3EE
  8
1
  6
CONTINUOUS
 62
     7
 10
844.0939028711981
 20
307.2283614024662
 30
0.0
  0
VERTEX
  5
3EF
  8
1
  6
CONTINUOUS
 62
     7
 10
844.1839673048271
 20
307.5055911630924
 30
0.0
  0
VERTEX
  5
3F0
  8
1
  6
CONTINUOUS
 62
     7
 10
844.2629094411444
 20
307.8786796564404
 30
0.0
  0
VERTEX
  5
3F1
  8
1
  6
CONTINUOUS
 62
     7
 10
844.3276955781229
 20
308.3332893009413
 30
0.0
  0
VERTEX
  5
3F2
  8
1
  6
CONTINUOUS
 62
     7
 10
844.3758360208507
 20
308.8519497029048
 30
0.0
  0
VERTEX
  5
3F3
  8
1
  6
CONTINUOUS
 62
     7
 10
844.4054807591112
 20
309.4147290339517
 30
0.0
  0
VERTEX
  5
3F4
  8
1
  6
CONTINUOUS
 62
     7
 10
844.4154905622383
 20
310.0000000000001
 30
0.0
  0
SEQEND
  5
53F
  8
1
  6
CONTINUOUS
 62
     7
  0
POLYLINE
  5
20E
  8
1
  6
CONTINUOUS
 62
     7
 66
     1
 10
0.0
 20
0.0
 30
0.0
  0
VERTEX
  5
3F5
  8
1
  6
CONTINUOUS
 62
     7
 10
465.5845094377618
 20
296.0000000000001
 30
0.0
  0
VERTEX
  5
3F6
  8
1
  6
CONTINUOUS
 62
     7
 10
465.5945192408888
 20
295.4147290339517
 30
0.0
  0
VERTEX
  5
3F7
  8
1
  6
CONTINUOUS
 62
     7
 10
465.6241639791494
 20
294.8519497029048
 30
0.0
  0
VERTEX
  5
3F8
  8
1
  6
CONTINUOUS
 62
     7
 10
465.6723044218772
 20
294.3332893009413
 30
0.0
  0
VERTEX
  5
3F9
  8
1
  6
CONTINUOUS
 62
     7
 10
465.7370905588556
 20
293.8786796564404
 30
0.0
  0
VERTEX
  5
3FA
  8
1
  6
CONTINUOUS
 62
     7
 10
465.816032695173
 20
293.5055911630924
 30
0.0
  0
VERTEX
  5
3FB
  8
1
  6
CONTINUOUS
 62
     7
 10
465.9060971288019
 20
293.2283614024662
 30
0.0
  0
VERTEX
  5
3FC
  8
1
  6
CONTINUOUS
 62
     7
 10
466.0038227340669
 20
293.0576441587904
 30
0.0
  0
VERTEX
  5
3FD
  8
1
  6
CONTINUOUS
 62
     7
 10
466.1054539707625
 20
293.0000000000001
 30
0.0
  0
SEQEND
  5
540
  8
1
  6
CONTINUOUS
 62
     7
  0
POLYLINE
  5
20F
  8
1
  6
CONTINUOUS
 62
     7
 66
     1
 10
0.0
 20
0.0
 30
0.0
  0
VERTEX
  5
3FE
  8
1
  6
CONTINUOUS
 62
     7
 10
468.7358942474007
 20
296.0000000000001
 30
0.0
  0
VERTEX
  5
3FF
  8
1
  6
CONTINUOUS
 62
     7
 10
468.7459040505278
 20
295.4147290339517
 30
0.0
  0
VERTEX
  5
400
  8
1
  6
CONTINUOUS
 62
     7
 10
468.7755487887885
 20
294.8519497029048
 30
0.0
  0
VERTEX
  5
401
  8
1
  6
CONTINUOUS
 62
     7
 10
468.8236892315163
 20
294.3332893009413
 30
0.0
  0
VERTEX
  5
402
  8
1
  6
CONTINUOUS
 62
     7
 10
468.8884753684946
 20
293.8786796564404
 30
0.0
  0
VERTEX
  5
403
  8
1
  6
CONTINUOUS
 62
     7
 10
468.967417504812
 20
293.5055911630924
 30
0.0
  0
VERTEX
  5
404
  8
1
  6
CONTINUOUS
 62
     7
 10
469.057481938441
 20
293.2283614024662
 30
0.0
  0
VERTEX
  5
405
  8
1
  6
CONTINUOUS
 62
     7
 10
469.1552075437059
 20
293.0576441587904
 30
0.0
  0
VERTEX
  5
406
  8
1
  6
CONTINUOUS
 62
     7
 10
469.2568387804016
 20
293.0000000000001
 30
0.0
  0
SEQEND
  5
541
  8
1
  6
CONTINUOUS
 62
     7
  0
POLYLINE
  5
210
  8
1
  6
CONTINUOUS
 62
     7
 66
     1
 10
0.0
 20
0.0
 30
0.0
  0
VERTEX
  5
407
  8
1
  6
CONTINUOUS
 62
     7
 10
470.9064964682374
 20
323.7500000000001
 30
0.0
  0
VERTEX
  5
408
  8
1
  6
CONTINUOUS
 62
     7
 10
470.8133345012664
 20
323.697159521109
 30
0.0
  0
VERTEX
  5
409
  8
1
  6
CONTINUOUS
 62
     7
 10
470.7237526964402
 20
323.5406687144061
 30
0.0
  0
VERTEX
  5
40A
  8
1
  6
CONTINUOUS
 62
     7
 10
470.6411936322804
 20
323.2865414338321
 30
0.0
  0
VERTEX
  5
40B
  8
1
  6
CONTINUOUS
 62
     7
 10
470.5688300073227
 20
322.9445436482631
 30
0.0
  0
VERTEX
  5
40C
  8
1
  6
CONTINUOUS
 62
     7
 10
470.5094427150926
 20
322.527818140804
 30
0.0
  0
VERTEX
  5
40D
  8
1
  6
CONTINUOUS
 62
     7
 10
470.4653139759254
 20
322.0523794390041
 30
0.0
  0
VERTEX
  5
40E
  8
1
  6
CONTINUOUS
 62
     7
 10
470.4381396325198
 20
321.5364983855444
 30
0.0
  0
VERTEX
  5
40F
  8
1
  6
CONTINUOUS
 62
     7
 10
470.4289639796534
 20
321.0000000000001
 30
0.0
  0
SEQEND
  5
542
  8
1
  6
CONTINUOUS
 62
     7
  0
POLYLINE
  5
211
  8
1
  6
CONTINUOUS
 62
     7
 66
     1
 10
0.0
 20
0.0
 30
0.0
  0
VERTEX
  5
410
  8
1
  6
CONTINUOUS
 62
     7
 10
472.5302351792352
 20
302.6689011017642
 30
0.0
  0
VERTEX
  5
411
  8
1
  6
CONTINUOUS
 62
     7
 10
472.5437728904263
 20
302.5975490669421
 30
0.0
  0
VERTEX
  5
412
  8
1
  6
CONTINUOUS
 62
     7
 10
472.5596123956292
 20
302.5441768714085
 30
0.0
  0
VERTEX
  5
413
  8
1
  6
CONTINUOUS
 62
     7
 10
472.5770460514158
 20
302.5111689636001
 30
0.0
  0
VERTEX
  5
414
  8
1
  6
CONTINUOUS
 62
     7
 10
472.5952949943185
 20
302.5000000000001
 30
0.0
  0
SEQEND
  5
543
  8
1
  6
CONTINUOUS
 62
     7
  0
LINE
  5
212
  8
1
  6
CONTINUOUS
 62
     7
 10
472.5952949943185
 20
302.5000000000001
 30
0.0
 11
473.6848673109083
 21
302.5000000000001
 31
0.0
  0
LINE
  5
213
  8
1
  6
CONTINUOUS
 62
     7
 10
473.6848673109083
 20
293.0000000000001
 30
0.0
 11
473.6848673109083
 21
302.5000000000001
 31
0.0
  0
LINE
  5
214
  8
1
  6
CONTINUOUS
 62
     7
 10
468.7358942474008
 20
296.0000000000001
 30
0.0
 11
468.7358942474008
 21
324.0000000000001
 31
0.0
  0
POLYLINE
  5
215
  8
1
  6
CONTINUOUS
 62
     7
 66
     1
 10
0.0
 20
0.0
 30
0.0
  0
VERTEX
  5
415
  8
1
  6
CONTINUOUS
 62
     7
 10
469.2568387804016
 20
327.0000000000001
 30
0.0
  0
VERTEX
  5
416
  8
1
  6
CONTINUOUS
 62
     7
 10
469.1552075437059
 20
326.9423558412097
 30
0.0
  0
VERTEX
  5
417
  8
1
  6
CONTINUOUS
 62
     7
 10
469.057481938441
 20
326.7716385975339
 30
0.0
  0
VERTEX
  5
418
  8
1
  6
CONTINUOUS
 62
     7
 10
468.967417504812
 20
326.4944088369077
 30
0.0
  0
VERTEX
  5
419
  8
1
  6
CONTINUOUS
 62
     7
 10
468.8884753684946
 20
326.1213203435597
 30
0.0
  0
VERTEX
  5
41A
  8
1
  6
CONTINUOUS
 62
     7
 10
468.8236892315163
 20
325.6667106990589
 30
0.0
  0
VERTEX
  5
41B
  8
1
  6
CONTINUOUS
 62
     7
 10
468.7755487887885
 20
325.1480502970953
 30
0.0
  0
VERTEX
  5
41C
  8
1
  6
CONTINUOUS
 62
     7
 10
468.7459040505278
 20
324.5852709660484
 30
0.0
  0
VERTEX
  5
41D
  8
1
  6
CONTINUOUS
 62
     7
 10
468.7358942474007
 20
324.0000000000001
 30
0.0
  0
SEQEND
  5
544
  8
1
  6
CONTINUOUS
 62
     7
  0
LINE
  5
216
  8
1
  6
CONTINUOUS
 62
     7
 10
473.6848673109083
 20
327.0000000000001
 30
0.0
 11
473.6848673109083
 21
317.5000000000001
 31
0.0
  0
LINE
  5
217
  8
1
  6
CONTINUOUS
 62
     7
 10
472.5952949943185
 20
317.5000000000001
 30
0.0
 11
473.6848673109083
 21
317.5000000000001
 31
0.0
  0
POLYLINE
  5
218
  8
1
  6
CONTINUOUS
 62
     7
 66
     1
 10
0.0
 20
0.0
 30
0.0
  0
VERTEX
  5
41E
  8
1
  6
CONTINUOUS
 62
     7
 10
472.5952949943185
 20
317.5000000000001
 30
0.0
  0
VERTEX
  5
41F
  8
1
  6
CONTINUOUS
 62
     7
 10
472.5770460514158
 20
317.4888310364
 30
0.0
  0
VERTEX
  5
420
  8
1
  6
CONTINUOUS
 62
     7
 10
472.5596123956292
 20
317.4558231285916
 30
0.0
  0
VERTEX
  5
421
  8
1
  6
CONTINUOUS
 62
     7
 10
472.5437728904263
 20
317.402450933058
 30
0.0
  0
VERTEX
  5
422
  8
1
  6
CONTINUOUS
 62
     7
 10
472.5302351792352
 20
317.331098898236
 30
0.0
  0
SEQEND
  5
545
  8
1
  6
CONTINUOUS
 62
     7
  0
LINE
  5
219
  8
1
  6
CONTINUOUS
 62
     7
 10
471.922210057777
 20
313.3689011017642
 30
0.0
 11
472.5302351792352
 21
317.3310988982359
 31
0.0
  0
POLYLINE
  5
21A
  8
1
  6
CONTINUOUS
 62
     7
 66
     1
 10
0.0
 20
0.0
 30
0.0
  0
VERTEX
  5
423
  8
1
  6
CONTINUOUS
 62
     7
 10
471.8571502426937
 20
313.2
 30
0.0
  0
VERTEX
  5
424
  8
1
  6
CONTINUOUS
 62
     7
 10
471.8753991855964
 20
313.2111689636001
 30
0.0
  0
VERTEX
  5
425
  8
1
  6
CONTINUOUS
 62
     7
 10
471.892832841383
 20
313.2441768714085
 30
0.0
  0
VERTEX
  5
426
  8
1
  6
CONTINUOUS
 62
     7
 10
471.9086723465859
 20
313.2975490669421
 30
0.0
  0
VERTEX
  5
427
  8
1
  6
CONTINUOUS
 62
     7
 10
471.922210057777
 20
313.3689011017642
 30
0.0
  0
SEQEND
  5
546
  8
1
  6
CONTINUOUS
 62
     7
  0
LINE
  5
21B
  8
1
  6
CONTINUOUS
 62
     7
 10
470.1077148509696
 20
313.2
 30
0.0
 11
471.8571502426937
 21
313.2
 31
0.0
  0
POLYLINE
  5
21C
  8
1
  6
CONTINUOUS
 62
     7
 66
     1
 10
0.0
 20
0.0
 30
0.0
  0
VERTEX
  5
428
  8
1
  6
CONTINUOUS
 62
     7
 10
470.1077148509696
 20
313.2
 30
0.0
  0
VERTEX
  5
429
  8
1
  6
CONTINUOUS
 62
     7
 10
469.9993081984942
 20
313.1385128972904
 30
0.0
  0
VERTEX
  5
42A
  8
1
  6
CONTINUOUS
 62
     7
 10
469.8950675528783
 20
312.9564145040362
 30
0.0
  0
VERTEX
  5
42B
  8
1
  6
CONTINUOUS
 62
     7
 10
469.798998823674
 20
312.6607027593682
 30
0.0
  0
VERTEX
  5
42C
  8
1
  6
CONTINUOUS
 62
     7
 10
469.7147938782688
 20
312.262741699797
 30
0.0
  0
VERTEX
  5
42D
  8
1
  6
CONTINUOUS
 62
     7
 10
469.6456886654919
 20
311.7778247456628
 30
0.0
  0
VERTEX
  5
42E
  8
1
  6
CONTINUOUS
 62
     7
 10
469.5943388599156
 20
311.2245869835683
 30
0.0
  0
VERTEX
  5
42F
  8
1
  6
CONTINUOUS
 62
     7
 10
469.5627178057709
 20
310.6242890304517
 30
0.0
  0
VERTEX
  5
430
  8
1
  6
CONTINUOUS
 62
     7
 10
469.5520406824354
 20
310.0000000000001
 30
0.0
  0
VERTEX
  5
431
  8
1
  6
CONTINUOUS
 62
     7
 10
469.5627178057709
 20
309.3757109695484
 30
0.0
  0
VERTEX
  5
432
  8
1
  6
CONTINUOUS
 62
     7
 10
469.5943388599156
 20
308.7754130164318
 30
0.0
  0
VERTEX
  5
433
  8
1
  6
CONTINUOUS
 62
     7
 10
469.6456886654919
 20
308.2221752543373
 30
0.0
  0
VERTEX
  5
434
  8
1
  6
CONTINUOUS
 62
     7
 10
469.7147938782688
 20
307.7372583002031
 30
0.0
  0
VERTEX
  5
435
  8
1
  6
CONTINUOUS
 62
     7
 10
469.798998823674
 20
307.3392972406319
 30
0.0
  0
VERTEX
  5
436
  8
1
  6
CONTINUOUS
 62
     7
 10
469.8950675528783
 20
307.043585495964
 30
0.0
  0
VERTEX
  5
437
  8
1
  6
CONTINUOUS
 62
     7
 10
469.9993081984942
 20
306.8614871027098
 30
0.0
  0
VERTEX
  5
438
  8
1
  6
CONTINUOUS
 62
     7
 10
470.1077148509696
 20
306.8000000000001
 30
0.0
  0
SEQEND
  5
547
  8
1
  6
CONTINUOUS
 62
     7
  0
LINE
  5
21D
  8
1
  6
CONTINUOUS
 62
     7
 10
470.1077148509696
 20
306.8000000000001
 30
0.0
 11
471.8571502426937
 21
306.8000000000001
 31
0.0
  0
POLYLINE
  5
21E
  8
1
  6
CONTINUOUS
 62
     7
 66
     1
 10
0.0
 20
0.0
 30
0.0
  0
VERTEX
  5
439
  8
1
  6
CONTINUOUS
 62
     7
 10
471.922210057777
 20
306.631098898236
 30
0.0
  0
VERTEX
  5
43A
  8
1
  6
CONTINUOUS
 62
     7
 10
471.9086723465859
 20
306.702450933058
 30
0.0
  0
VERTEX
  5
43B
  8
1
  6
CONTINUOUS
 62
     7
 10
471.892832841383
 20
306.7558231285916
 30
0.0
  0
VERTEX
  5
43C
  8
1
  6
CONTINUOUS
 62
     7
 10
471.8753991855964
 20
306.7888310364
 30
0.0
  0
VERTEX
  5
43D
  8
1
  6
CONTINUOUS
 62
     7
 10
471.8571502426937
 20
306.8000000000001
 30
0.0
  0
SEQEND
  5
548
  8
1
  6
CONTINUOUS
 62
     7
  0
LINE
  5
21F
  8
1
  6
CONTINUOUS
 62
     7
 10
471.922210057777
 20
306.6310988982359
 30
0.0
 11
472.5302351792352
 21
302.6689011017642
 31
0.0
  0
POLYLINE
  5
220
  8
1
  6
CONTINUOUS
 62
     7
 66
     1
 10
0.0
 20
0.0
 30
0.0
  0
VERTEX
  5
43E
  8
1
  6
CONTINUOUS
 62
     7
 10
470.4289639796534
 20
299.0000000000001
 30
0.0
  0
VERTEX
  5
43F
  8
1
  6
CONTINUOUS
 62
     7
 10
470.4381396325198
 20
298.4635016144557
 30
0.0
  0
VERTEX
  5
440
  8
1
  6
CONTINUOUS
 62
     7
 10
470.4653139759254
 20
297.947620560996
 30
0.0
  0
VERTEX
  5
441
  8
1
  6
CONTINUOUS
 62
     7
 10
470.5094427150926
 20
297.4721818591962
 30
0.0
  0
VERTEX
  5
442
  8
1
  6
CONTINUOUS
 62
     7
 10
470.5688300073227
 20
297.055456351737
 30
0.0
  0
VERTEX
  5
443
  8
1
  6
CONTINUOUS
 62
     7
 10
470.6411936322804
 20
296.713458566168
 30
0.0
  0
VERTEX
  5
444
  8
1
  6
CONTINUOUS
 62
     7
 10
470.7237526964402
 20
296.459331285594
 30
0.0
  0
VERTEX
  5
445
  8
1
  6
CONTINUOUS
 62
     7
 10
470.8133345012664
 20
296.3028404788911
 30
0.0
  0
VERTEX
  5
446
  8
1
  6
CONTINUOUS
 62
     7
 10
470.9064964682374
 20
296.25
 30
0.0
  0
SEQEND
  5
549
  8
1
  6
CONTINUOUS
 62
     7
  0
POLYLINE
  5
221
  8
1
  6
CONTINUOUS
 62
     7
 66
     1
 10
0.0
 20
0.0
 30
0.0
  0
VERTEX
  5
447
  8
1
  6
CONTINUOUS
 62
     7
 10
466.1054539707625
 20
327.0000000000001
 30
0.0
  0
VERTEX
  5
448
  8
1
  6
CONTINUOUS
 62
     7
 10
466.0038227340669
 20
326.9423558412097
 30
0.0
  0
VERTEX
  5
449
  8
1
  6
CONTINUOUS
 62
     7
 10
465.9060971288019
 20
326.7716385975339
 30
0.0
  0
VERTEX
  5
44A
  8
1
  6
CONTINUOUS
 62
     7
 10
465.816032695173
 20
326.4944088369077
 30
0.0
  0
VERTEX
  5
44B
  8
1
  6
CONTINUOUS
 62
     7
 10
465.7370905588556
 20
326.1213203435597
 30
0.0
  0
VERTEX
  5
44C
  8
1
  6
CONTINUOUS
 62
     7
 10
465.6723044218772
 20
325.6667106990589
 30
0.0
  0
VERTEX
  5
44D
  8
1
  6
CONTINUOUS
 62
     7
 10
465.6241639791494
 20
325.1480502970953
 30
0.0
  0
VERTEX
  5
44E
  8
1
  6
CONTINUOUS
 62
     7
 10
465.5945192408888
 20
324.5852709660484
 30
0.0
  0
VERTEX
  5
44F
  8
1
  6
CONTINUOUS
 62
     7
 10
465.5845094377618
 20
324.0000000000001
 30
0.0
  0
SEQEND
  5
54A
  8
1
  6
CONTINUOUS
 62
     7
  0
LINE
  5
222
  8
1
  6
CONTINUOUS
 62
     7
 10
465.5845094377618
 20
296.0000000000001
 30
0.0
 11
465.5845094377618
 21
324.0000000000001
 31
0.0
  0
POLYLINE
  5
223
  8
1
  6
CONTINUOUS
 62
     7
 66
     1
 10
0.0
 20
0.0
 30
0.0
  0
VERTEX
  5
450
  8
1
  6
CONTINUOUS
 62
     7
 10
470.4289639796534
 20
321.0000000000001
 30
0.0
  0
VERTEX
  5
451
  8
1
  6
CONTINUOUS
 62
     7
 10
470.4381396325198
 20
320.4635016144557
 30
0.0
  0
VERTEX
  5
452
  8
1
  6
CONTINUOUS
 62
     7
 10
470.4653139759254
 20
319.947620560996
 30
0.0
  0
VERTEX
  5
453
  8
1
  6
CONTINUOUS
 62
     7
 10
470.5094427150926
 20
319.4721818591962
 30
0.0
  0
VERTEX
  5
454
  8
1
  6
CONTINUOUS
 62
     7
 10
470.5688300073227
 20
319.055456351737
 30
0.0
  0
VERTEX
  5
455
  8
1
  6
CONTINUOUS
 62
     7
 10
470.6411936322804
 20
318.713458566168
 30
0.0
  0
VERTEX
  5
456
  8
1
  6
CONTINUOUS
 62
     7
 10
470.7237526964402
 20
318.459331285594
 30
0.0
  0
VERTEX
  5
457
  8
1
  6
CONTINUOUS
 62
     7
 10
470.8133345012664
 20
318.3028404788911
 30
0.0
  0
VERTEX
  5
458
  8
1
  6
CONTINUOUS
 62
     7
 10
470.9064964682374
 20
318.25
 30
0.0
  0
SEQEND
  5
54B
  8
1
  6
CONTINUOUS
 62
     7
  0
POLYLINE
  5
224
  8
1
  6
CONTINUOUS
 62
     7
 66
     1
 10
0.0
 20
0.0
 30
0.0
  0
VERTEX
  5
459
  8
1
  6
CONTINUOUS
 62
     7
 10
470.9064964682374
 20
318.25
 30
0.0
  0
VERTEX
  5
45A
  8
1
  6
CONTINUOUS
 62
     7
 10
470.9996584352085
 20
318.3028404788911
 30
0.0
  0
VERTEX
  5
45B
  8
1
  6
CONTINUOUS
 62
     7
 10
471.0892402400347
 20
318.459331285594
 30
0.0
  0
VERTEX
  5
45C
  8
1
  6
CONTINUOUS
 62
     7
 10
471.1717993041945
 20
318.713458566168
 30
0.0
  0
VERTEX
  5
45D
  8
1
  6
CONTINUOUS
 62
     7
 10
471.2441629291521
 20
319.055456351737
 30
0.0
  0
VERTEX
  5
45E
  8
1
  6
CONTINUOUS
 62
     7
 10
471.3035502213823
 20
319.4721818591962
 30
0.0
  0
VERTEX
  5
45F
  8
1
  6
CONTINUOUS
 62
     7
 10
471.3476789605494
 20
319.947620560996
 30
0.0
  0
VERTEX
  5
460
  8
1
  6
CONTINUOUS
 62
     7
 10
471.374853303955
 20
320.4635016144557
 30
0.0
  0
VERTEX
  5
461
  8
1
  6
CONTINUOUS
 62
     7
 10
471.3840289568215
 20
321.0000000000001
 30
0.0
  0
VERTEX
  5
462
  8
1
  6
CONTINUOUS
 62
     7
 10
471.374853303955
 20
321.5364983855444
 30
0.0
  0
VERTEX
  5
463
  8
1
  6
CONTINUOUS
 62
     7
 10
471.3476789605494
 20
322.0523794390041
 30
0.0
  0
VERTEX
  5
464
  8
1
  6
CONTINUOUS
 62
     7
 10
471.3035502213823
 20
322.527818140804
 30
0.0
  0
VERTEX
  5
465
  8
1
  6
CONTINUOUS
 62
     7
 10
471.2441629291521
 20
322.9445436482631
 30
0.0
  0
VERTEX
  5
466
  8
1
  6
CONTINUOUS
 62
     7
 10
471.1717993041945
 20
323.2865414338321
 30
0.0
  0
VERTEX
  5
467
  8
1
  6
CONTINUOUS
 62
     7
 10
471.0892402400347
 20
323.5406687144061
 30
0.0
  0
VERTEX
  5
468
  8
1
  6
CONTINUOUS
 62
     7
 10
470.9996584352085
 20
323.697159521109
 30
0.0
  0
VERTEX
  5
469
  8
1
  6
CONTINUOUS
 62
     7
 10
470.9064964682374
 20
323.7500000000001
 30
0.0
  0
SEQEND
  5
54C
  8
1
  6
CONTINUOUS
 62
     7
  0
POLYLINE
  5
225
  8
1
  6
CONTINUOUS
 62
     7
 66
     1
 10
0.0
 20
0.0
 30
0.0
  0
VERTEX
  5
46A
  8
1
  6
CONTINUOUS
 62
     7
 10
470.9064964682374
 20
301.7500000000001
 30
0.0
  0
VERTEX
  5
46B
  8
1
  6
CONTINUOUS
 62
     7
 10
470.8133345012664
 20
301.697159521109
 30
0.0
  0
VERTEX
  5
46C
  8
1
  6
CONTINUOUS
 62
     7
 10
470.7237526964402
 20
301.5406687144061
 30
0.0
  0
VERTEX
  5
46D
  8
1
  6
CONTINUOUS
 62
     7
 10
470.6411936322804
 20
301.2865414338321
 30
0.0
  0
VERTEX
  5
46E
  8
1
  6
CONTINUOUS
 62
     7
 10
470.5688300073227
 20
300.9445436482631
 30
0.0
  0
VERTEX
  5
46F
  8
1
  6
CONTINUOUS
 62
     7
 10
470.5094427150926
 20
300.527818140804
 30
0.0
  0
VERTEX
  5
470
  8
1
  6
CONTINUOUS
 62
     7
 10
470.4653139759254
 20
300.0523794390041
 30
0.0
  0
VERTEX
  5
471
  8
1
  6
CONTINUOUS
 62
     7
 10
470.4381396325198
 20
299.5364983855444
 30
0.0
  0
VERTEX
  5
472
  8
1
  6
CONTINUOUS
 62
     7
 10
470.4289639796534
 20
299.0000000000001
 30
0.0
  0
SEQEND
  5
54D
  8
1
  6
CONTINUOUS
 62
     7
  0
POLYLINE
  5
226
  8
1
  6
CONTINUOUS
 62
     7
 66
     1
 10
0.0
 20
0.0
 30
0.0
  0
VERTEX
  5
473
  8
1
  6
CONTINUOUS
 62
     7
 10
470.9064964682374
 20
296.25
 30
0.0
  0
VERTEX
  5
474
  8
1
  6
CONTINUOUS
 62
     7
 10
470.9996584352085
 20
296.3028404788911
 30
0.0
  0
VERTEX
  5
475
  8
1
  6
CONTINUOUS
 62
     7
 10
471.0892402400347
 20
296.459331285594
 30
0.0
  0
VERTEX
  5
476
  8
1
  6
CONTINUOUS
 62
     7
 10
471.1717993041945
 20
296.713458566168
 30
0.0
  0
VERTEX
  5
477
  8
1
  6
CONTINUOUS
 62
     7
 10
471.2441629291521
 20
297.055456351737
 30
0.0
  0
VERTEX
  5
478
  8
1
  6
CONTINUOUS
 62
     7
 10
471.3035502213823
 20
297.4721818591962
 30
0.0
  0
VERTEX
  5
479
  8
1
  6
CONTINUOUS
 62
     7
 10
471.3476789605494
 20
297.947620560996
 30
0.0
  0
VERTEX
  5
47A
  8
1
  6
CONTINUOUS
 62
     7
 10
471.374853303955
 20
298.4635016144557
 30
0.0
  0
VERTEX
  5
47B
  8
1
  6
CONTINUOUS
 62
     7
 10
471.3840289568215
 20
299.0000000000001
 30
0.0
  0
VERTEX
  5
47C
  8
1
  6
CONTINUOUS
 62
     7
 10
471.374853303955
 20
299.5364983855444
 30
0.0
  0
VERTEX
  5
47D
  8
1
  6
CONTINUOUS
 62
     7
 10
471.3476789605494
 20
300.0523794390041
 30
0.0
  0
VERTEX
  5
47E
  8
1
  6
CONTINUOUS
 62
     7
 10
471.3035502213823
 20
300.527818140804
 30
0.0
  0
VERTEX
  5
47F
  8
1
  6
CONTINUOUS
 62
     7
 10
471.2441629291521
 20
300.9445436482631
 30
0.0
  0
VERTEX
  5
480
  8
1
  6
CONTINUOUS
 62
     7
 10
471.1717993041945
 20
301.2865414338321
 30
0.0
  0
VERTEX
  5
481
  8
1
  6
CONTINUOUS
 62
     7
 10
471.0892402400346
 20
301.5406687144061
 30
0.0
  0
VERTEX
  5
482
  8
1
  6
CONTINUOUS
 62
     7
 10
470.9996584352085
 20
301.697159521109
 30
0.0
  0
VERTEX
  5
483
  8
1
  6
CONTINUOUS
 62
     7
 10
470.9064964682374
 20
301.7500000000001
 30
0.0
  0
SEQEND
  5
54E
  8
1
  6
CONTINUOUS
 62
     7
  0
LINE
  5
227
  8
1
  6
CONTINUOUS
 62
     7
 10
489.1848673109083
 20
299.5000000000001
 30
0.0
 11
486.1848673109085
 21
299.5000000000001
 31
0.0
  0
LINE
  5
228
  8
1
  6
CONTINUOUS
 62
     7
 10
489.1848673109083
 20
320.5000000000001
 30
0.0
 11
489.1848673109083
 21
299.5000000000001
 31
0.0
  0
LINE
  5
229
  8
1
  6
CONTINUOUS
 62
     7
 10
489.1848673109083
 20
320.5000000000001
 30
0.0
 11
486.1848673109085
 21
320.5000000000001
 31
0.0
  0
LINE
  5
22A
  8
1
  6
CONTINUOUS
 62
     7
 10
486.1848673109085
 20
320.5000000000001
 30
0.0
 11
486.1848673109085
 21
299.5000000000001
 31
0.0
  0
ARC
  5
22B
  8
1
  6
CONTINUOUS
 62
     7
 10
490.6848673109083
 20
324.0000000000001
 30
0.0
 40
3.000000000000003
 50
0.0
 51
90.0
  0
LINE
  5
22C
  8
1
  6
CONTINUOUS
 62
     7
 10
493.6848673109083
 20
296.0000000000001
 30
0.0
 11
493.6848673109083
 21
300.0000000000001
 31
0.0
  0
LINE
  5
22D
  8
1
  6
CONTINUOUS
 62
     7
 10
493.6848673109083
 20
320.0000000000001
 30
0.0
 11
493.6848673109083
 21
324.0000000000001
 31
0.0
  0
ARC
  5
22E
  8
1
  6
CONTINUOUS
 62
     7
 10
490.6848673109083
 20
296.0000000000001
 30
0.0
 40
3.000000000000003
 50
270.0
 51
0.0
  0
ARC
  5
22F
  8
1
  6
CONTINUOUS
 62
     7
 10
481.1848673109083
 20
300.2215002340824
 30
0.0
 40
0.5000000000000004
 50
249.4439547804168
 51
0.0000000000003979
  0
LINE
  5
230
  8
1
  6
CONTINUOUS
 62
     7
 10
481.6848673109083
 20
319.7784997659177
 30
0.0
 11
481.6848673109083
 21
300.2215002340824
 31
0.0
  0
ARC
  5
231
  8
1
  6
CONTINUOUS
 62
     7
 10
481.1848673109083
 20
319.7784997659177
 30
0.0
 40
0.5000000000000004
 50
359.9999999999996
 51
110.5560452195833
  0
LINE
  5
232
  8
1
  6
CONTINUOUS
 62
     7
 10
481.0093055901141
 20
320.2466643547022
 30
0.0
 11
473.6848673109083
 21
317.5000000000001
 31
0.0
  0
LINE
  5
233
  8
1
  6
CONTINUOUS
 62
     7
 10
481.0093055901141
 20
299.7533356452979
 30
0.0
 11
473.6848673109083
 21
302.5000000000001
 31
0.0
  0
LINE
  5
234
  8
1
  6
CONTINUOUS
 62
     7
 10
814.0921627871558
 20
319.22360679775
 30
0.0
 11
814.0921627871558
 21
318.7763932022501
 31
0.0
  0
POLYLINE
  5
235
  8
1
  6
CONTINUOUS
 62
     7
 66
     1
 10
0.0
 20
0.0
 30
0.0
  0
VERTEX
  5
484
  8
1
  6
CONTINUOUS
 62
     7
 10
808.8534962997865
 20
318.7763932022501
 30
0.0
  0
VERTEX
  5
485
  8
1
  6
CONTINUOUS
 62
     7
 10
808.841159320021
 20
318.7896586576827
 30
0.0
  0
VERTEX
  5
486
  8
1
  6
CONTINUOUS
 62
     7
 10
808.8293403862949
 20
318.8034459703381
 30
0.0
  0
VERTEX
  5
487
  8
1
  6
CONTINUOUS
 62
     7
 10
808.8181114980591
 20
318.817737967056
 30
0.0
  0
VERTEX
  5
488
  8
1
  6
CONTINUOUS
 62
     7
 10
808.8075446547648
 20
318.8325174746756
 30
0.0
  0
VERTEX
  5
489
  8
1
  6
CONTINUOUS
 62
     7
 10
808.7977118558626
 20
318.8477673200362
 30
0.0
  0
VERTEX
  5
48A
  8
1
  6
CONTINUOUS
 62
     7
 10
808.7886851008037
 20
318.8634703299774
 30
0.0
  0
VERTEX
  5
48B
  8
1
  6
CONTINUOUS
 62
     7
 10
808.7825048659749
 20
318.8754942901268
 30
0.0
  0
VERTEX
  5
48C
  8
1
  6
CONTINUOUS
 62
     7
 10
808.7768245788395
 20
318.8877769346084
 30
0.0
  0
VERTEX
  5
48D
  8
1
  6
CONTINUOUS
 62
     7
 10
808.7716780252064
 20
318.9002917220104
 30
0.0
  0
VERTEX
  5
48E
  8
1
  6
CONTINUOUS
 62
     7
 10
808.7670989908836
 20
318.9130121109209
 30
0.0
  0
VERTEX
  5
48F
  8
1
  6
CONTINUOUS
 62
     7
 10
808.7629863917485
 20
318.926384525022
 30
0.0
  0
VERTEX
  5
490
  8
1
  6
CONTINUOUS
 62
     7
 10
808.7595290738121
 20
318.9399596824511
 30
0.0
  0
VERTEX
  5
491
  8
1
  6
CONTINUOUS
 62
     7
 10
808.7567537385487
 20
318.9536895330366
 30
0.0
  0
VERTEX
  5
492
  8
1
  6
CONTINUOUS
 62
     7
 10
808.754687087433
 20
318.9675260266072
 30
0.0
  0
VERTEX
  5
493
  8
1
  6
CONTINUOUS
 62
     7
 10
808.7534726038332
 20
318.9797413541354
 30
0.0
  0
VERTEX
  5
494
  8
1
  6
CONTINUOUS
 62
     7
 10
808.7528204259407
 20
318.9920128138509
 30
0.0
  0
VERTEX
  5
495
  8
1
  6
CONTINUOUS
 62
     7
 10
808.7527332640656
 20
319.0043012004466
 30
0.0
  0
VERTEX
  5
496
  8
1
  6
CONTINUOUS
 62
     7
 10
808.7532138285173
 20
319.0165673086153
 30
0.0
  0
VERTEX
  5
497
  8
1
  6
CONTINUOUS
 62
     7
 10
808.7543117669759
 20
319.0292356809451
 30
0.0
  0
VERTEX
  5
498
  8
1
  6
CONTINUOUS
 62
     7
 10
808.7560100473627
 20
319.0418516334813
 30
0.0
  0
VERTEX
  5
499
  8
1
  6
CONTINUOUS
 62
     7
 10
808.7582937707518
 20
319.0543753218136
 30
0.0
  0
VERTEX
  5
49A
  8
1
  6
CONTINUOUS
 62
     7
 10
808.7611480382177
 20
319.0667669015317
 30
0.0
  0
VERTEX
  5
49B
  8
1
  6
CONTINUOUS
 62
     7
 10
808.7652421444944
 20
319.0812137603519
 30
0.0
  0
VERTEX
  5
49C
  8
1
  6
CONTINUOUS
 62
     7
 10
808.7700930142416
 20
319.0954584339611
 30
0.0
  0
VERTEX
  5
49D
  8
1
  6
CONTINUOUS
 62
     7
 10
808.7756551243289
 20
319.109463077735
 30
0.0
  0
VERTEX
  5
49E
  8
1
  6
CONTINUOUS
 62
     7
 10
808.7818829516262
 20
319.1231898470488
 30
0.0
  0
VERTEX
  5
49F
  8
1
  6
CONTINUOUS
 62
     7
 10
808.7887309730029
 20
319.1366008972782
 30
0.0
  0
VERTEX
  5
4A0
  8
1
  6
CONTINUOUS
 62
     7
 10
808.7961536653287
 20
319.1496583837987
 30
0.0
  0
VERTEX
  5
4A1
  8
1
  6
CONTINUOUS
 62
     7
 10
808.8061854497508
 20
319.1654805756764
 30
0.0
  0
VERTEX
  5
4A2
  8
1
  6
CONTINUOUS
 62
     7
 10
808.8170130961514
 20
319.1808019197447
 30
0.0
  0
VERTEX
  5
4A3
  8
1
  6
CONTINUOUS
 62
     7
 10
808.8285591137867
 20
319.1956070092692
 30
0.0
  0
VERTEX
  5
4A4
  8
1
  6
CONTINUOUS
 62
     7
 10
808.8407460119129
 20
319.2098804375157
 30
0.0
  0
VERTEX
  5
4A5
  8
1
  6
CONTINUOUS
 62
     7
 10
808.8534962997865
 20
319.22360679775
 30
0.0
  0
SEQEND
  5
54F
  8
1
  6
CONTINUOUS
 62
     7
  0
LINE
  5
236
  8
1
  6
CONTINUOUS
 62
     7
 10
814.0921627871558
 20
301.2236067977501
 30
0.0
 11
814.0921627871558
 21
300.7763932022501
 31
0.0
  0
POLYLINE
  5
237
  8
1
  6
CONTINUOUS
 62
     7
 66
     1
 10
0.0
 20
0.0
 30
0.0
  0
VERTEX
  5
4A6
  8
1
  6
CONTINUOUS
 62
     7
 10
814.0921627871556
 20
301.22360679775
 30
0.0
  0
VERTEX
  5
4A7
  8
1
  6
CONTINUOUS
 62
     7
 10
813.5478009592034
 20
302.1996474140368
 30
0.0
  0
VERTEX
  5
4A8
  8
1
  6
CONTINUOUS
 62
     7
 10
812.8367947686471
 20
302.7982709416962
 30
0.0
  0
VERTEX
  5
4A9
  8
1
  6
CONTINUOUS
 62
     7
 10
811.9822781847234
 20
303.0000000000001
 30
0.0
  0
VERTEX
  5
4AA
  8
1
  6
CONTINUOUS
 62
     7
 10
811.0120545664296
 20
302.7982709416963
 30
0.0
  0
VERTEX
  5
4AB
  8
1
  6
CONTINUOUS
 62
     7
 10
809.9576920261625
 20
302.1996474140369
 30
0.0
  0
VERTEX
  5
4AC
  8
1
  6
CONTINUOUS
 62
     7
 10
808.8534962997865
 20
301.2236067977501
 30
0.0
  0
SEQEND
  5
550
  8
1
  6
CONTINUOUS
 62
     7
  0
POLYLINE
  5
238
  8
1
  6
CONTINUOUS
 62
     7
 66
     1
 10
0.0
 20
0.0
 30
0.0
  0
VERTEX
  5
4AD
  8
1
  6
CONTINUOUS
 62
     7
 10
808.8534962997865
 20
300.7763932022501
 30
0.0
  0
VERTEX
  5
4AE
  8
1
  6
CONTINUOUS
 62
     7
 10
808.841159320021
 20
300.7896586576827
 30
0.0
  0
VERTEX
  5
4AF
  8
1
  6
CONTINUOUS
 62
     7
 10
808.8293403862949
 20
300.8034459703381
 30
0.0
  0
VERTEX
  5
4B0
  8
1
  6
CONTINUOUS
 62
     7
 10
808.8181114980591
 20
300.817737967056
 30
0.0
  0
VERTEX
  5
4B1
  8
1
  6
CONTINUOUS
 62
     7
 10
808.8075446547648
 20
300.8325174746755
 30
0.0
  0
VERTEX
  5
4B2
  8
1
  6
CONTINUOUS
 62
     7
 10
808.7977118558626
 20
300.8477673200362
 30
0.0
  0
VERTEX
  5
4B3
  8
1
  6
CONTINUOUS
 62
     7
 10
808.7886851008037
 20
300.8634703299774
 30
0.0
  0
VERTEX
  5
4B4
  8
1
  6
CONTINUOUS
 62
     7
 10
808.7825048659749
 20
300.8754942901268
 30
0.0
  0
VERTEX
  5
4B5
  8
1
  6
CONTINUOUS
 62
     7
 10
808.7768245788395
 20
300.8877769346084
 30
0.0
  0
VERTEX
  5
4B6
  8
1
  6
CONTINUOUS
 62
     7
 10
808.7716780252064
 20
300.9002917220104
 30
0.0
  0
VERTEX
  5
4B7
  8
1
  6
CONTINUOUS
 62
     7
 10
808.7670989908836
 20
300.913012110921
 30
0.0
  0
VERTEX
  5
4B8
  8
1
  6
CONTINUOUS
 62
     7
 10
808.7629863917485
 20
300.9263845250221
 30
0.0
  0
VERTEX
  5
4B9
  8
1
  6
CONTINUOUS
 62
     7
 10
808.7595290738121
 20
300.9399596824511
 30
0.0
  0
VERTEX
  5
4BA
  8
1
  6
CONTINUOUS
 62
     7
 10
808.7567537385487
 20
300.9536895330366
 30
0.0
  0
VERTEX
  5
4BB
  8
1
  6
CONTINUOUS
 62
     7
 10
808.7546870874329
 20
300.9675260266072
 30
0.0
  0
VERTEX
  5
4BC
  8
1
  6
CONTINUOUS
 62
     7
 10
808.7534726038331
 20
300.9797413541354
 30
0.0
  0
VERTEX
  5
4BD
  8
1
  6
CONTINUOUS
 62
     7
 10
808.7528204259407
 20
300.992012813851
 30
0.0
  0
VERTEX
  5
4BE
  8
1
  6
CONTINUOUS
 62
     7
 10
808.7527332640656
 20
301.0043012004466
 30
0.0
  0
VERTEX
  5
4BF
  8
1
  6
CONTINUOUS
 62
     7
 10
808.7532138285173
 20
301.0165673086153
 30
0.0
  0
VERTEX
  5
4C0
  8
1
  6
CONTINUOUS
 62
     7
 10
808.7543117669759
 20
301.0292356809451
 30
0.0
  0
VERTEX
  5
4C1
  8
1
  6
CONTINUOUS
 62
     7
 10
808.7560100473627
 20
301.0418516334813
 30
0.0
  0
VERTEX
  5
4C2
  8
1
  6
CONTINUOUS
 62
     7
 10
808.7582937707518
 20
301.0543753218136
 30
0.0
  0
VERTEX
  5
4C3
  8
1
  6
CONTINUOUS
 62
     7
 10
808.7611480382177
 20
301.0667669015317
 30
0.0
  0
VERTEX
  5
4C4
  8
1
  6
CONTINUOUS
 62
     7
 10
808.7652421444944
 20
301.0812137603518
 30
0.0
  0
VERTEX
  5
4C5
  8
1
  6
CONTINUOUS
 62
     7
 10
808.7700930142416
 20
301.0954584339611
 30
0.0
  0
VERTEX
  5
4C6
  8
1
  6
CONTINUOUS
 62
     7
 10
808.7756551243289
 20
301.109463077735
 30
0.0
  0
VERTEX
  5
4C7
  8
1
  6
CONTINUOUS
 62
     7
 10
808.7818829516262
 20
301.1231898470489
 30
0.0
  0
VERTEX
  5
4C8
  8
1
  6
CONTINUOUS
 62
     7
 10
808.7887309730029
 20
301.1366008972783
 30
0.0
  0
VERTEX
  5
4C9
  8
1
  6
CONTINUOUS
 62
     7
 10
808.7961536653287
 20
301.1496583837986
 30
0.0
  0
VERTEX
  5
4CA
  8
1
  6
CONTINUOUS
 62
     7
 10
808.8061854497508
 20
301.1654805756765
 30
0.0
  0
VERTEX
  5
4CB
  8
1
  6
CONTINUOUS
 62
     7
 10
808.8170130961514
 20
301.1808019197448
 30
0.0
  0
VERTEX
  5
4CC
  8
1
  6
CONTINUOUS
 62
     7
 10
808.8285591137867
 20
301.1956070092693
 30
0.0
  0
VERTEX
  5
4CD
  8
1
  6
CONTINUOUS
 62
     7
 10
808.8407460119129
 20
301.2098804375158
 30
0.0
  0
VERTEX
  5
4CE
  8
1
  6
CONTINUOUS
 62
     7
 10
808.8534962997865
 20
301.2236067977501
 30
0.0
  0
SEQEND
  5
551
  8
1
  6
CONTINUOUS
 62
     7
  0
POLYLINE
  5
239
  8
1
  6
CONTINUOUS
 62
     7
 66
     1
 10
0.0
 20
0.0
 30
0.0
  0
VERTEX
  5
4CF
  8
1
  6
CONTINUOUS
 62
     7
 10
808.8534962997865
 20
300.77639320225
 30
0.0
  0
VERTEX
  5
4D0
  8
1
  6
CONTINUOUS
 62
     7
 10
809.9576920261625
 20
299.8003525859632
 30
0.0
  0
VERTEX
  5
4D1
  8
1
  6
CONTINUOUS
 62
     7
 10
811.0120545664296
 20
299.2017290583039
 30
0.0
  0
VERTEX
  5
4D2
  8
1
  6
CONTINUOUS
 62
     7
 10
811.9822781847234
 20
299.0000000000001
 30
0.0
  0
VERTEX
  5
4D3
  8
1
  6
CONTINUOUS
 62
     7
 10
812.8367947686471
 20
299.201729058304
 30
0.0
  0
VERTEX
  5
4D4
  8
1
  6
CONTINUOUS
 62
     7
 10
813.5478009592034
 20
299.8003525859633
 30
0.0
  0
VERTEX
  5
4D5
  8
1
  6
CONTINUOUS
 62
     7
 10
814.0921627871556
 20
300.7763932022501
 30
0.0
  0
SEQEND
  5
552
  8
1
  6
CONTINUOUS
 62
     7
  0
LINE
  5
23A
  8
1
  6
CONTINUOUS
 62
     7
 10
805.326104279347
 20
312.7
 30
0.0
 11
805.326104279347
 21
307.3000000000001
 31
0.0
  0
POLYLINE
  5
23B
  8
1
  6
CONTINUOUS
 62
     7
 66
     1
 10
0.0
 20
0.0
 30
0.0
  0
VERTEX
  5
4D6
  8
1
  6
CONTINUOUS
 62
     7
 10
814.0921627871556
 20
319.2236067977499
 30
0.0
  0
VERTEX
  5
4D7
  8
1
  6
CONTINUOUS
 62
     7
 10
813.5478009592034
 20
320.1996474140367
 30
0.0
  0
VERTEX
  5
4D8
  8
1
  6
CONTINUOUS
 62
     7
 10
812.836794768647
 20
320.7982709416961
 30
0.0
  0
VERTEX
  5
4D9
  8
1
  6
CONTINUOUS
 62
     7
 10
811.9822781847234
 20
321.0
 30
0.0
  0
VERTEX
  5
4DA
  8
1
  6
CONTINUOUS
 62
     7
 10
811.0120545664296
 20
320.7982709416962
 30
0.0
  0
VERTEX
  5
4DB
  8
1
  6
CONTINUOUS
 62
     7
 10
809.9576920261625
 20
320.1996474140368
 30
0.0
  0
VERTEX
  5
4DC
  8
1
  6
CONTINUOUS
 62
     7
 10
808.8534962997865
 20
319.22360679775
 30
0.0
  0
SEQEND
  5
553
  8
1
  6
CONTINUOUS
 62
     7
  0
POLYLINE
  5
23C
  8
1
  6
CONTINUOUS
 62
     7
 66
     1
 10
0.0
 20
0.0
 30
0.0
  0
VERTEX
  5
4DD
  8
1
  6
CONTINUOUS
 62
     7
 10
808.8534962997865
 20
318.7763932022501
 30
0.0
  0
VERTEX
  5
4DE
  8
1
  6
CONTINUOUS
 62
     7
 10
809.9576920261625
 20
317.8003525859633
 30
0.0
  0
VERTEX
  5
4DF
  8
1
  6
CONTINUOUS
 62
     7
 10
811.0120545664296
 20
317.201729058304
 30
0.0
  0
VERTEX
  5
4E0
  8
1
  6
CONTINUOUS
 62
     7
 10
811.9822781847234
 20
317.0000000000001
 30
0.0
  0
VERTEX
  5
4E1
  8
1
  6
CONTINUOUS
 62
     7
 10
812.8367947686471
 20
317.201729058304
 30
0.0
  0
VERTEX
  5
4E2
  8
1
  6
CONTINUOUS
 62
     7
 10
813.5478009592034
 20
317.8003525859634
 30
0.0
  0
VERTEX
  5
4E3
  8
1
  6
CONTINUOUS
 62
     7
 10
814.0921627871556
 20
318.7763932022502
 30
0.0
  0
SEQEND
  5
554
  8
1
  6
CONTINUOUS
 62
     7
  0
LINE
  5
23D
  8
1
  6
CONTINUOUS
 62
     7
 10
788.4386089055505
 20
322.0000000000001
 30
0.0
 11
788.4386089055505
 21
314.2
 31
0.0
  0
POLYLINE
  5
23E
  8
1
  6
CONTINUOUS
 62
     7
 66
     1
 10
0.0
 20
0.0
 30
0.0
  0
VERTEX
  5
4E4
  8
1
  6
CONTINUOUS
 62
     7
 10
792.7687359244726
 20
327.0000000000001
 30
0.0
  0
VERTEX
  5
4E5
  8
1
  6
CONTINUOUS
 62
     7
 10
791.9239700499803
 20
326.9039264020162
 30
0.0
  0
VERTEX
  5
4E6
  8
1
  6
CONTINUOUS
 62
     7
 10
791.1116680542947
 20
326.6193976625565
 30
0.0
  0
VERTEX
  5
4E7
  8
1
  6
CONTINUOUS
 62
     7
 10
790.3630462475655
 20
326.1573480615128
 30
0.0
  0
VERTEX
  5
4E8
  8
1
  6
CONTINUOUS
 62
     7
 10
789.7068737459936
 20
325.5355339059328
 30
0.0
  0
VERTEX
  5
4E9
  8
1
  6
CONTINUOUS
 62
     7
 10
789.1683668908286
 20
324.7778511650981
 30
0.0
  0
VERTEX
  5
4EA
  8
1
  6
CONTINUOUS
 62
     7
 10
788.7682201985162
 20
323.9134171618255
 30
0.0
  0
VERTEX
  5
4EB
  8
1
  6
CONTINUOUS
 62
     7
 10
788.5218110820374
 20
322.9754516100807
 30
0.0
  0
VERTEX
  5
4EC
  8
1
  6
CONTINUOUS
 62
     7
 10
788.4386089055504
 20
322.0000000000001
 30
0.0
  0
SEQEND
  5
555
  8
1
  6
CONTINUOUS
 62
     7
  0
POLYLINE
  5
23F
  8
1
  6
CONTINUOUS
 62
     7
 66
     1
 10
0.0
 20
0.0
 30
0.0
  0
VERTEX
  5
4ED
  8
1
  6
CONTINUOUS
 62
     7
 10
805.3261042793471
 20
312.7
 30
0.0
  0
VERTEX
  5
4EE
  8
1
  6
CONTINUOUS
 62
     7
 10
805.3177840616984
 20
312.7975451610081
 30
0.0
  0
VERTEX
  5
4EF
  8
1
  6
CONTINUOUS
 62
     7
 10
805.2931431500505
 20
312.8913417161826
 30
0.0
  0
VERTEX
  5
4F0
  8
1
  6
CONTINUOUS
 62
     7
 10
805.2531284808192
 20
312.9777851165098
 30
0.0
  0
VERTEX
  5
4F1
  8
1
  6
CONTINUOUS
 62
     7
 10
805.1992777953027
 20
313.0535533905933
 30
0.0
  0
VERTEX
  5
4F2
  8
1
  6
CONTINUOUS
 62
     7
 10
805.1336605451455
 20
313.1157348061513
 30
0.0
  0
VERTEX
  5
4F3
  8
1
  6
CONTINUOUS
 62
     7
 10
805.0587983644726
 20
313.1619397662557
 30
0.0
  0
VERTEX
  5
4F4
  8
1
  6
CONTINUOUS
 62
     7
 10
804.977568164904
 20
313.1903926402017
 30
0.0
  0
VERTEX
  5
4F5
  8
1
  6
CONTINUOUS
 62
     7
 10
804.8930915774548
 20
313.2
 30
0.0
  0
SEQEND
  5
556
  8
1
  6
CONTINUOUS
 62
     7
  0
LINE
  5
240
  8
1
  6
CONTINUOUS
 62
     7
 10
804.8930915774548
 20
313.2
 30
0.0
 11
804.3680222448376
 21
313.2
 31
0.0
  0
LINE
  5
241
  8
1
  6
CONTINUOUS
 62
     7
 10
793.3347017914707
 20
313.2
 30
0.0
 11
789.304634309335
 21
313.2
 31
0.0
  0
POLYLINE
  5
242
  8
1
  6
CONTINUOUS
 62
     7
 66
     1
 10
0.0
 20
0.0
 30
0.0
  0
VERTEX
  5
4F6
  8
1
  6
CONTINUOUS
 62
     7
 10
788.4386089055505
 20
314.2000000000003
 30
0.0
  0
VERTEX
  5
4F7
  8
1
  6
CONTINUOUS
 62
     7
 10
788.4552493408478
 20
314.0049096779841
 30
0.0
  0
VERTEX
  5
4F8
  8
1
  6
CONTINUOUS
 62
     7
 10
788.5045311641436
 20
313.8173165676351
 30
0.0
  0
VERTEX
  5
4F9
  8
1
  6
CONTINUOUS
 62
     7
 10
788.584560502606
 20
313.6444297669806
 30
0.0
  0
VERTEX
  5
4FA
  8
1
  6
CONTINUOUS
 62
     7
 10
788.692261873639
 20
313.4928932188136
 30
0.0
  0
VERTEX
  5
4FB
  8
1
  6
CONTINUOUS
 62
     7
 10
788.8234963739534
 20
313.3685303876976
 30
0.0
  0
VERTEX
  5
4FC
  8
1
  6
CONTINUOUS
 62
     7
 10
788.9732207352993
 20
313.2761204674888
 30
0.0
  0
VERTEX
  5
4FD
  8
1
  6
CONTINUOUS
 62
     7
 10
789.1356811344364
 20
313.2192147195968
 30
0.0
  0
VERTEX
  5
4FE
  8
1
  6
CONTINUOUS
 62
     7
 10
789.3046343093348
 20
313.2
 30
0.0
  0
SEQEND
  5
557
  8
1
  6
CONTINUOUS
 62
     7
  0
POLYLINE
  5
243
  8
1
  6
CONTINUOUS
 62
     7
 66
     1
 10
0.0
 20
0.0
 30
0.0
  0
VERTEX
  5
4FF
  8
1
  6
CONTINUOUS
 62
     7
 10
804.8930915774548
 20
306.8000000000001
 30
0.0
  0
VERTEX
  5
500
  8
1
  6
CONTINUOUS
 62
     7
 10
804.977568164904
 20
306.8096073597985
 30
0.0
  0
VERTEX
  5
501
  8
1
  6
CONTINUOUS
 62
     7
 10
805.0587983644726
 20
306.8380602337444
 30
0.0
  0
VERTEX
  5
502
  8
1
  6
CONTINUOUS
 62
     7
 10
805.1336605451455
 20
306.8842651938488
 30
0.0
  0
VERTEX
  5
503
  8
1
  6
CONTINUOUS
 62
     7
 10
805.1992777953027
 20
306.9464466094068
 30
0.0
  0
VERTEX
  5
504
  8
1
  6
CONTINUOUS
 62
     7
 10
805.2531284808192
 20
307.0222148834903
 30
0.0
  0
VERTEX
  5
505
  8
1
  6
CONTINUOUS
 62
     7
 10
805.2931431500505
 20
307.1086582838175
 30
0.0
  0
VERTEX
  5
506
  8
1
  6
CONTINUOUS
 62
     7
 10
805.3177840616984
 20
307.202454838992
 30
0.0
  0
VERTEX
  5
507
  8
1
  6
CONTINUOUS
 62
     7
 10
805.3261042793471
 20
307.3000000000001
 30
0.0
  0
SEQEND
  5
558
  8
1
  6
CONTINUOUS
 62
     7
  0
LINE
  5
244
  8
1
  6
CONTINUOUS
 62
     7
 10
804.8930915774548
 20
306.8000000000001
 30
0.0
 11
804.3680222448376
 21
306.8000000000001
 31
0.0
  0
LINE
  5
245
  8
1
  6
CONTINUOUS
 62
     7
 10
793.3347017914707
 20
306.8000000000001
 30
0.0
 11
789.304634309335
 21
306.8000000000001
 31
0.0
  0
POLYLINE
  5
246
  8
1
  6
CONTINUOUS
 62
     7
 66
     1
 10
0.0
 20
0.0
 30
0.0
  0
VERTEX
  5
508
  8
1
  6
CONTINUOUS
 62
     7
 10
788.4386089055504
 20
298.0000000000001
 30
0.0
  0
VERTEX
  5
509
  8
1
  6
CONTINUOUS
 62
     7
 10
788.5218110820374
 20
297.0245483899194
 30
0.0
  0
VERTEX
  5
50A
  8
1
  6
CONTINUOUS
 62
     7
 10
788.7682201985162
 20
296.0865828381746
 30
0.0
  0
VERTEX
  5
50B
  8
1
  6
CONTINUOUS
 62
     7
 10
789.1683668908286
 20
295.222148834902
 30
0.0
  0
VERTEX
  5
50C
  8
1
  6
CONTINUOUS
 62
     7
 10
789.7068737459936
 20
294.4644660940673
 30
0.0
  0
VERTEX
  5
50D
  8
1
  6
CONTINUOUS
 62
     7
 10
790.3630462475655
 20
293.8426519384873
 30
0.0
  0
VERTEX
  5
50E
  8
1
  6
CONTINUOUS
 62
     7
 10
791.1116680542947
 20
293.3806023374436
 30
0.0
  0
VERTEX
  5
50F
  8
1
  6
CONTINUOUS
 62
     7
 10
791.9239700499803
 20
293.0960735979839
 30
0.0
  0
VERTEX
  5
510
  8
1
  6
CONTINUOUS
 62
     7
 10
792.7687359244726
 20
293.0000000000001
 30
0.0
  0
SEQEND
  5
559
  8
1
  6
CONTINUOUS
 62
     7
  0
LINE
  5
247
  8
1
  6
CONTINUOUS
 62
     7
 10
788.4386089055505
 20
298.0000000000001
 30
0.0
 11
788.4386089055505
 21
305.8000000000001
 31
0.0
  0
POLYLINE
  5
248
  8
1
  6
CONTINUOUS
 62
     7
 66
     1
 10
0.0
 20
0.0
 30
0.0
  0
VERTEX
  5
511
  8
1
  6
CONTINUOUS
 62
     7
 10
789.3046343093348
 20
306.8000000000001
 30
0.0
  0
VERTEX
  5
512
  8
1
  6
CONTINUOUS
 62
     7
 10
789.1356811344364
 20
306.7807852804033
 30
0.0
  0
VERTEX
  5
513
  8
1
  6
CONTINUOUS
 62
     7
 10
788.9732207352993
 20
306.7238795325113
 30
0.0
  0
VERTEX
  5
514
  8
1
  6
CONTINUOUS
 62
     7
 10
788.8234963739534
 20
306.6314696123025
 30
0.0
  0
VERTEX
  5
515
  8
1
  6
CONTINUOUS
 62
     7
 10
788.692261873639
 20
306.5071067811865
 30
0.0
  0
VERTEX
  5
516
  8
1
  6
CONTINUOUS
 62
     7
 10
788.584560502606
 20
306.3555702330195
 30
0.0
  0
VERTEX
  5
517
  8
1
  6
CONTINUOUS
 62
     7
 10
788.5045311641436
 20
306.182683432365
 30
0.0
  0
VERTEX
  5
518
  8
1
  6
CONTINUOUS
 62
     7
 10
788.4552493408478
 20
305.995090322016
 30
0.0
  0
VERTEX
  5
519
  8
1
  6
CONTINUOUS
 62
     7
 10
788.4386089055505
 20
305.7999999999998
 30
0.0
  0
SEQEND
  5
55A
  8
1
  6
CONTINUOUS
 62
     7
  0
LINE
  5
249
  8
1
  6
CONTINUOUS
 62
     7
 10
791.5740527322438
 20
313.2
 30
0.0
 11
791.5740527322438
 21
306.8000000000001
 31
0.0
  0
LINE
  5
24A
  8
1
  6
CONTINUOUS
 62
     7
 10
787.0740527322437
 20
296.0000000000001
 30
0.0
 11
787.0740527322437
 21
300.0000000000001
 31
0.0
  0
LINE
  5
24B
  8
1
  6
CONTINUOUS
 62
     7
 10
787.0740527322437
 20
320.0000000000001
 30
0.0
 11
787.0740527322437
 21
324.0000000000001
 31
0.0
  0
ARC
  5
24C
  8
1
  6
CONTINUOUS
 62
     7
 10
790.0740527322438
 20
296.0000000000001
 30
0.0
 40
3.000000000000114
 50
180.0
 51
270.0
  0
ARC
  5
24D
  8
1
  6
CONTINUOUS
 62
     7
 10
790.0740527322438
 20
324.0000000000001
 30
0.0
 40
3.000000000000114
 50
90.0
 51
180.0
  0
LINE
  5
24E
  8
1
  6
CONTINUOUS
 62
     7
 10
815.9098568748116
 20
303.0000000000001
 30
0.0
 11
817.1901069537275
 21
303.0000000000001
 31
0.0
  0
LINE
  5
24F
  8
1
  6
CONTINUOUS
 62
     7
 10
817.1901069537275
 20
317.0000000000001
 30
0.0
 11
815.9098568748116
 21
317.0000000000001
 31
0.0
  0
LINE
  5
250
  8
1
  6
CONTINUOUS
 62
     7
 10
822.2499740831508
 20
305.0000000000001
 30
0.0
 11
822.3793128149823
 21
305.2388909180143
 31
0.0
  0
LINE
  5
251
  8
1
  6
CONTINUOUS
 62
     7
 10
822.3793128149823
 20
314.7611090819858
 30
0.0
 11
822.2499740831508
 21
315.0000000000001
 31
0.0
  0
LINE
  5
252
  8
1
  6
CONTINUOUS
 62
     7
 10
798.7263620181542
 20
303.0000000000001
 30
0.0
 11
798.9763620181542
 21
303.0000000000001
 31
0.0
  0
LINE
  5
253
  8
1
  6
CONTINUOUS
 62
     7
 10
798.9763620181542
 20
317.0000000000001
 30
0.0
 11
798.7263620181542
 21
317.0000000000001
 31
0.0
  0
LINE
  5
254
  8
1
  6
CONTINUOUS
 62
     7
 10
805.326104279347
 20
307.4
 30
0.0
 11
804.6048609299423
 21
307.4
 31
0.0
  0
LINE
  5
255
  8
1
  6
CONTINUOUS
 62
     7
 10
804.6048609299423
 20
312.6
 30
0.0
 11
805.326104279347
 21
312.6
 31
0.0
  0
LINE
  5
256
  8
1
  6
CONTINUOUS
 62
     7
 10
843.8945460292374
 20
313.0000000000001
 30
0.0
 11
822.8087384294562
 21
313.0000000000001
 31
0.0
  0
LINE
  5
257
  8
1
  6
CONTINUOUS
 62
     7
 10
822.8087384294562
 20
307.0000000000001
 30
0.0
 11
843.8945460292374
 21
307.0000000000001
 31
0.0
  0
LINE
  5
258
  8
1
  6
CONTINUOUS
 62
     7
 10
814.626104279347
 20
293.0000000000001
 30
0.0
 11
814.626104279347
 21
327.0000000000001
 31
0.0
  0
LINE
  5
259
  8
1
  6
CONTINUOUS
 62
     7
 10
814.6263177617747
 20
319.663166384568
 30
0.0
 11
814.7490884040664
 21
321.0000000000001
 31
0.0
  0
LINE
  5
25A
  8
1
  6
CONTINUOUS
 62
     7
 10
814.7490884040664
 20
321.0000000000001
 30
0.0
 11
814.6262287268024
 21
322.3372010392093
 31
0.0
  0
LINE
  5
25B
  8
1
  6
CONTINUOUS
 62
     7
 10
814.6263177617747
 20
297.6631663845679
 30
0.0
 11
814.7490884040664
 21
299.0000000000001
 31
0.0
  0
LINE
  5
25C
  8
1
  6
CONTINUOUS
 62
     7
 10
814.7490884040664
 20
299.0000000000001
 30
0.0
 11
814.6262287268024
 21
300.3372010392093
 31
0.0
  0
ENDBLK
  8
0
  0
ENDSEC
  0
SECTION
  2
ENTITIES
  0
LINE
  5
70
  8
1
  6
CENTER
 62
     1
 10
700.0
 20
34.39218673252768
 30
0.0
 11
700.0
 21
185.0
 31
0.0
  0
LINE
  5
72
  8
1
  6
CENTER
 62
     1
 10
605.0
 20
180.0
 30
0.0
 11
605.0
 21
32.60781326747235
 31
0.0
  0
LINE
  5
73
  8
1
  6
CENTER
 62
     1
 10
462.5845094377618
 20
310.0000000000001
 30
0.0
 11
847.4154905622382
 21
310.0000000000001
 31
0.0
  0
LINE
  5
74
  8
1
  6
CENTER
 62
     1
 10
646.6351251346719
 20
87.75706159785582
 30
0.0
 11
753.3648748653281
 21
87.75706159785582
 31
0.0
  0
LINE
  5
75
  8
1
  6
CONTINUOUS
 62
     7
 10
493.6848673109083
 20
229.8475271021727
 30
0.0
 11
473.6848673109083
 21
229.8475271021729
 31
0.0
  0
LINE
  5
76
  8
1
  6
CONTINUOUS
 62
     7
 10
470.5334825012691
 20
232.4918529336385
 30
0.0
 11
465.5845094377618
 21
260.5588738944864
 31
0.0
  0
LINE
  5
77
  8
1
  6
CONTINUOUS
 62
     7
 10
805.326104279347
 20
263.3610614133398
 30
0.0
 11
788.4386089055505
 21
253.6110614133398
 31
0.0
  0
LINE
  5
78
  8
1
  6
CONTINUOUS
 62
     7
 10
745.0488594274764
 20
231.2082960901238
 30
0.0
 11
783.3794600215763
 21
231.2082960901238
 31
0.0
  0
LINE
  5
79
  8
1
  6
CONTINUOUS
 62
     7
 10
537.8005151117122
 20
231.3082960901238
 30
0.0
 11
742.9584049314398
 21
231.3082960901238
 31
0.0
  0
LINE
  5
7A
  8
1
  6
CONTINUOUS
 62
     7
 10
790.0386089055504
 20
250.8397801212296
 30
0.0
 11
806.926104279347
 21
260.5897801212296
 31
0.0
  0
LINE
  5
7B
  8
1
  6
CONTINUOUS
 62
     7
 10
709.5
 20
169.9793511780323
 30
0.0
 11
709.5
 21
159.9793511780322
 31
0.0
  0
LINE
  5
7C
  8
1
  6
CONTINUOUS
 62
     7
 10
535.7100606156757
 20
231.2082960901238
 30
0.0
 11
497.3794600215758
 21
231.2082960901238
 31
0.0
  0
LINE
  5
7D
  8
1
  6
CONTINUOUS
 62
     7
 10
493.6848673109083
 20
322.1000000000001
 30
0.0
 11
787.0740527322437
 21
322.1000000000001
 31
0.0
  0
LINE
  5
7E
  8
1
  6
CONTINUOUS
 62
     7
 10
677.1038449397558
 20
142.919223179189
 30
0.0
 11
696.8000000000001
 21
146.3921867325276
 31
0.0
  0
LINE
  5
7F
  8
1
  6
CONTINUOUS
 62
     7
 10
537.8005151117122
 20
227.8082960901238
 30
0.0
 11
742.9584049314398
 21
227.8082960901238
 31
0.0
  0
LINE
  5
80
  8
1
  6
CONTINUOUS
 62
     7
 10
700.0
 20
146.3921867325277
 30
0.0
 11
700.0
 21
174.8921867325276
 31
0.0
  0
LINE
  5
81
  8
1
  6
CONTINUOUS
 62
     7
 10
734.8431006610874
 20
130.1376329756635
 30
0.0
 11
724.6970609503509
 21
140.5067777237383
 31
0.0
  0
LINE
  5
82
  8
1
  6
CONTINUOUS
 62
     7
 10
588.0
 20
146.3921867325276
 30
0.0
 11
622.0
 21
146.3921867325276
 31
0.0
  0
LINE
  5
83
  8
1
  6
CONTINUOUS
 62
     7
 10
691.8716371709405
 20
173.4903200618845
 30
0.0
 11
676.9337705301203
 21
160.9559616729971
 31
0.0
  0
LINE
  5
84
  8
1
  6
CONTINUOUS
 62
     7
 10
704.5
 20
157.9793511780322
 30
0.0
 11
704.5
 21
171.9793511780323
 31
0.0
  0
LINE
  5
85
  8
1
  6
CONTINUOUS
 62
     7
 10
818.0408058138238
 20
315.0000000000001
 30
0.0
 11
822.2499702995106
 21
315.0000000000001
 31
0.0
  0
LINE
  5
86
  8
1
  6
CONTINUOUS
 62
     7
 10
722.8961550602442
 20
142.9192231791891
 30
0.0
 11
739.1307658236799
 21
126.3276235271021
 31
0.0
  0
LINE
  5
87
  8
1
  6
CONTINUOUS
 62
     7
 10
822.982386607124
 20
253.1317866512605
 30
0.0
 11
821.2459048304539
 21
243.2837091211385
 31
0.0
  0
LINE
  5
88
  8
1
  6
CONTINUOUS
 62
     7
 10
473.6848673109083
 20
233.0475271021727
 30
0.0
 11
493.6848673109083
 21
233.0475271021727
 31
0.0
  0
LINE
  5
89
  8
1
  6
CONTINUOUS
 62
     7
 10
468.7358942474008
 20
261.1145480630206
 30
0.0
 11
473.6848673109082
 21
233.0475271021727
 31
0.0
  0
LINE
  5
8A
  8
1
  6
CONTINUOUS
 62
     7
 10
533.0488724706852
 20
230.8082960901238
 30
0.0
 11
497.3794600215758
 21
230.8082960901238
 31
0.0
  0
LINE
  5
8B
  8
1
  6
CONTINUOUS
 62
     7
 10
702.6443258314658
 20
143.2408019228886
 30
0.0
 11
724.353633097001
 21
139.4128653194845
 31
0.0
  0
LINE
  5
8C
  8
1
  6
CONTINUOUS
 62
     7
 10
722.8961550602442
 20
142.9192231791891
 30
0.0
 11
703.2
 21
146.3921867325277
 31
0.0
  0
LINE
  5
8D
  8
1
  6
CONTINUOUS
 62
     7
 10
493.6848673109083
 20
320.5000000000001
 30
0.0
 11
787.0740527322437
 21
320.5000000000001
 31
0.0
  0
LINE
  5
8E
  8
1
  6
CONTINUOUS
 62
     7
 10
488.8794600215754
 20
229.3082960901242
 30
0.0
 11
488.8794600215754
 21
225.8082960901242
 31
0.0
  0
LINE
  5
8F
  8
1
  6
CONTINUOUS
 62
     7
 10
703.2
 20
146.3921867325277
 30
0.0
 11
703.2
 21
174.8921867325276
 31
0.0
  0
LINE
  5
90
  8
1
  6
CONTINUOUS
 62
     7
 10
677.103844939756
 20
142.9192231791891
 30
0.0
 11
660.8692341763202
 21
126.3276235271021
 31
0.0
  0
LINE
  5
91
  8
1
  6
CONTINUOUS
 62
     7
 10
588.0
 20
177.3921867325276
 30
0.0
 11
588.0
 21
140.2887829025508
 31
0.0
  0
LINE
  5
92
  8
1
  6
CONTINUOUS
 62
     7
 10
822.249970305843
 20
305.0000000000001
 30
0.0
 11
818.0408058138238
 21
305.0000000000001
 31
0.0
  0
LINE
  5
93
  8
1
  6
CONTINUOUS
 62
     7
 10
788.4386089055505
 20
300.0000000000001
 30
0.0
 11
490.379460021576
 21
300.0000000000001
 31
0.0
  0
LINE
  5
94
  8
1
  6
CONTINUOUS
 62
     7
 10
615.0
 20
144.1006399786902
 30
0.0
 11
615.0
 21
32.60781326747244
 31
0.0
  0
LINE
  5
95
  8
1
  6
CONTINUOUS
 62
     7
 10
498.878459921556
 20
230.4082960901238
 30
0.0
 11
530.3794600215759
 21
230.4082960901238
 31
0.0
  0
LINE
  5
96
  8
1
  6
CONTINUOUS
 62
     7
 10
697.3556741685343
 20
143.2408019228885
 30
0.0
 11
675.6463669029991
 21
139.4128653194845
 31
0.0
  0
LINE
  5
97
  8
1
  6
CONTINUOUS
 62
     7
 10
815.9745697100591
 20
242.1823345034487
 30
0.0
 11
818.4056441973959
 21
255.9696430456197
 31
0.0
  0
LINE
  5
98
  8
1
  6
CONTINUOUS
 62
     7
 10
601.8
 20
156.3921867325276
 30
0.0
 11
601.8
 21
167.7439481390654
 31
0.0
  0
ARC
  5
99
  8
1
  6
CONTINUOUS
 62
     9
 10
605.0
 20
164.9793511780323
 30
0.0
 40
3.0
 50
150.0735651333859
 51
185.7033412156002
  0
ARC
  5
9A
  8
1
  6
CONTINUOUS
 62
     7
 10
700.2879385241572
 20
87.75706159785584
 30
0.0
 40
55.14999999999996
 50
135.6230737602781
 51
172.0048990450306
  0
LINE
  5
9B
  8
1
  6
CONTINUOUS
 62
     7
 10
787.0740527322437
 20
233.0475271021727
 30
0.0
 11
807.0740527322438
 21
233.0475271021727
 31
0.0
  0
LINE
  5
9C
  8
1
  6
CONTINUOUS
 62
     7
 10
814.626104279347
 20
327.0000000000001
 30
0.0
 11
790.0740527322438
 21
327.0000000000001
 31
0.0
  0
LINE
  5
9D
  8
1
  6
CONTINUOUS
 62
     7
 10
807.0740527322438
 20
229.8475271021726
 30
0.0
 11
787.0740527322437
 21
229.8475271021726
 31
0.0
  0
LINE
  5
9E
  8
1
  6
CONTINUOUS
 62
     7
 10
781.880460121596
 20
230.4082960901238
 30
0.0
 11
750.379460021576
 21
230.4082960901238
 31
0.0
  0
LINE
  5
9F
  8
1
  6
CONTINUOUS
 62
     7
 10
498.878459921556
 20
231.6082960901238
 30
0.0
 11
530.3794600215759
 21
231.6082960901238
 31
0.0
  0
LINE
  5
A0
  8
1
  6
CONTINUOUS
 62
     7
 10
493.6848673109083
 20
299.5000000000001
 30
0.0
 11
787.0740527322437
 21
299.5000000000001
 31
0.0
  0
LINE
  5
A1
  8
1
  6
CONTINUOUS
 62
     7
 10
622.0
 20
177.3921867325276
 30
0.0
 11
622.0
 21
140.2887829025508
 31
0.0
  0
LINE
  5
A2
  8
1
  6
CONTINUOUS
 62
     7
 10
595.0
 20
144.1006399786902
 30
0.0
 11
595.0
 21
32.60781326747243
 31
0.0
  0
LINE
  5
A3
  8
1
  6
CONTINUOUS
 62
     7
 10
814.626104279347
 20
293.0000000000001
 30
0.0
 11
790.0740527322438
 21
293.0000000000001
 31
0.0
  0
LINE
  5
A4
  8
1
  6
CONTINUOUS
 62
     7
 10
781.880460121596
 20
231.6082960901238
 30
0.0
 11
750.379460021576
 21
231.6082960901238
 31
0.0
  0
LINE
  5
A5
  8
1
  6
CONTINUOUS
 62
     7
 10
791.8794600215766
 20
229.3082960901242
 30
0.0
 11
791.8794600215766
 21
225.8082960901242
 31
0.0
  0
LINE
  5
A6
  8
1
  6
CONTINUOUS
 62
     7
 10
607.6
 20
164.3830845193186
 30
0.0
 11
607.6
 21
167.5257823219904
 31
0.0
  0
LINE
  5
A7
  8
1
  6
CONTINUOUS
 62
     7
 10
675.3029390496492
 20
140.5067777237383
 30
0.0
 11
665.1568993389127
 21
130.1376329756634
 31
0.0
  0
LINE
  5
A8
  8
1
  6
CONTINUOUS
 62
     7
 10
688.8139575517292
 20
141.4695084638626
 30
0.0
 11
689.5275497847391
 21
138.0430254090398
 31
0.0
  0
LINE
  5
A9
  8
1
  6
CONTINUOUS
 62
     7
 10
711.1860424482709
 20
141.4695084638626
 30
0.0
 11
710.472450215261
 21
138.0430254090398
 31
0.0
  0
LINE
  5
AA
  8
1
  6
CONTINUOUS
 62
     7
 10
608.1999999999999
 20
156.3921867325276
 30
0.0
 11
608.1999999999999
 21
167.7439481390654
 31
0.0
  0
LINE
  5
AB
  8
1
  6
CONTINUOUS
 62
     7
 10
602.4
 20
167.5257823219904
 30
0.0
 11
602.4
 21
164.3830845193186
 31
0.0
  0
LINE
  5
AC
  8
1
  6
CONTINUOUS
 62
     7
 10
674.8768501791235
 20
163.4073038909778
 30
0.0
 11
689.8147168199437
 21
175.9416622798652
 31
0.0
  0
LINE
  5
AD
  8
1
  6
CONTINUOUS
 62
     7
 10
788.4386089055505
 20
320.0000000000001
 30
0.0
 11
490.379460021576
 21
320.0000000000001
 31
0.0
  0
LINE
  5
AE
  8
1
  6
CONTINUOUS
 62
     7
 10
493.6848673109083
 20
297.9
 30
0.0
 11
787.0740527322437
 21
297.9
 31
0.0
  0
LINE
  5
AF
  8
1
  6
CONTINUOUS
 62
     7
 10
814.6943196311429
 20
242.4080771344158
 30
0.0
 11
817.1253941184801
 21
256.1953856765867
 31
0.0
  0
LINE
  5
B0
  8
1
  6
CONTINUOUS
 62
     7
 10
747.7100475724668
 20
230.8082960901238
 30
0.0
 11
783.3794600215763
 21
230.8082960901238
 31
0.0
  0
LINE
  5
B1
  8
1
  6
CONTINUOUS
 62
     7
 10
490.6848673109083
 20
293.0000000000001
 30
0.0
 11
466.1054539707625
 21
293.0000000000001
 31
0.0
  0
LINE
  5
B2
  8
1
  6
CONTINUOUS
 62
     7
 10
490.6848673109083
 20
327.0000000000001
 30
0.0
 11
466.1054539707625
 21
327.0000000000001
 31
0.0
  0
ARC
  5
B3
  8
1
  6
CONTINUOUS
 62
     7
 10
699.7120614758429
 20
87.75706159785584
 30
0.0
 40
55.14999999999995
 50
7.995100954968394
 51
44.37692623972197
  0
ARC
  5
B4
  8
1
  6
CONTINUOUS
 62
     7
 10
700.0
 20
87.75706159785582
 30
0.0
 40
51.36487486532815
 50
101.7641477259924
 51
78.23585227400758
  0
ARC
  5
B5
  8
1
  6
CONTINUOUS
 62
     7
 10
700.0
 20
87.75706159785582
 30
0.0
 40
54.8648748653282
 50
101.7641477259924
 51
78.23585227400764
  0
INSERT
  5
141
  8
1
  6
CONTINUOUS
 62
     7
  2
D_FRAME_VIEW_1474
 10
0.0
 20
0.0
 30
0.0
  0
INSERT
  5
18A
  8
1
  6
CONTINUOUS
 62
     7
  2
D_FRAME_VIEW_1935
 10
0.0
 20
0.0
 30
0.0
  0
POINT
  5
18B
  8
1
 62
     7
 10
605.0
 20
160.0
 30
0.0
  0
POINT
  5
18C
  8
1
 62
     1
 10
655.0
 20
310.0000000000001
 30
0.0
  0
POINT
  5
18D
  8
1
 62
     1
 10
600.0
 20
180.0
 30
0.0
  0
POINT
  5
18E
  8
1
 62
     1
 10
665.0
 20
185.0000000000001
 30
0.0
  0
POINT
  5
18F
  8
1
 62
     7
 10
600.0
 20
175.0
 30
0.0
  0
INSERT
  5
1E8
  8
1
  6
CONTINUOUS
 62
     7
  2
D_FRAME_VIEW_2185
 10
0.0
 20
0.0
 30
0.0
  0
INSERT
  5
25D
  8
1
  6
CONTINUOUS
 62
     7
  2
D_FRAME_VIEW_1933
 10
0.0
 20
0.0
 30
0.0
  0
TEXT
  5
25E
  8
1
  6
CONTINUOUS
 62
     7
 10
650.345379517319
 20
204.1606352382143
 30
0.0
 40
8.0
  1
YHF-80
  0
ENDSEC
  0
EOF
