  0
SECTION
  2
HEADER
  9
$ACADVER
  1
AC1006
  9
$DWGCODEPAGE
  3
ansi_932
  9
$INSBASE
 10
0.0
 20
0.0
 30
0.0
  9
$EXTMIN
 10
0.0
 20
0.0
  9
$EXTMAX
 10
868.9154905622382
 20
327.0000000000001
  9
$LIMMIN
 10
0.0
 20
0.0
  9
$LIMMAX
 10
12.0
 20
9.0
  9
$ORTHOMODE
 70
     0
  9
$REGENMODE
 70
     1
  9
$FILLMODE
 70
     1
  9
$QTEXTMODE
 70
     0
  9
$MIRRTEXT
 70
     1
  9
$DRAGMODE
 70
     2
  9
$LTSCALE
 40
1.0
  9
$OSMODE
 70
    37
  9
$ATTMODE
 70
     1
  9
$TEXTSIZE
 40
0.2
  9
$TRACEWID
 40
0.05
  9
$TEXTSTYLE
  7
STANDARD
  9
$CLAYER
  8
0
  9
$CELTYPE
  6
BYLAYER
  9
$CECOLOR
 62
   256
  9
$DIMSCALE
 40
1.0
  9
$DIMASZ
 40
3.0
  9
$DIMEXO
 40
0.0625
  9
$DIMDLI
 40
0.38
  9
$DIMRND
 40
0.0
  9
$DIMDLE
 40
0.0
  9
$DIMEXE
 40
1.5
  9
$DIMTP
 40
0.0
  9
$DIMTM
 40
0.0
  9
$DIMTXT
 40
3.0
  9
$DIMCEN
 40
0.09
  9
$DIMTSZ
 40
0.0
  9
$DIMTOL
 70
     0
  9
$DIMLIM
 70
     0
  9
$DIMTIH
 70
     1
  9
$DIMTOH
 70
     1
  9
$DIMSE1
 70
     0
  9
$DIMSE2
 70
     0
  9
$DIMTAD
 70
     1
  9
$DIMZIN
 70
     0
  9
$DIMBLK
  1

  9
$DIMASO
 70
     1
  9
$DIMSHO
 70
     1
  9
$DIMPOST
  1

  9
$DIMAPOST
  1

  9
$DIMALT
 70
     0
  9
$DIMALTD
 70
     2
  9
$DIMALTF
 40
25.4
  9
$DIMLFAC
 40
1.0
  9
$DIMTOFL
 70
     0
  9
$DIMTVP
 40
0.0
  9
$DIMTIX
 70
     0
  9
$DIMSOXD
 70
     0
  9
$DIMSAH
 70
     0
  9
$DIMBLK1
  1

  9
$DIMBLK2
  1

  9
$LUNITS
 70
     2
  9
$LUPREC
 70
     4
  9
$SKETCHINC
 40
0.1
  9
$FILLETRAD
 40
0.5
  9
$AUNITS
 70
     0
  9
$AUPREC
 70
     0
  9
$MENU
  1
.
  9
$ELEVATION
 40
0.0
  9
$THICKNESS
 40
0.0
  9
$LIMCHECK
 70
     0
  9
$CHAMFERA
 40
0.0
  9
$CHAMFERB
 40
0.0
  9
$SKPOLY
 70
     0
  9
$TDCREATE
 40
2460455.755760637
  9
$TDUPDATE
 40
2460455.755760949
  9
$TDINDWG
 40
0.0000000116
  9
$TDUSRTIMER
 40
0.0000000116
  9
$USRTIMER
 70
     1
  9
$ANGBASE
 50
0.0
  9
$ANGDIR
 70
     0
  9
$PDMODE
 70
     0
  9
$PDSIZE
 40
0.0
  9
$PLINEWID
 40
0.0
  9
$COORDS
 70
     1
  9
$SPLFRAME
 70
     0
  9
$SPLINETYPE
 70
     6
  9
$SPLINESEGS
 70
     8
  9
$ATTDIA
 70
     0
  9
$ATTREQ
 70
     1
  9
$HANDLING
 70
     1
  9
$HANDSEED
  5
573
  9
$SURFTAB1
 70
     6
  9
$SURFTAB2
 70
     6
  9
$SURFTYPE
 70
     6
  9
$SURFU
 70
     6
  9
$SURFV
 70
     6
  9
$UCSNAME
  2

  9
$UCSORG
 10
0.0
 20
0.0
 30
0.0
  9
$UCSXDIR
 10
1.0
 20
0.0
 30
0.0
  9
$UCSYDIR
 10
0.0
 20
1.0
 30
0.0
  9
$USERI1
 70
     0
  9
$USERI2
 70
     0
  9
$USERI3
 70
     0
  9
$USERI4
 70
     0
  9
$USERI5
 70
     0
  9
$USERR1
 40
0.0
  9
$USERR2
 40
0.0
  9
$USERR3
 40
0.0
  9
$USERR4
 40
0.0
  9
$USERR5
 40
0.0
  9
$WORLDVIEW
 70
     1
  0
ENDSEC
  0
SECTION
  2
TABLES
  0
TABLE
  2
VPORT
 70
     1
  0
VPORT
  2
*ACTIVE
 70
     0
 10
0.0
 20
0.0
 11
1.0
 21
1.0
 12
434.4577452811191
 22
163.5
 13
0.0
 23
0.0
 14
0.5
 24
0.5
 15
0.5
 25
0.5
 16
0.0
 26
0.0
 36
1.0
 17
0.0
 27
0.0
 37
0.0
 40
327.0000000000001
 41
1.6
 42
50.0
 43
0.0
 44
0.0
 50
0.0
 51
0.0
 71
     0
 72
   100
 73
     1
 74
     3
 75
     0
 76
     0
 77
     0
 78
     0
  0
ENDTAB
  0
TABLE
  2
LTYPE
 70
     2
  0
LTYPE
  2
CONTINUOUS
 70
     0
  3
Solid line
 72
    65
 73
     0
 40
0.0
  0
LTYPE
  2
CENTER
 70
     0
  3

 72
    65
 73
     0
 40
0.0
  0
ENDTAB
  0
TABLE
  2
LAYER
 70
     2
  0
LAYER
  2
0
 70
     0
 62
     7
  6
CONTINUOUS
  0
LAYER
  2
1
 70
     0
 62
     7
  6
CONTINUOUS
  0
ENDTAB
  0
TABLE
  2
STYLE
 70
     2
  0
STYLE
  2
STANDARD
 70
     0
 40
0.0
 41
1.0
 50
0.0
 71
     0
 42
0.2
  3
txt
  4

  0
STYLE
  2
ＭＳ_ゴシック
 70
     0
 40
0.0
 41
1.0
 50
0.0
 71
     0
 42
0.2
  3
ＭＳ ゴシック.shx
  4

  0
ENDTAB
  0
TABLE
  2
VIEW
 70
     0
  0
ENDTAB
  0
TABLE
  2
UCS
 70
     0
  0
ENDTAB
  0
ENDSEC
  0
SECTION
  2
BLOCKS
  0
BLOCK
  8
0
  2
D_FRAME_VIEW_1474
 70
     0
 10
0.0
 20
0.0
 30
0.0
  0
LINE
  5
76
  8
1
  6
CONTINUOUS
 62
     7
 10
804.8794600215764
 20
230.8082960901238
 30
0.0
 11
804.8794600215764
 21
231.2082960901238
 31
0.0
  0
LINE
  5
77
  8
1
  6
CONTINUOUS
 62
     7
 10
475.8794600215759
 20
230.8082960901238
 30
0.0
 11
475.8794600215759
 21
231.2082960901238
 31
0.0
  0
ARC
  5
78
  8
1
  6
CONTINUOUS
 62
     7
 10
810.1292332920945
 20
247.4082960901238
 30
0.0
 40
18.10000000000009
 50
260.0000000000016
 51
269.9999999999998
  0
ARC
  5
79
  8
1
  6
CONTINUOUS
 62
     7
 10
800.9584049314399
 20
208.4082960901239
 30
0.0
 40
21.89999999999999
 50
80.00000000000004
 51
89.99999999999973
  0
LINE
  5
7A
  8
1
  6
CONTINUOUS
 62
     7
 10
806.9862012763236
 20
229.5832757606033
 30
0.0
 11
804.7613000223457
 21
229.9755858810912
 31
0.0
  0
ARC
  5
7B
  8
1
  6
CONTINUOUS
 62
     7
 10
764.4584049314398
 20
209.4082960901239
 30
0.0
 40
21.89999999999999
 50
79.99999999999997
 51
90.00000000000001
  0
ARC
  5
7C
  8
1
  6
CONTINUOUS
 62
     7
 10
773.6292332920946
 20
248.4082960901238
 30
0.0
 40
18.1
 50
260.0000000000003
 51
270.0
  0
LINE
  5
7D
  8
1
  6
CONTINUOUS
 62
     7
 10
770.4862012763232
 20
230.583275760603
 30
0.0
 11
768.2613000223456
 21
230.9755858810912
 31
0.0
  0
LINE
  5
7E
  8
1
  6
CONTINUOUS
 62
     7
 10
800.95840493144
 20
230.3082960901239
 30
0.0
 11
773.6292332920946
 21
230.3082960901238
 31
0.0
  0
LINE
  5
7F
  8
1
  6
CONTINUOUS
 62
     7
 10
813.3794600215766
 20
229.3082960901242
 30
0.0
 11
810.1292332920945
 21
229.3082960901237
 31
0.0
  0
ARC
  5
80
  8
1
  6
CONTINUOUS
 62
     7
 10
470.6296867510575
 20
247.4082960901238
 30
0.0
 40
18.10000000000009
 50
270.0000000000002
 51
279.9999999999986
  0
LINE
  5
81
  8
1
  6
CONTINUOUS
 62
     7
 10
473.7727187668285
 20
229.5832757606033
 30
0.0
 11
475.9976200208065
 21
229.9755858810912
 31
0.0
  0
ARC
  5
82
  8
1
  6
CONTINUOUS
 62
     7
 10
479.8005151117122
 20
208.4082960901239
 30
0.0
 40
21.89999999999998
 50
90.00000000000034
 51
99.99999999999994
  0
ARC
  5
83
  8
1
  6
CONTINUOUS
 62
     7
 10
507.1296867510576
 20
248.4082960901238
 30
0.0
 40
18.1
 50
270.0
 51
279.9999999999998
  0
LINE
  5
84
  8
1
  6
CONTINUOUS
 62
     7
 10
510.2727187668289
 20
230.583275760603
 30
0.0
 11
512.4976200208065
 21
230.9755858810912
 31
0.0
  0
ARC
  5
85
  8
1
  6
CONTINUOUS
 62
     7
 10
516.3005151117122
 20
209.4082960901239
 30
0.0
 40
21.89999999999999
 50
90.0
 51
100.0
  0
LINE
  5
86
  8
1
  6
CONTINUOUS
 62
     7
 10
479.8005151117121
 20
230.3082960901239
 30
0.0
 11
507.1296867510576
 21
230.3082960901238
 31
0.0
  0
LINE
  5
87
  8
1
  6
CONTINUOUS
 62
     7
 10
467.3794600215755
 20
229.3082960901242
 30
0.0
 11
470.6296867510576
 21
229.3082960901237
 31
0.0
  0
LINE
  5
88
  8
1
  6
CONTINUOUS
 62
     7
 10
777.379460021576
 20
232.1082960901238
 30
0.0
 11
784.379460021576
 21
232.1082960901238
 31
0.0
  0
LINE
  5
89
  8
1
  6
CONTINUOUS
 62
     7
 10
792.379460021576
 20
232.1082960901238
 30
0.0
 11
799.379460021576
 21
232.1082960901238
 31
0.0
  0
LINE
  5
8A
  8
1
  6
CONTINUOUS
 62
     7
 10
771.879460021576
 20
230.4082960901238
 30
0.0
 11
771.879460021576
 21
230.8082960901238
 31
0.0
  0
LINE
  5
8B
  8
1
  6
CONTINUOUS
 62
     7
 10
771.879460021576
 20
231.6082960901238
 30
0.0
 11
771.879460021576
 21
231.2082960901238
 31
0.0
  0
ARC
  5
8C
  8
1
  6
CONTINUOUS
 62
     7
 10
808.379460021576
 20
232.3082960901238
 30
0.0
 40
1.400000000000012
 50
90.0
 51
135.572995999194
  0
LINE
  5
8D
  8
1
  6
CONTINUOUS
 62
     7
 10
808.379460021576
 20
233.3082960901238
 30
0.0
 11
811.879460021576
 21
233.3082960901238
 31
0.0
  0
ARC
  5
8E
  8
1
  6
CONTINUOUS
 62
     7
 10
803.3804601215961
 20
224.8082960901238
 30
0.0
 40
6.000000000000005
 50
52.63552651220527
 51
90.0
  0
ARC
  5
8F
  8
1
  6
CONTINUOUS
 62
     7
 10
811.879460021576
 20
229.7082960901238
 30
0.0
 40
1.400000000000068
 50
343.3984504009968
 51
0.0
  0
ARC
  5
90
  8
1
  6
CONTINUOUS
 62
     7
 10
811.879460021576
 20
229.7082960901238
 30
0.0
 40
1.000000000000044
 50
336.4218215218223
 51
0.0
  0
ARC
  5
91
  8
1
  6
CONTINUOUS
 62
     7
 10
811.879460021576
 20
232.3082960901238
 30
0.0
 40
1.40000000000005
 50
31.87191672161674
 51
90.0
  0
ARC
  5
92
  8
1
  6
CONTINUOUS
 62
     7
 10
803.3804601215961
 20
224.8082960901238
 30
0.0
 40
5.599999999999991
 50
62.08797745975784
 51
90.00000000000001
  0
LINE
  5
93
  8
1
  6
CONTINUOUS
 62
     7
 10
811.879460021576
 20
233.7082960901238
 30
0.0
 11
808.379460021576
 21
233.7082960901238
 31
0.0
  0
ARC
  5
94
  8
1
  6
CONTINUOUS
 62
     7
 10
803.3804601215961
 20
237.2082960901238
 30
0.0
 40
5.599999999999998
 50
270.0
 51
315.5729959991943
  0
ARC
  5
95
  8
1
  6
CONTINUOUS
 62
     7
 10
808.379460021576
 20
232.3082960901238
 30
0.0
 40
1.000000000000006
 50
90.0
 51
135.5729959991953
  0
ARC
  5
96
  8
1
  6
CONTINUOUS
 62
     7
 10
803.3804601215961
 20
237.2082960901238
 30
0.0
 40
6.000000000000005
 50
270.0
 51
315.5729959991941
  0
LINE
  5
97
  8
1
  6
CONTINUOUS
 62
     7
 10
813.2794600215761
 20
229.7082960901238
 30
0.0
 11
813.2794600215761
 21
229.8475271021726
 31
0.0
  0
ARC
  5
98
  8
1
  6
CONTINUOUS
 62
     7
 10
811.879460021576
 20
232.3082960901238
 30
0.0
 40
1.000000000000001
 50
47.66595073467459
 51
90.0
  0
LINE
  5
99
  8
1
  6
CONTINUOUS
 62
     7
 10
812.879460021576
 20
229.8475271021726
 30
0.0
 11
812.879460021576
 21
229.7082960901238
 31
0.0
  0
LINE
  5
9A
  8
1
  6
CONTINUOUS
 62
     7
 10
503.3794600215761
 20
232.1082960901238
 30
0.0
 11
496.3794600215761
 21
232.1082960901238
 31
0.0
  0
LINE
  5
9B
  8
1
  6
CONTINUOUS
 62
     7
 10
488.3794600215761
 20
232.1082960901238
 30
0.0
 11
481.3794600215761
 21
232.1082960901238
 31
0.0
  0
LINE
  5
9C
  8
1
  6
CONTINUOUS
 62
     7
 10
508.879460021576
 20
231.6082960901238
 30
0.0
 11
508.879460021576
 21
231.2082960901238
 31
0.0
  0
LINE
  5
9D
  8
1
  6
CONTINUOUS
 62
     7
 10
472.3794600215761
 20
233.3082960901238
 30
0.0
 11
468.8794600215761
 21
233.3082960901238
 31
0.0
  0
ARC
  5
9E
  8
1
  6
CONTINUOUS
 62
     7
 10
468.8794600215761
 20
232.3082960901238
 30
0.0
 40
1.000000000000001
 50
90.0
 51
132.3340492653249
  0
ARC
  5
9F
  8
1
  6
CONTINUOUS
 62
     7
 10
477.378459921556
 20
224.8082960901238
 30
0.0
 40
5.599999999999991
 50
90.0
 51
117.9120225402422
  0
LINE
  5
A0
  8
1
  6
CONTINUOUS
 62
     7
 10
467.479460021576
 20
229.7082960901238
 30
0.0
 11
467.479460021576
 21
229.8475271021727
 31
0.0
  0
ARC
  5
A1
  8
1
  6
CONTINUOUS
 62
     7
 10
468.8794600215761
 20
232.3082960901238
 30
0.0
 40
1.400000000000003
 50
90.0
 51
148.1280832783822
  0
ARC
  5
A2
  8
1
  6
CONTINUOUS
 62
     7
 10
468.8794600215761
 20
229.7082960901238
 30
0.0
 40
0.9999999999999931
 50
180.0
 51
203.5781784781777
  0
ARC
  5
A3
  8
1
  6
CONTINUOUS
 62
     7
 10
472.3794600215761
 20
232.3082960901238
 30
0.0
 40
1.000000000000026
 50
44.42700400080587
 51
90.00000000000001
  0
LINE
  5
A4
  8
1
  6
CONTINUOUS
 62
     7
 10
467.8794600215761
 20
229.8475271021727
 30
0.0
 11
467.8794600215761
 21
229.7082960901238
 31
0.0
  0
ARC
  5
A5
  8
1
  6
CONTINUOUS
 62
     7
 10
477.378459921556
 20
237.2082960901238
 30
0.0
 40
5.599999999999998
 50
224.4270040008057
 51
270.0
  0
LINE
  5
A6
  8
1
  6
CONTINUOUS
 62
     7
 10
468.8794600215761
 20
233.7082960901238
 30
0.0
 11
472.3794600215761
 21
233.7082960901238
 31
0.0
  0
ARC
  5
A7
  8
1
  6
CONTINUOUS
 62
     7
 10
472.3794600215761
 20
232.3082960901238
 30
0.0
 40
1.400000000000012
 50
44.42700400080599
 51
90.0
  0
ARC
  5
A8
  8
1
  6
CONTINUOUS
 62
     7
 10
477.378459921556
 20
224.8082960901238
 30
0.0
 40
6.000000000000005
 50
90.0
 51
127.3644734872805
  0
ARC
  5
A9
  8
1
  6
CONTINUOUS
 62
     7
 10
477.378459921556
 20
237.2082960901238
 30
0.0
 40
6.000000000000005
 50
224.4270040008057
 51
270.0
  0
ARC
  5
AA
  8
1
  6
CONTINUOUS
 62
     7
 10
468.8794600215761
 20
229.7082960901238
 30
0.0
 40
1.400000000000012
 50
180.0
 51
196.6015495990034
  0
LINE
  5
AB
  8
1
  6
CONTINUOUS
 62
     7
 10
508.879460021576
 20
230.4082960901238
 30
0.0
 11
508.879460021576
 21
230.8082960901238
 31
0.0
  0
LINE
  5
AC
  8
1
  6
CONTINUOUS
 62
     7
 10
843.6756274258574
 20
251.1281911409961
 30
0.0
 11
839.191386064329
 21
251.9188838810424
 31
0.0
  0
ARC
  5
AD
  8
1
  6
CONTINUOUS
 62
     7
 10
833.6574412819157
 20
249.8782270437528
 30
0.0
 40
10.09586370049954
 50
350.4759411721641
 51
7.112012601830713
  0
ARC
  5
AE
  8
1
  6
CONTINUOUS
 62
     7
 10
833.3761420755613
 20
250.1490451118179
 30
0.0
 40
10.42042962247372
 50
333.1488196457549
 51
349.2632265802515
  0
LINE
  5
AF
  8
1
  6
CONTINUOUS
 62
     7
 10
842.6730692046546
 20
245.4424009279798
 30
0.0
 11
838.1888278431261
 21
246.2330936680261
 31
0.0
  0
LINE
  5
B0
  8
1
  6
CONTINUOUS
 62
     7
 10
844.1769065364589
 20
253.9710862475042
 30
0.0
 11
839.6926651749303
 21
254.7617789875505
 31
0.0
  0
ARC
  5
B1
  8
1
  6
CONTINUOUS
 62
     7
 10
841.6110000101663
 20
252.8858624820199
 30
0.0
 40
2.785962476926599
 50
351.4588154626409
 51
22.92543200540109
  0
ARC
  5
B2
  8
1
  6
CONTINUOUS
 62
     7
 10
841.5415527739851
 20
253.0738936283215
 30
0.0
 40
2.887911492575323
 50
317.6435929533586
 51
347.972159578597
  0
ARC
  5
B3
  8
1
  6
CONTINUOUS
 62
     7
 10
840.1071626783616
 20
244.3571771624954
 30
0.0
 40
2.785962476926823
 50
351.4588154626409
 51
22.92543200539984
  0
ARC
  5
B4
  8
1
  6
CONTINUOUS
 62
     7
 10
840.0377154421809
 20
244.545208308797
 30
0.0
 40
2.887911492575065
 50
317.6435929533577
 51
347.9721595785983
  0
LINE
  5
B5
  8
1
  6
CONTINUOUS
 62
     7
 10
842.1717900940531
 20
242.5995058214716
 30
0.0
 11
837.6875487325245
 21
243.3901985615179
 31
0.0
  0
LINE
  5
B6
  8
1
  6
CONTINUOUS
 62
     7
 10
814.1641841916631
 20
256.7979216925254
 30
0.0
 11
826.2885398446452
 21
263.7979216925254
 31
0.0
  0
LINE
  5
B7
  8
1
  6
CONTINUOUS
 62
     7
 10
814.4141841916633
 20
256.3649089906331
 30
0.0
 11
826.5385398446452
 21
263.3649089906331
 31
0.0
  0
LINE
  5
B8
  8
1
  6
CONTINUOUS
 62
     7
 10
865.9154905622383
 20
247.4227624736466
 30
0.0
 11
864.8736014962366
 21
241.5139159555734
 31
0.0
  0
LINE
  5
B9
  8
1
  6
CONTINUOUS
 62
     7
 10
817.9518429653159
 20
258.2375042548247
 30
0.0
 11
817.8782858068008
 21
258.3649089906331
 31
0.0
  0
LINE
  5
BA
  8
1
  6
CONTINUOUS
 62
     7
 10
823.0744382295076
 20
261.3649089906331
 30
0.0
 11
823.1479953880227
 21
261.2375042548247
 31
0.0
  0
ARC
  5
BB
  8
1
  6
CONTINUOUS
 62
     7
 10
452.1848673109083
 20
233.0475271021727
 30
0.0
 40
3.199999999999989
 50
189.9999999999998
 51
269.9999999999999
  0
LINE
  5
BC
  8
1
  6
CONTINUOUS
 62
     7
 10
444.0845094377618
 20
260.5588738944864
 30
0.0
 11
447.2358942474008
 21
261.1145480630206
 31
0.0
  0
LINE
  5
BD
  8
1
  6
CONTINUOUS
 62
     7
 10
472.1848673109084
 20
233.0475271021727
 30
0.0
 11
472.1848673109084
 21
229.8475271021727
 31
0.0
  0
LINE
  5
BE
  8
1
  6
CONTINUOUS
 62
     7
 10
811.5386089055505
 20
250.8397801212295
 30
0.0
 11
809.9386089055506
 21
253.6110614133398
 31
0.0
  0
LINE
  5
BF
  8
1
  6
CONTINUOUS
 62
     7
 10
832.8805275383837
 20
257.4707593768754
 30
0.0
 11
828.5740527322438
 21
233.0475271021727
 31
0.0
  0
ARC
  5
C0
  8
1
  6
CONTINUOUS
 62
     7
 10
829.926104279347
 20
257.9917039098763
 30
0.0
 40
2.999999999999984
 50
350.0000000000011
 51
119.999999999999
  0
ARC
  5
C1
  8
1
  6
CONTINUOUS
 62
     7
 10
829.926104279347
 20
257.9917039098763
 30
0.0
 40
6.199999999999977
 50
350.0000000000001
 51
119.9999999999994
  0
LINE
  5
C2
  8
1
  6
CONTINUOUS
 62
     7
 10
831.7254375418829
 20
232.4918529336385
 30
0.0
 11
836.0319123480227
 21
256.9150852083413
 31
0.0
  0
ARC
  5
C3
  8
1
  6
CONTINUOUS
 62
     7
 10
828.5740527322438
 20
233.0475271021727
 30
0.0
 40
3.200000000000008
 50
270.0
 51
349.9999999999999
  0
LINE
  5
C4
  8
1
  6
CONTINUOUS
 62
     7
 10
808.5740527322438
 20
229.8475271021727
 30
0.0
 11
808.5740527322438
 21
233.0475271021727
 31
0.0
  0
LINE
  5
C5
  8
1
  6
CONTINUOUS
 62
     7
 10
836.2414922805724
 20
249.4655163448517
 30
0.0
 11
835.7205477475717
 21
246.5110930858151
 31
0.0
  0
LINE
  5
C6
  8
1
  6
CONTINUOUS
 62
     7
 10
804.153531400512
 20
226.5287587455488
 30
0.0
 11
806.378432654489
 21
226.1364486250606
 31
0.0
  0
ARC
  5
C7
  8
1
  6
CONTINUOUS
 62
     7
 10
810.1292332920945
 20
247.4082960901238
 30
0.0
 40
21.60000000000008
 50
260.0000000000012
 51
269.9999999999998
  0
LINE
  5
C8
  8
1
  6
CONTINUOUS
 62
     7
 10
810.1292332920951
 20
225.8082960901242
 30
0.0
 11
813.3794600215766
 21
225.8082960901242
 31
0.0
  0
LINE
  5
C9
  8
1
  6
CONTINUOUS
 62
     7
 10
773.6292332920948
 20
226.8082960901239
 30
0.0
 11
800.9584049314399
 21
226.8082960901239
 31
0.0
  0
ARC
  5
CA
  8
1
  6
CONTINUOUS
 62
     7
 10
800.9584049314399
 20
208.4082960901239
 30
0.0
 40
18.39999999999997
 50
80.0
 51
89.99999999999966
  0
LINE
  5
CB
  8
1
  6
CONTINUOUS
 62
     7
 10
767.6535314005115
 20
227.5287587455486
 30
0.0
 11
769.8784326544888
 21
227.1364486250603
 31
0.0
  0
ARC
  5
CC
  8
1
  6
CONTINUOUS
 62
     7
 10
773.6292332920946
 20
248.4082960901238
 30
0.0
 40
21.6
 50
260.0000000000003
 51
270.0
  0
ARC
  5
CD
  8
1
  6
CONTINUOUS
 62
     7
 10
764.4584049314398
 20
209.4082960901239
 30
0.0
 40
18.39999999999997
 50
80.00000000000004
 51
90.0
  0
ARC
  5
CE
  8
1
  6
CONTINUOUS
 62
     7
 10
470.6296867510575
 20
247.4082960901238
 30
0.0
 40
21.60000000000006
 50
270.0000000000001
 51
279.9999999999987
  0
LINE
  5
CF
  8
1
  6
CONTINUOUS
 62
     7
 10
474.3804873886632
 20
226.1364486250606
 30
0.0
 11
476.6053886426401
 21
226.5287587455488
 31
0.0
  0
LINE
  5
D0
  8
1
  6
CONTINUOUS
 62
     7
 10
467.3794600215754
 20
225.8082960901242
 30
0.0
 11
470.6296867510569
 21
225.8082960901242
 31
0.0
  0
LINE
  5
D1
  8
1
  6
CONTINUOUS
 62
     7
 10
479.8005151117122
 20
226.8082960901239
 30
0.0
 11
507.1296867510574
 21
226.8082960901239
 31
0.0
  0
ARC
  5
D2
  8
1
  6
CONTINUOUS
 62
     7
 10
479.8005151117122
 20
208.4082960901239
 30
0.0
 40
18.39999999999998
 50
90.0000000000004
 51
100.0000000000001
  0
ARC
  5
D3
  8
1
  6
CONTINUOUS
 62
     7
 10
507.1296867510576
 20
248.4082960901238
 30
0.0
 40
21.60000000000001
 50
270.0
 51
279.9999999999997
  0
LINE
  5
D4
  8
1
  6
CONTINUOUS
 62
     7
 10
510.8804873886633
 20
227.1364486250603
 30
0.0
 11
513.1053886426406
 21
227.5287587455486
 31
0.0
  0
ARC
  5
D5
  8
1
  6
CONTINUOUS
 62
     7
 10
516.3005151117122
 20
209.4082960901239
 30
0.0
 40
18.39999999999997
 50
90.0
 51
100.0
  0
ARC
  5
D6
  8
1
  6
CONTINUOUS
 62
     7
 10
780.879460021576
 20
228.7749627567904
 30
0.0
 40
4.833333333333409
 50
43.60281897270401
 51
136.397181027296
  0
LINE
  5
D7
  8
1
  6
CONTINUOUS
 62
     7
 10
784.379460021576
 20
231.6082960901238
 30
0.0
 11
784.379460021576
 21
232.1082960901238
 31
0.0
  0
LINE
  5
D8
  8
1
  6
CONTINUOUS
 62
     7
 10
777.379460021576
 20
232.1082960901238
 30
0.0
 11
777.379460021576
 21
231.6082960901238
 31
0.0
  0
LINE
  5
D9
  8
1
  6
CONTINUOUS
 62
     7
 10
783.879460021576
 20
230.3082960901239
 30
0.0
 11
783.879460021576
 21
230.4082960901238
 31
0.0
  0
LINE
  5
DA
  8
1
  6
CONTINUOUS
 62
     7
 10
777.879460021576
 20
230.4082960901238
 30
0.0
 11
777.879460021576
 21
230.3082960901239
 31
0.0
  0
LINE
  5
DB
  8
1
  6
CONTINUOUS
 62
     7
 10
799.379460021576
 20
231.6082960901238
 30
0.0
 11
799.379460021576
 21
232.1082960901238
 31
0.0
  0
LINE
  5
DC
  8
1
  6
CONTINUOUS
 62
     7
 10
792.379460021576
 20
232.1082960901238
 30
0.0
 11
792.379460021576
 21
231.6082960901238
 31
0.0
  0
ARC
  5
DD
  8
1
  6
CONTINUOUS
 62
     7
 10
795.879460021576
 20
228.7749627567904
 30
0.0
 40
4.833333333333409
 50
43.60281897270401
 51
136.397181027296
  0
LINE
  5
DE
  8
1
  6
CONTINUOUS
 62
     7
 10
798.879460021576
 20
230.3082960901238
 30
0.0
 11
798.879460021576
 21
230.4082960901238
 31
0.0
  0
LINE
  5
DF
  8
1
  6
CONTINUOUS
 62
     7
 10
792.879460021576
 20
230.4082960901238
 30
0.0
 11
792.879460021576
 21
230.3082960901238
 31
0.0
  0
ARC
  5
E0
  8
1
  6
CONTINUOUS
 62
     7
 10
499.8794600215761
 20
228.7749627567904
 30
0.0
 40
4.833333333333369
 50
43.60281897270414
 51
136.3971810272959
  0
LINE
  5
E1
  8
1
  6
CONTINUOUS
 62
     7
 10
503.3794600215761
 20
231.6082960901238
 30
0.0
 11
503.3794600215761
 21
232.1082960901238
 31
0.0
  0
LINE
  5
E2
  8
1
  6
CONTINUOUS
 62
     7
 10
496.3794600215761
 20
232.1082960901238
 30
0.0
 11
496.3794600215761
 21
231.6082960901238
 31
0.0
  0
LINE
  5
E3
  8
1
  6
CONTINUOUS
 62
     7
 10
502.879460021576
 20
230.3082960901239
 30
0.0
 11
502.879460021576
 21
230.4082960901238
 31
0.0
  0
LINE
  5
E4
  8
1
  6
CONTINUOUS
 62
     7
 10
496.8794600215761
 20
230.4082960901238
 30
0.0
 11
496.8794600215761
 21
230.3082960901239
 31
0.0
  0
ARC
  5
E5
  8
1
  6
CONTINUOUS
 62
     7
 10
484.8794600215761
 20
228.7749627567904
 30
0.0
 40
4.833333333333369
 50
43.60281897270401
 51
136.397181027296
  0
LINE
  5
E6
  8
1
  6
CONTINUOUS
 62
     7
 10
488.3794600215761
 20
231.6082960901238
 30
0.0
 11
488.3794600215761
 21
232.1082960901238
 31
0.0
  0
LINE
  5
E7
  8
1
  6
CONTINUOUS
 62
     7
 10
481.3794600215761
 20
232.1082960901238
 30
0.0
 11
481.3794600215761
 21
231.6082960901238
 31
0.0
  0
LINE
  5
E8
  8
1
  6
CONTINUOUS
 62
     7
 10
487.8794600215761
 20
230.3082960901238
 30
0.0
 11
487.8794600215761
 21
230.4082960901238
 31
0.0
  0
LINE
  5
E9
  8
1
  6
CONTINUOUS
 62
     7
 10
481.8794600215761
 20
230.4082960901238
 30
0.0
 11
481.8794600215761
 21
230.3082960901238
 31
0.0
  0
LINE
  5
EA
  8
1
  6
CONTINUOUS
 62
     7
 10
836.1943196311431
 20
242.4080771344158
 30
0.0
 11
837.474569710059
 21
242.1823345034488
 31
0.0
  0
LINE
  5
EB
  8
1
  6
CONTINUOUS
 62
     7
 10
839.905644197396
 20
255.9696430456197
 30
0.0
 11
838.6253941184801
 21
256.1953856765867
 31
0.0
  0
LINE
  5
EC
  8
1
  6
CONTINUOUS
 62
     7
 10
842.1717900940531
 20
242.5995058214716
 30
0.0
 11
842.7459048304539
 21
243.2837091211386
 31
0.0
  0
LINE
  5
ED
  8
1
  6
CONTINUOUS
 62
     7
 10
844.4823866071231
 20
253.1317866512605
 30
0.0
 11
844.1769065364588
 21
253.9710862475042
 31
0.0
  0
LINE
  5
EE
  8
1
  6
CONTINUOUS
 62
     7
 10
814.1641841916631
 20
256.7979216925254
 30
0.0
 11
814.4141841916633
 21
256.3649089906331
 31
0.0
  0
LINE
  5
EF
  8
1
  6
CONTINUOUS
 62
     7
 10
826.5385398446452
 20
263.3649089906331
 30
0.0
 11
826.2885398446452
 21
263.7979216925253
 31
0.0
  0
ARC
  5
F0
  8
1
  6
CONTINUOUS
 62
     7
 10
824.5013620181542
 20
252.8934044901683
 30
0.0
 40
11.05000000000005
 50
80.69235188389385
 51
159.3076481161058
  0
LINE
  5
F1
  8
1
  6
CONTINUOUS
 62
     7
 10
865.9154905622383
 20
247.4227624736466
 30
0.0
 11
844.1523731373628
 21
251.2601872599789
 31
0.0
  0
LINE
  5
F2
  8
1
  6
CONTINUOUS
 62
     7
 10
837.9480842933858
 20
252.3541707792807
 30
0.0
 11
835.3097296987353
 21
252.8193838789937
 31
0.0
  0
LINE
  5
F3
  8
1
  6
CONTINUOUS
 62
     7
 10
835.745052262252
 20
246.6500650944201
 30
0.0
 11
836.9061952273842
 21
246.4453242612074
 31
0.0
  0
LINE
  5
F4
  8
1
  6
CONTINUOUS
 62
     7
 10
843.1104840713612
 20
245.3513407419057
 30
0.0
 11
864.8736014962366
 21
241.5139159555734
 31
0.0
  0
LINE
  5
F5
  8
1
  6
CONTINUOUS
 62
     7
 10
827.4021892224782
 20
248.5273075894419
 30
0.0
 11
831.1859150941614
 21
247.8601346306595
 31
0.0
  0
LINE
  5
F6
  8
1
  6
CONTINUOUS
 62
     7
 10
832.0888856180295
 20
252.981134946323
 30
0.0
 11
828.3051597463462
 21
253.6483079051054
 31
0.0
  0
ARC
  5
F7
  8
1
  6
CONTINUOUS
 62
     7
 10
828.826104279347
 20
256.602731164142
 30
0.0
 40
2.999999999999983
 50
209.9999999999999
 51
259.9999999999998
  0
ARC
  5
F8
  8
1
  6
CONTINUOUS
 62
     7
 10
828.826104279347
 20
256.602731164142
 30
0.0
 40
8.199999999999921
 50
209.9999999999999
 51
259.9999999999995
  0
LINE
  5
F9
  8
1
  6
CONTINUOUS
 62
     7
 10
819.8982531268297
 20
255.6662229627145
 30
0.0
 11
821.7246959683147
 21
252.5027311641421
 31
0.0
  0
LINE
  5
FA
  8
1
  6
CONTINUOUS
 62
     7
 10
826.2280280679937
 20
255.1027311641421
 30
0.0
 11
824.4015852265087
 21
258.2662229627144
 31
0.0
  0
ARC
  5
FB
  8
1
  6
CONTINUOUS
 62
     7
 10
835.7490884040664
 20
249.5523404336852
 30
0.0
 40
0.5000000000000684
 50
349.9999999999994
 51
79.99999999999818
  0
ARC
  5
FC
  8
1
  6
CONTINUOUS
 62
     7
 10
835.2281438710655
 20
246.5979171746486
 30
0.0
 40
0.5000000000000089
 50
259.9999999999982
 51
349.9999999999994
  0
LINE
  5
FD
  8
1
  6
CONTINUOUS
 62
     7
 10
835.8359124928999
 20
250.0447443101913
 30
0.0
 11
834.8511047398877
 21
250.2183924878583
 31
0.0
  0
LINE
  5
FE
  8
1
  6
CONTINUOUS
 62
     7
 10
834.1565120292199
 20
246.2791614758094
 30
0.0
 11
835.1413197822321
 21
246.1055132981425
 31
0.0
  0
LINE
  5
FF
  8
1
  6
CONTINUOUS
 62
     7
 10
829.3199012517717
 20
260.9297674640308
 30
0.0
 11
832.894314566962
 21
258.4269363160576
 31
0.0
  0
ENDBLK
  8
0
  0
BLOCK
  8
0
  2
D_FRAME_VIEW_1935
 70
     0
 10
0.0
 20
0.0
 30
0.0
  0
LINE
  5
104
  8
1
  6
CONTINUOUS
 62
     7
 10
741.6087688875145
 20
117.7247274657831
 30
0.0
 11
741.9082628277434
 21
117.9899770104527
 31
0.0
  0
LINE
  5
105
  8
1
  6
CONTINUOUS
 62
     7
 10
738.2107713407134
 20
121.3943169107506
 30
0.0
 11
740.1104723405537
 21
119.416757242198
 31
0.0
  0
ARC
  5
106
  8
1
  6
CONTINUOUS
 62
     7
 10
694.6939067775702
 20
77.69015851789474
 30
0.0
 40
62.07471939337013
 50
40.48241752712987
 51
45.09985066157002
  0
ARC
  5
107
  8
1
  6
CONTINUOUS
 62
     7
 10
719.3087116328189
 20
130.487658596266
 30
0.0
 40
5.000000000000045
 50
48.57411522819739
 51
79.99999999999993
  0
ARC
  5
108
  8
1
  6
CONTINUOUS
 62
     7
 10
712.9088460031551
 20
137.0994312838675
 30
0.0
 40
0.4000000000000033
 50
169.9999999999995
 51
260.0000000000015
  0
LINE
  5
109
  8
1
  6
CONTINUOUS
 62
     7
 10
713.533979442756
 20
140.6447391947115
 30
0.0
 11
717.965614331311
 21
139.8633223952102
 31
0.0
  0
ARC
  5
10A
  8
1
  6
CONTINUOUS
 62
     7
 10
717.8961550602442
 20
139.4693992940054
 30
0.0
 40
0.3999999999999952
 50
48.57411522819842
 51
79.99999999999544
  0
LINE
  5
10B
  8
1
  6
CONTINUOUS
 62
     7
 10
718.1608153317939
 20
139.7693241857087
 30
0.0
 11
735.7674860999853
 21
124.2328135608941
 31
0.0
  0
LINE
  5
10C
  8
1
  6
CONTINUOUS
 62
     7
 10
720.1769525211537
 20
135.411697361327
 30
0.0
 11
712.8393867320883
 21
136.7055081826626
 31
0.0
  0
LINE
  5
10D
  8
1
  6
CONTINUOUS
 62
     7
 10
728.6949307300371
 20
128.8733901294348
 30
0.0
 11
722.6169650271898
 21
134.2367197425576
 31
0.0
  0
ARC
  5
10E
  8
1
  6
CONTINUOUS
 62
     7
 10
713.4645201716893
 20
140.2508160935066
 30
0.0
 40
0.400000000000013
 50
80.00000000000011
 51
169.9999999999998
  0
ARC
  5
10F
  8
1
  6
CONTINUOUS
 62
     7
 10
719.3087116328189
 20
130.487658596266
 30
0.0
 40
5.400000000000007
 50
48.57411522819746
 51
79.99999999999989
  0
ARC
  5
110
  8
1
  6
CONTINUOUS
 62
     7
 10
694.7120614758428
 20
77.7069647354148
 30
0.0
 40
62.04999999999998
 50
45.1007709032961
 51
48.57411522819746
  0
LINE
  5
111
  8
1
  6
CONTINUOUS
 62
     7
 10
651.7892286592867
 20
121.3943169107506
 30
0.0
 11
649.8895276594463
 21
119.416757242198
 31
0.0
  0
LINE
  5
112
  8
1
  6
CONTINUOUS
 62
     7
 10
648.3912311124856
 20
117.7247274657831
 30
0.0
 11
648.0917371722567
 21
117.9899770104527
 31
0.0
  0
ARC
  5
113
  8
1
  6
CONTINUOUS
 62
     7
 10
695.2892469380323
 20
77.70575350690214
 30
0.0
 40
62.05178153264015
 50
134.8992954432832
 51
139.5184363680168
  0
ARC
  5
114
  8
1
  6
CONTINUOUS
 62
     7
 10
670.6912883671812
 20
130.487658596266
 30
0.0
 40
5.400000000000007
 50
100.0000000000001
 51
131.4258847718025
  0
LINE
  5
115
  8
1
  6
CONTINUOUS
 62
     7
 10
671.8391846682063
 20
139.7693241857087
 30
0.0
 11
654.2325139000147
 21
124.2328135608941
 31
0.0
  0
ARC
  5
116
  8
1
  6
CONTINUOUS
 62
     7
 10
672.103844939756
 20
139.4693992940054
 30
0.0
 40
0.3999999999999952
 50
100.0000000000046
 51
131.4258847718016
  0
ARC
  5
117
  8
1
  6
CONTINUOUS
 62
     7
 10
676.5354798283108
 20
140.2508160935066
 30
0.0
 40
0.400000000000013
 50
10.00000000000027
 51
99.99999999999986
  0
ARC
  5
118
  8
1
  6
CONTINUOUS
 62
     7
 10
677.091153996845
 20
137.0994312838675
 30
0.0
 40
0.4000000000000033
 50
279.9999999999985
 51
10.00000000000045
  0
LINE
  5
119
  8
1
  6
CONTINUOUS
 62
     7
 10
669.8230474788464
 20
135.411697361327
 30
0.0
 11
677.1606132679118
 21
136.7055081826626
 31
0.0
  0
ARC
  5
11A
  8
1
  6
CONTINUOUS
 62
     7
 10
670.6912883671812
 20
130.487658596266
 30
0.0
 40
5.000000000000045
 50
100.0000000000001
 51
131.4258847718026
  0
LINE
  5
11B
  8
1
  6
CONTINUOUS
 62
     7
 10
676.4660205572441
 20
140.6447391947115
 30
0.0
 11
672.0343856686891
 21
139.8633223952102
 31
0.0
  0
LINE
  5
11C
  8
1
  6
CONTINUOUS
 62
     7
 10
661.305069269963
 20
128.8733901294348
 30
0.0
 11
667.3830349728103
 21
134.2367197425576
 31
0.0
  0
ARC
  5
11D
  8
1
  6
CONTINUOUS
 62
     7
 10
695.2879385241572
 20
77.7069647354148
 30
0.0
 40
62.04999999999998
 50
131.4258847718025
 51
134.8992290967039
  0
LINE
  5
11E
  8
1
  6
CONTINUOUS
 62
     7
 10
669.8373004270678
 20
137.46935093923
 30
0.0
 11
670.1390212774193
 21
137.2021291112629
 31
0.0
  0
LINE
  5
11F
  8
1
  6
CONTINUOUS
 62
     7
 10
720.1626995729323
 20
137.46935093923
 30
0.0
 11
719.8609787225809
 21
137.2021291112629
 31
0.0
  0
ARC
  5
120
  8
1
  6
CONTINUOUS
 62
     7
 10
694.4044846145774
 20
161.4456645374215
 30
0.0
 40
10.09586370049887
 50
0.4759411721613331
 51
17.11201260182903
  0
ARC
  5
121
  8
1
  6
CONTINUOUS
 62
     7
 10
701.6138970587381
 20
165.9618433590669
 30
0.0
 40
2.887911492575195
 50
327.6435929533628
 51
357.972159578602
  0
ARC
  5
122
  8
1
  6
CONTINUOUS
 62
     7
 10
701.7149405012545
 20
157.1284741765442
 30
0.0
 40
2.785962476926405
 50
1.458815462636138
 51
32.92543200539885
  0
ARC
  5
123
  8
1
  6
CONTINUOUS
 62
     7
 10
694.0804319112412
 20
161.663521175945
 30
0.0
 40
10.42042962247658
 50
343.1488196457586
 51
359.2632265802507
  0
LINE
  5
124
  8
1
  6
CONTINUOUS
 62
     7
 10
704.0534180126149
 20
158.6427759469005
 30
0.0
 11
699.5
 21
158.6427759469005
 31
0.0
  0
ARC
  5
125
  8
1
  6
CONTINUOUS
 62
     7
 10
701.6138970587381
 20
157.3015893212225
 30
0.0
 40
2.887911492575195
 50
327.6435929533628
 51
357.9721595786015
  0
LINE
  5
126
  8
1
  6
CONTINUOUS
 62
     7
 10
704.0534180126149
 20
155.7560246009523
 30
0.0
 11
699.5
 21
155.7560246009523
 31
0.0
  0
LINE
  5
127
  8
1
  6
CONTINUOUS
 62
     7
 10
704.0534180126149
 20
164.4162786387967
 30
0.0
 11
699.5
 21
164.4162786387967
 31
0.0
  0
LINE
  5
128
  8
1
  6
CONTINUOUS
 62
     7
 10
704.0534180126149
 20
167.3030299847448
 30
0.0
 11
699.5
 21
167.3030299847448
 31
0.0
  0
ARC
  5
129
  8
1
  6
CONTINUOUS
 62
     7
 10
701.7149405012545
 20
165.7887282143886
 30
0.0
 40
2.785962476926406
 50
1.458815462637279
 51
32.92543200539885
  0
LINE
  5
12A
  8
1
  6
CONTINUOUS
 62
     7
 10
673.6978886899203
 20
164.179470075477
 30
0.0
 11
684.4225108935859
 21
173.1784966110885
 31
0.0
  0
LINE
  5
12B
  8
1
  6
CONTINUOUS
 62
     7
 10
674.0192824947636
 20
163.7964478539174
 30
0.0
 11
684.7439046984292
 21
172.7954743895289
 31
0.0
  0
LINE
  5
12C
  8
1
  6
CONTINUOUS
 62
     7
 10
726.2909557458686
 20
163.9332606341346
 30
0.0
 11
726.2909557458685
 21
157.9332606341346
 31
0.0
  0
LINE
  5
12D
  8
1
  6
CONTINUOUS
 62
     7
 10
681.6797269259534
 20
170.2243239507828
 30
0.0
 11
681.8584963296913
 21
170.0112748716322
 31
0.0
  0
LINE
  5
12E
  8
1
  6
CONTINUOUS
 62
     7
 10
677.2622296709775
 20
166.154549213513
 30
0.0
 11
677.0834602672395
 21
166.3675982926635
 31
0.0
  0
LINE
  5
12F
  8
1
  6
CONTINUOUS
 62
     7
 10
695.0
 20
171.442362847344
 30
0.0
 11
698.2
 21
171.442362847344
 31
0.0
  0
LINE
  5
130
  8
1
  6
CONTINUOUS
 62
     7
 10
717.8961550602442
 20
139.4693992940054
 30
0.0
 11
717.3404808917101
 21
136.3180144843663
 31
0.0
  0
ARC
  5
131
  8
1
  6
CONTINUOUS
 62
     7
 10
698.2
 20
142.942362847344
 30
0.0
 40
3.199999999999981
 50
180.0
 51
259.9999999999999
  0
LINE
  5
132
  8
1
  6
CONTINUOUS
 62
     7
 10
691.8000000000001
 20
167.742362847344
 30
0.0
 11
691.8000000000001
 21
142.942362847344
 31
0.0
  0
ARC
  5
133
  8
1
  6
CONTINUOUS
 62
     7
 10
688.8000000000001
 20
167.742362847344
 30
0.0
 40
3.000000000000002
 50
0.0000000000005684
 51
130.0000000000001
  0
ARC
  5
134
  8
1
  6
CONTINUOUS
 62
     7
 10
688.8000000000001
 20
167.742362847344
 30
0.0
 40
6.199999999999983
 50
0.0
 51
129.9999999999997
  0
ARC
  5
135
  8
1
  6
CONTINUOUS
 62
     7
 10
691.8000000000001
 20
142.942362847344
 30
0.0
 40
3.199999999999994
 50
279.9999999999999
 51
0.0
  0
LINE
  5
136
  8
1
  6
CONTINUOUS
 62
     7
 10
671.9337705301203
 20
157.5061377878134
 30
0.0
 11
669.8768501791235
 21
159.9574800057941
 31
0.0
  0
LINE
  5
137
  8
1
  6
CONTINUOUS
 62
     7
 10
672.65951910829
 20
136.3180144843663
 30
0.0
 11
672.1038449397558
 21
139.4693992940054
 31
0.0
  0
LINE
  5
138
  8
1
  6
CONTINUOUS
 62
     7
 10
698.2
 20
154.5295272928486
 30
0.0
 11
699.5
 21
154.5295272928486
 31
0.0
  0
LINE
  5
139
  8
1
  6
CONTINUOUS
 62
     7
 10
699.5
 20
168.5295272928486
 30
0.0
 11
698.2
 21
168.5295272928486
 31
0.0
  0
LINE
  5
13A
  8
1
  6
CONTINUOUS
 62
     7
 10
704.0534180126149
 20
155.7560246009523
 30
0.0
 11
704.5
 21
156.5295272928485
 31
0.0
  0
LINE
  5
13B
  8
1
  6
CONTINUOUS
 62
     7
 10
704.5
 20
166.5295272928486
 30
0.0
 11
704.0534180126149
 21
167.3030299847448
 31
0.0
  0
ARC
  5
13C
  8
1
  6
CONTINUOUS
 62
     7
 10
684.5560338545731
 20
162.1293033546154
 30
0.0
 40
11.05000000000001
 50
90.69235188389403
 51
169.3076481161059
  0
LINE
  5
13D
  8
1
  6
CONTINUOUS
 62
     7
 10
673.6978886899203
 20
164.1794700754769
 30
0.0
 11
674.0192824947636
 21
163.7964478539174
 31
0.0
  0
LINE
  5
13E
  8
1
  6
CONTINUOUS
 62
     7
 10
684.7439046984293
 20
172.7954743895289
 30
0.0
 11
684.4225108935859
 21
173.1784966110885
 31
0.0
  0
LINE
  5
13F
  8
1
  6
CONTINUOUS
 62
     7
 10
726.2909557458686
 20
163.9332606341346
 30
0.0
 11
704.5
 21
163.9332606341349
 31
0.0
  0
LINE
  5
140
  8
1
  6
CONTINUOUS
 62
     7
 10
704.5
 20
157.9332606341349
 30
0.0
 11
726.2909557458685
 21
157.9332606341346
 31
0.0
  0
LINE
  5
141
  8
1
  6
CONTINUOUS
 62
     7
 10
688.1709557458685
 20
158.333260634135
 30
0.0
 11
691.8000000000001
 21
158.333260634135
 31
0.0
  0
LINE
  5
142
  8
1
  6
CONTINUOUS
 62
     7
 10
691.8000000000001
 20
163.533260634135
 30
0.0
 11
688.1709557458685
 21
163.533260634135
 31
0.0
  0
ARC
  5
143
  8
1
  6
CONTINUOUS
 62
     7
 10
688.1709557458685
 20
166.533260634135
 30
0.0
 40
3.000000000000003
 50
220.0
 51
269.9999999999993
  0
ARC
  5
144
  8
1
  6
CONTINUOUS
 62
     7
 10
688.1709557458685
 20
166.533260634135
 30
0.0
 40
8.199999999999942
 50
220.0000000000001
 51
269.9999999999994
  0
LINE
  5
145
  8
1
  6
CONTINUOUS
 62
     7
 10
679.625567799222
 20
163.9603220394068
 30
0.0
 11
681.8893913122929
 21
161.2624022347053
 31
0.0
  0
LINE
  5
146
  8
1
  6
CONTINUOUS
 62
     7
 10
685.8728224165116
 20
164.6048978050753
 30
0.0
 11
683.6089989034407
 21
167.3028176097768
 31
0.0
  0
LINE
  5
147
  8
1
  6
CONTINUOUS
 62
     7
 10
687.6928171764959
 20
170.5305245632835
 30
0.0
 11
691.6475391896188
 21
168.6864074026901
 31
0.0
  0
ENDBLK
  8
0
  0
BLOCK
  8
0
  2
D_FRAME_VIEW_2185
 70
     0
 10
0.0
 20
0.0
 30
0.0
  0
ARC
  5
191
  8
1
  6
CONTINUOUS
 62
     9
 10
600.0
 20
161.5295272928486
 30
0.0
 40
3.000000000000052
 50
354.2966587843929
 51
29.92643486661445
  0
POLYLINE
  5
192
  8
1
  6
CONTINUOUS
 62
     7
 66
     1
 10
0.0
 20
0.0
 30
0.0
  0
VERTEX
  5
26A
  8
1
  6
CONTINUOUS
 62
     7
 10
612.1
 20
136.1746163917088
 30
0.0
  0
VERTEX
  5
26B
  8
1
  6
CONTINUOUS
 62
     7
 10
612.0954741932154
 20
136.2244035553804
 30
0.0
  0
VERTEX
  5
26C
  8
1
  6
CONTINUOUS
 62
     7
 10
612.0820333257084
 20
136.2726885384978
 30
0.0
  0
VERTEX
  5
26D
  8
1
  6
CONTINUOUS
 62
     7
 10
612.0600829359415
 20
136.3180144843664
 30
0.0
  0
SEQEND
  5
52E
  8
1
  6
CONTINUOUS
 62
     7
  0
LINE
  5
193
  8
1
  6
CONTINUOUS
 62
     7
 10
612.0999999999999
 20
136.1746163917088
 30
0.0
 11
612.0999999999999
 21
16.74236284734401
 31
0.0
  0
LINE
  5
194
  8
1
  6
CONTINUOUS
 62
     7
 10
610.5
 20
136.1746163917089
 30
0.0
 11
610.5
 21
16.74236284734398
 31
0.0
  0
POLYLINE
  5
195
  8
1
  6
CONTINUOUS
 62
     7
 66
     1
 10
0.0
 20
0.0
 30
0.0
  0
VERTEX
  5
26E
  8
1
  6
CONTINUOUS
 62
     7
 10
610.5399170640585
 20
136.3180144843663
 30
0.0
  0
VERTEX
  5
26F
  8
1
  6
CONTINUOUS
 62
     7
 10
610.5179666742916
 20
136.2726885384978
 30
0.0
  0
VERTEX
  5
270
  8
1
  6
CONTINUOUS
 62
     7
 10
610.5045258067846
 20
136.2244035553804
 30
0.0
  0
VERTEX
  5
271
  8
1
  6
CONTINUOUS
 62
     7
 10
610.5
 20
136.1746163917088
 30
0.0
  0
SEQEND
  5
52F
  8
1
  6
CONTINUOUS
 62
     7
  0
POLYLINE
  5
196
  8
1
  6
CONTINUOUS
 62
     7
 66
     1
 10
0.0
 20
0.0
 30
0.0
  0
VERTEX
  5
272
  8
1
  6
CONTINUOUS
 62
     7
 10
587.9399170640584
 20
136.3180144843664
 30
0.0
  0
VERTEX
  5
273
  8
1
  6
CONTINUOUS
 62
     7
 10
587.9179666742915
 20
136.2726885384978
 30
0.0
  0
VERTEX
  5
274
  8
1
  6
CONTINUOUS
 62
     7
 10
587.9045258067845
 20
136.2244035553804
 30
0.0
  0
VERTEX
  5
275
  8
1
  6
CONTINUOUS
 62
     7
 10
587.8999999999999
 20
136.1746163917088
 30
0.0
  0
SEQEND
  5
530
  8
1
  6
CONTINUOUS
 62
     7
  0
LINE
  5
197
  8
1
  6
CONTINUOUS
 62
     7
 10
587.9
 20
136.1746163917088
 30
0.0
 11
587.9
 21
16.74236284734401
 31
0.0
  0
POLYLINE
  5
198
  8
1
  6
CONTINUOUS
 62
     7
 66
     1
 10
0.0
 20
0.0
 30
0.0
  0
VERTEX
  5
276
  8
1
  6
CONTINUOUS
 62
     7
 10
589.4999999999999
 20
136.1746163917088
 30
0.0
  0
VERTEX
  5
277
  8
1
  6
CONTINUOUS
 62
     7
 10
589.4954741932153
 20
136.2244035553804
 30
0.0
  0
VERTEX
  5
278
  8
1
  6
CONTINUOUS
 62
     7
 10
589.4820333257082
 20
136.2726885384978
 30
0.0
  0
VERTEX
  5
279
  8
1
  6
CONTINUOUS
 62
     7
 10
589.4600829359414
 20
136.3180144843663
 30
0.0
  0
SEQEND
  5
531
  8
1
  6
CONTINUOUS
 62
     7
  0
LINE
  5
199
  8
1
  6
CONTINUOUS
 62
     7
 10
589.4999999999999
 20
136.1746163917089
 30
0.0
 11
589.4999999999999
 21
16.74236284734398
 31
0.0
  0
LINE
  5
19A
  8
1
  6
CONTINUOUS
 62
     7
 10
589.4999999999999
 20
135.9828078672683
 30
0.0
 11
590.0
 21
135.9828078672683
 31
0.0
  0
LINE
  5
19B
  8
1
  6
CONTINUOUS
 62
     7
 10
610.0
 20
135.9828078672683
 30
0.0
 11
610.4999999999999
 21
135.9828078672683
 31
0.0
  0
ARC
  5
19C
  8
1
  6
CONTINUOUS
 62
     7
 10
605.5418958185202
 20
122.4926793666526
 30
0.0
 40
4.535193445340288
 50
263.1375138708457
 51
349.420776897119
  0
LINE
  5
19D
  8
1
  6
CONTINUOUS
 62
     7
 10
595.0
 20
117.9899770104527
 30
0.0
 11
605.0
 21
117.9899770104527
 31
0.0
  0
ARC
  5
19E
  8
1
  6
CONTINUOUS
 62
     7
 10
594.4458897695142
 20
122.4760387684387
 30
0.0
 40
4.52015356420483
 50
190.4003033310946
 51
277.0414059009402
  0
ARC
  5
19F
  8
1
  6
CONTINUOUS
 62
     7
 10
605.5466893778796
 20
122.2411668268833
 30
0.0
 40
4.533114853778177
 50
264.8656168775925
 51
349.2330813490134
  0
LINE
  5
1A0
  8
1
  6
CONTINUOUS
 62
     7
 10
605.1410118463136
 20
117.7262409118846
 30
0.0
 11
605.0
 21
117.7247274657831
 31
0.0
  0
ARC
  5
1A1
  8
1
  6
CONTINUOUS
 62
     7
 10
594.4583325707697
 20
122.227848713807
 30
0.0
 40
4.535582055072206
 50
190.5897875766616
 51
276.8589893862043
  0
LINE
  5
1A2
  8
1
  6
CONTINUOUS
 62
     7
 10
595.0
 20
117.7247274657831
 30
0.0
 11
605.0
 21
117.7247274657831
 31
0.0
  0
LINE
  5
1A3
  8
1
  6
CONTINUOUS
 62
     7
 10
590.0
 20
16.05763715265601
 30
0.0
 11
610.0
 21
16.05763715265601
 31
0.0
  0
ARC
  5
1A4
  8
1
  6
CONTINUOUS
 62
     7
 10
600.0
 20
161.5295272928486
 30
0.0
 40
7.00000000000001
 50
242.7971055877856
 51
297.2028944122143
  0
POLYLINE
  5
1A5
  8
1
  6
CONTINUOUS
 62
     7
 66
     1
 10
0.0
 20
0.0
 30
0.0
  0
VERTEX
  5
27A
  8
1
  6
CONTINUOUS
 62
     7
 10
600.0
 20
164.179470075477
 30
0.0
  0
VERTEX
  5
27B
  8
1
  6
CONTINUOUS
 62
     7
 10
601.3656322541129
 20
164.2659269612398
 30
0.0
  0
VERTEX
  5
27C
  8
1
  6
CONTINUOUS
 62
     7
 10
602.6787840265556
 20
164.521975128894
 30
0.0
  0
VERTEX
  5
27D
  8
1
  6
CONTINUOUS
 62
     7
 10
603.8889916311372
 20
164.9377747909501
 30
0.0
  0
VERTEX
  5
27E
  8
1
  6
CONTINUOUS
 62
     7
 10
604.9497474683059
 20
165.4973469995784
 30
0.0
  0
VERTEX
  5
27F
  8
1
  6
CONTINUOUS
 62
     7
 10
605.8202872861178
 20
166.1791877086131
 30
0.0
  0
VERTEX
  5
280
  8
1
  6
CONTINUOUS
 62
     7
 10
606.467156727579
 20
166.9570941619866
 30
0.0
  0
VERTEX
  5
281
  8
1
  6
CONTINUOUS
 62
     7
 10
606.8654969628226
 20
167.8011718509507
 30
0.0
  0
VERTEX
  5
282
  8
1
  6
CONTINUOUS
 62
     7
 10
607.0
 20
168.6789833432827
 30
0.0
  0
SEQEND
  5
532
  8
1
  6
CONTINUOUS
 62
     7
  0
POLYLINE
  5
1A6
  8
1
  6
CONTINUOUS
 62
     7
 66
     1
 10
0.0
 20
0.0
 30
0.0
  0
VERTEX
  5
283
  8
1
  6
CONTINUOUS
 62
     7
 10
593.0
 20
168.6789833432827
 30
0.0
  0
VERTEX
  5
284
  8
1
  6
CONTINUOUS
 62
     7
 10
593.1345030371774
 20
167.8011718509507
 30
0.0
  0
VERTEX
  5
285
  8
1
  6
CONTINUOUS
 62
     7
 10
593.532843272421
 20
166.9570941619866
 30
0.0
  0
VERTEX
  5
286
  8
1
  6
CONTINUOUS
 62
     7
 10
594.1797127138822
 20
166.1791877086131
 30
0.0
  0
VERTEX
  5
287
  8
1
  6
CONTINUOUS
 62
     7
 10
595.0502525316941
 20
165.4973469995784
 30
0.0
  0
VERTEX
  5
288
  8
1
  6
CONTINUOUS
 62
     7
 10
596.1110083688628
 20
164.9377747909501
 30
0.0
  0
VERTEX
  5
289
  8
1
  6
CONTINUOUS
 62
     7
 10
597.3212159734444
 20
164.521975128894
 30
0.0
  0
VERTEX
  5
28A
  8
1
  6
CONTINUOUS
 62
     7
 10
598.6343677458871
 20
164.2659269612398
 30
0.0
  0
VERTEX
  5
28B
  8
1
  6
CONTINUOUS
 62
     7
 10
600.0
 20
164.179470075477
 30
0.0
  0
SEQEND
  5
533
  8
1
  6
CONTINUOUS
 62
     7
  0
POLYLINE
  5
1A7
  8
1
  6
CONTINUOUS
 62
     7
 66
     1
 10
0.0
 20
0.0
 30
0.0
  0
VERTEX
  5
28C
  8
1
  6
CONTINUOUS
 62
     7
 10
607.0
 20
168.6789833432827
 30
0.0
  0
VERTEX
  5
28D
  8
1
  6
CONTINUOUS
 62
     7
 10
606.8654969628226
 20
169.5567948356148
 30
0.0
  0
VERTEX
  5
28E
  8
1
  6
CONTINUOUS
 62
     7
 10
606.467156727579
 20
170.4008725245789
 30
0.0
  0
VERTEX
  5
28F
  8
1
  6
CONTINUOUS
 62
     7
 10
605.8202872861178
 20
171.1787789779524
 30
0.0
  0
VERTEX
  5
290
  8
1
  6
CONTINUOUS
 62
     7
 10
604.9497474683059
 20
171.860619686987
 30
0.0
  0
VERTEX
  5
291
  8
1
  6
CONTINUOUS
 62
     7
 10
603.8889916311372
 20
172.4201918956154
 30
0.0
  0
VERTEX
  5
292
  8
1
  6
CONTINUOUS
 62
     7
 10
602.6787840265556
 20
172.8359915576715
 30
0.0
  0
VERTEX
  5
293
  8
1
  6
CONTINUOUS
 62
     7
 10
601.3656322541129
 20
173.0920397253257
 30
0.0
  0
VERTEX
  5
294
  8
1
  6
CONTINUOUS
 62
     7
 10
600.0
 20
173.1784966110885
 30
0.0
  0
VERTEX
  5
295
  8
1
  6
CONTINUOUS
 62
     7
 10
598.6343677458871
 20
173.0920397253257
 30
0.0
  0
VERTEX
  5
296
  8
1
  6
CONTINUOUS
 62
     7
 10
597.3212159734444
 20
172.8359915576715
 30
0.0
  0
VERTEX
  5
297
  8
1
  6
CONTINUOUS
 62
     7
 10
596.1110083688627
 20
172.4201918956154
 30
0.0
  0
VERTEX
  5
298
  8
1
  6
CONTINUOUS
 62
     7
 10
595.0502525316941
 20
171.860619686987
 30
0.0
  0
VERTEX
  5
299
  8
1
  6
CONTINUOUS
 62
     7
 10
594.1797127138822
 20
171.1787789779524
 30
0.0
  0
VERTEX
  5
29A
  8
1
  6
CONTINUOUS
 62
     7
 10
593.532843272421
 20
170.4008725245789
 30
0.0
  0
VERTEX
  5
29B
  8
1
  6
CONTINUOUS
 62
     7
 10
593.1345030371774
 20
169.5567948356148
 30
0.0
  0
VERTEX
  5
29C
  8
1
  6
CONTINUOUS
 62
     7
 10
593.0
 20
168.6789833432827
 30
0.0
  0
SEQEND
  5
534
  8
1
  6
CONTINUOUS
 62
     7
  0
POLYLINE
  5
1A8
  8
1
  6
CONTINUOUS
 62
     7
 66
     1
 10
0.0
 20
0.0
 30
0.0
  0
VERTEX
  5
29D
  8
1
  6
CONTINUOUS
 62
     7
 10
593.0
 20
168.2959611217232
 30
0.0
  0
VERTEX
  5
29E
  8
1
  6
CONTINUOUS
 62
     7
 10
593.1345030371774
 20
167.4181496293911
 30
0.0
  0
VERTEX
  5
29F
  8
1
  6
CONTINUOUS
 62
     7
 10
593.532843272421
 20
166.574071940427
 30
0.0
  0
VERTEX
  5
2A0
  8
1
  6
CONTINUOUS
 62
     7
 10
594.1797127138822
 20
165.7961654870535
 30
0.0
  0
VERTEX
  5
2A1
  8
1
  6
CONTINUOUS
 62
     7
 10
595.0502525316941
 20
165.1143247780189
 30
0.0
  0
VERTEX
  5
2A2
  8
1
  6
CONTINUOUS
 62
     7
 10
596.1110083688628
 20
164.5547525693905
 30
0.0
  0
VERTEX
  5
2A3
  8
1
  6
CONTINUOUS
 62
     7
 10
597.3212159734444
 20
164.1389529073344
 30
0.0
  0
VERTEX
  5
2A4
  8
1
  6
CONTINUOUS
 62
     7
 10
598.6343677458871
 20
163.8829047396802
 30
0.0
  0
VERTEX
  5
2A5
  8
1
  6
CONTINUOUS
 62
     7
 10
600.0
 20
163.7964478539174
 30
0.0
  0
SEQEND
  5
535
  8
1
  6
CONTINUOUS
 62
     7
  0
POLYLINE
  5
1A9
  8
1
  6
CONTINUOUS
 62
     7
 66
     1
 10
0.0
 20
0.0
 30
0.0
  0
VERTEX
  5
2A6
  8
1
  6
CONTINUOUS
 62
     7
 10
600.0
 20
163.7964478539174
 30
0.0
  0
VERTEX
  5
2A7
  8
1
  6
CONTINUOUS
 62
     7
 10
601.3656322541129
 20
163.8829047396802
 30
0.0
  0
VERTEX
  5
2A8
  8
1
  6
CONTINUOUS
 62
     7
 10
602.6787840265556
 20
164.1389529073344
 30
0.0
  0
VERTEX
  5
2A9
  8
1
  6
CONTINUOUS
 62
     7
 10
603.8889916311372
 20
164.5547525693905
 30
0.0
  0
VERTEX
  5
2AA
  8
1
  6
CONTINUOUS
 62
     7
 10
604.9497474683059
 20
165.1143247780189
 30
0.0
  0
VERTEX
  5
2AB
  8
1
  6
CONTINUOUS
 62
     7
 10
605.8202872861178
 20
165.7961654870535
 30
0.0
  0
VERTEX
  5
2AC
  8
1
  6
CONTINUOUS
 62
     7
 10
606.467156727579
 20
166.574071940427
 30
0.0
  0
VERTEX
  5
2AD
  8
1
  6
CONTINUOUS
 62
     7
 10
606.8654969628226
 20
167.4181496293911
 30
0.0
  0
VERTEX
  5
2AE
  8
1
  6
CONTINUOUS
 62
     7
 10
607.0
 20
168.2959611217232
 30
0.0
  0
SEQEND
  5
536
  8
1
  6
CONTINUOUS
 62
     7
  0
LINE
  5
1AA
  8
1
  6
CONTINUOUS
 62
     7
 10
597.5
 20
164.0694649633066
 30
0.0
 11
597.598761631126
 21
164.0694649633066
 31
0.0
  0
LINE
  5
1AB
  8
1
  6
CONTINUOUS
 62
     7
 10
602.4012383688739
 20
164.0694649633066
 30
0.0
 11
602.4999999999999
 21
164.0694649633066
 31
0.0
  0
POLYLINE
  5
1AC
  8
1
  6
CONTINUOUS
 62
     7
 66
     1
 10
0.0
 20
0.0
 30
0.0
  0
VERTEX
  5
2AF
  8
1
  6
CONTINUOUS
 62
     7
 10
602.4999999999999
 20
164.0694649633066
 30
0.0
  0
VERTEX
  5
2B0
  8
1
  6
CONTINUOUS
 62
     7
 10
602.5937557559148
 20
164.0751657163453
 30
0.0
  0
VERTEX
  5
2B1
  8
1
  6
CONTINUOUS
 62
     7
 10
602.6841855086376
 20
164.0920657401679
 30
0.0
  0
VERTEX
  5
2B2
  8
1
  6
CONTINUOUS
 62
     7
 10
602.7680812455691
 20
164.1195655032297
 30
0.0
  0
VERTEX
  5
2B3
  8
1
  6
CONTINUOUS
 62
     7
 10
602.8424667495572
 20
164.1566894462294
 30
0.0
  0
VERTEX
  5
2B4
  8
1
  6
CONTINUOUS
 62
     7
 10
602.9047031807645
 20
164.2021205902603
 30
0.0
  0
SEQEND
  5
537
  8
1
  6
CONTINUOUS
 62
     7
  0
POLYLINE
  5
1AD
  8
1
  6
CONTINUOUS
 62
     7
 66
     1
 10
0.0
 20
0.0
 30
0.0
  0
VERTEX
  5
2B5
  8
1
  6
CONTINUOUS
 62
     7
 10
597.0952968192355
 20
164.2021205902603
 30
0.0
  0
VERTEX
  5
2B6
  8
1
  6
CONTINUOUS
 62
     7
 10
597.1575332504427
 20
164.1566894462294
 30
0.0
  0
VERTEX
  5
2B7
  8
1
  6
CONTINUOUS
 62
     7
 10
597.2319187544309
 20
164.1195655032298
 30
0.0
  0
VERTEX
  5
2B8
  8
1
  6
CONTINUOUS
 62
     7
 10
597.3158144913623
 20
164.092065740168
 30
0.0
  0
VERTEX
  5
2B9
  8
1
  6
CONTINUOUS
 62
     7
 10
597.4062442440851
 20
164.0751657163453
 30
0.0
  0
VERTEX
  5
2BA
  8
1
  6
CONTINUOUS
 62
     7
 10
597.5
 20
164.0694649633066
 30
0.0
  0
SEQEND
  5
538
  8
1
  6
CONTINUOUS
 62
     7
  0
ARC
  5
1AE
  8
1
  6
CONTINUOUS
 62
     7
 10
600.0
 20
160.933260634135
 30
0.0
 40
2.600000000000047
 50
180.0
 51
0.0
  0
ARC
  5
1AF
  8
1
  6
CONTINUOUS
 62
     7
 10
600.0
 20
160.933260634135
 30
0.0
 40
3.000000000000052
 50
150.0735651333857
 51
29.92643486661438
  0
ARC
  5
1B0
  8
1
  6
CONTINUOUS
 62
     7
 10
600.0
 20
163.542362847344
 30
0.0
 40
3.199999999999981
 50
166.9100444220733
 51
180.0
  0
ARC
  5
1B1
  8
1
  6
CONTINUOUS
 62
     7
 10
600.0
 20
163.542362847344
 30
0.0
 40
3.199999999999982
 50
0.0
 51
13.08995557792679
  0
LINE
  5
1B2
  8
1
  6
CONTINUOUS
 62
     7
 10
612.0
 20
159.9574800057941
 30
0.0
 11
604.1999999999999
 21
159.9574800057941
 31
0.0
  0
LINE
  5
1B3
  8
1
  6
CONTINUOUS
 62
     7
 10
612.0
 20
157.5061377878134
 30
0.0
 11
604.1999999999999
 21
157.5061377878134
 31
0.0
  0
LINE
  5
1B4
  8
1
  6
CONTINUOUS
 62
     7
 10
588.0
 20
157.5061377878134
 30
0.0
 11
595.8
 21
157.5061377878134
 31
0.0
  0
LINE
  5
1B5
  8
1
  6
CONTINUOUS
 62
     7
 10
588.0
 20
159.9574800057941
 30
0.0
 11
595.8
 21
159.9574800057941
 31
0.0
  0
POLYLINE
  5
1B6
  8
1
  6
CONTINUOUS
 62
     7
 66
     1
 10
0.0
 20
0.0
 30
0.0
  0
VERTEX
  5
2BB
  8
1
  6
CONTINUOUS
 62
     7
 10
603.1999999999999
 20
158.1489253975
 30
0.0
  0
VERTEX
  5
2BC
  8
1
  6
CONTINUOUS
 62
     7
 10
603.2192147195967
 20
158.0235237557383
 30
0.0
  0
VERTEX
  5
2BD
  8
1
  6
CONTINUOUS
 62
     7
 10
603.2761204674887
 20
157.9029412287434
 30
0.0
  0
VERTEX
  5
2BE
  8
1
  6
CONTINUOUS
 62
     7
 10
603.3685303876973
 20
157.7918117354043
 30
0.0
  0
VERTEX
  5
2BF
  8
1
  6
CONTINUOUS
 62
     7
 10
603.4928932188134
 20
157.6944059198279
 30
0.0
  0
VERTEX
  5
2C0
  8
1
  6
CONTINUOUS
 62
     7
 10
603.6444297669804
 20
157.614467032881
 30
0.0
  0
VERTEX
  5
2C1
  8
1
  6
CONTINUOUS
 62
     7
 10
603.8173165676349
 20
157.5550670811587
 30
0.0
  0
VERTEX
  5
2C2
  8
1
  6
CONTINUOUS
 62
     7
 10
604.0049096779838
 20
157.5184887714938
 30
0.0
  0
VERTEX
  5
2C3
  8
1
  6
CONTINUOUS
 62
     7
 10
604.1999999999999
 20
157.5061377878134
 30
0.0
  0
SEQEND
  5
539
  8
1
  6
CONTINUOUS
 62
     7
  0
POLYLINE
  5
1B7
  8
1
  6
CONTINUOUS
 62
     7
 66
     1
 10
0.0
 20
0.0
 30
0.0
  0
VERTEX
  5
2C4
  8
1
  6
CONTINUOUS
 62
     7
 10
603.1999999999999
 20
160.6002676154807
 30
0.0
  0
VERTEX
  5
2C5
  8
1
  6
CONTINUOUS
 62
     7
 10
603.2192147195967
 20
160.4748659737189
 30
0.0
  0
VERTEX
  5
2C6
  8
1
  6
CONTINUOUS
 62
     7
 10
603.2761204674887
 20
160.3542834467241
 30
0.0
  0
VERTEX
  5
2C7
  8
1
  6
CONTINUOUS
 62
     7
 10
603.3685303876973
 20
160.243153953385
 30
0.0
  0
VERTEX
  5
2C8
  8
1
  6
CONTINUOUS
 62
     7
 10
603.4928932188134
 20
160.1457481378087
 30
0.0
  0
VERTEX
  5
2C9
  8
1
  6
CONTINUOUS
 62
     7
 10
603.6444297669802
 20
160.0658092508617
 30
0.0
  0
VERTEX
  5
2CA
  8
1
  6
CONTINUOUS
 62
     7
 10
603.8173165676347
 20
160.0064092991394
 30
0.0
  0
VERTEX
  5
2CB
  8
1
  6
CONTINUOUS
 62
     7
 10
604.0049096779837
 20
159.9698309894746
 30
0.0
  0
VERTEX
  5
2CC
  8
1
  6
CONTINUOUS
 62
     7
 10
604.1999999999998
 20
159.9574800057941
 30
0.0
  0
SEQEND
  5
53A
  8
1
  6
CONTINUOUS
 62
     7
  0
POLYLINE
  5
1B8
  8
1
  6
CONTINUOUS
 62
     7
 66
     1
 10
0.0
 20
0.0
 30
0.0
  0
VERTEX
  5
2CD
  8
1
  6
CONTINUOUS
 62
     7
 10
595.8
 20
157.5061377878134
 30
0.0
  0
VERTEX
  5
2CE
  8
1
  6
CONTINUOUS
 62
     7
 10
595.995090322016
 20
157.5184887714938
 30
0.0
  0
VERTEX
  5
2CF
  8
1
  6
CONTINUOUS
 62
     7
 10
596.182683432365
 20
157.5550670811587
 30
0.0
  0
VERTEX
  5
2D0
  8
1
  6
CONTINUOUS
 62
     7
 10
596.3555702330195
 20
157.614467032881
 30
0.0
  0
VERTEX
  5
2D1
  8
1
  6
CONTINUOUS
 62
     7
 10
596.5071067811865
 20
157.6944059198279
 30
0.0
  0
VERTEX
  5
2D2
  8
1
  6
CONTINUOUS
 62
     7
 10
596.6314696123026
 20
157.7918117354043
 30
0.0
  0
VERTEX
  5
2D3
  8
1
  6
CONTINUOUS
 62
     7
 10
596.7238795325112
 20
157.9029412287434
 30
0.0
  0
VERTEX
  5
2D4
  8
1
  6
CONTINUOUS
 62
     7
 10
596.7807852804032
 20
158.0235237557383
 30
0.0
  0
VERTEX
  5
2D5
  8
1
  6
CONTINUOUS
 62
     7
 10
596.8
 20
158.1489253975
 30
0.0
  0
SEQEND
  5
53B
  8
1
  6
CONTINUOUS
 62
     7
  0
POLYLINE
  5
1B9
  8
1
  6
CONTINUOUS
 62
     7
 66
     1
 10
0.0
 20
0.0
 30
0.0
  0
VERTEX
  5
2D6
  8
1
  6
CONTINUOUS
 62
     7
 10
595.8000000000001
 20
159.9574800057941
 30
0.0
  0
VERTEX
  5
2D7
  8
1
  6
CONTINUOUS
 62
     7
 10
595.9950903220162
 20
159.9698309894746
 30
0.0
  0
VERTEX
  5
2D8
  8
1
  6
CONTINUOUS
 62
     7
 10
596.1826834323651
 20
160.0064092991394
 30
0.0
  0
VERTEX
  5
2D9
  8
1
  6
CONTINUOUS
 62
     7
 10
596.3555702330196
 20
160.0658092508617
 30
0.0
  0
VERTEX
  5
2DA
  8
1
  6
CONTINUOUS
 62
     7
 10
596.5071067811865
 20
160.1457481378087
 30
0.0
  0
VERTEX
  5
2DB
  8
1
  6
CONTINUOUS
 62
     7
 10
596.6314696123026
 20
160.243153953385
 30
0.0
  0
VERTEX
  5
2DC
  8
1
  6
CONTINUOUS
 62
     7
 10
596.7238795325112
 20
160.3542834467241
 30
0.0
  0
VERTEX
  5
2DD
  8
1
  6
CONTINUOUS
 62
     7
 10
596.7807852804032
 20
160.4748659737189
 30
0.0
  0
VERTEX
  5
2DE
  8
1
  6
CONTINUOUS
 62
     7
 10
596.8
 20
160.6002676154807
 30
0.0
  0
SEQEND
  5
53C
  8
1
  6
CONTINUOUS
 62
     7
  0
POLYLINE
  5
1BA
  8
1
  6
CONTINUOUS
 62
     7
 66
     1
 10
0.0
 20
0.0
 30
0.0
  0
VERTEX
  5
2DF
  8
1
  6
CONTINUOUS
 62
     7
 10
612.0
 20
157.5061377878134
 30
0.0
  0
VERTEX
  5
2E0
  8
1
  6
CONTINUOUS
 62
     7
 10
612.9754516100807
 20
157.5678927062154
 30
0.0
  0
VERTEX
  5
2E1
  8
1
  6
CONTINUOUS
 62
     7
 10
613.9134171618255
 20
157.7507842545399
 30
0.0
  0
VERTEX
  5
2E2
  8
1
  6
CONTINUOUS
 62
     7
 10
614.777851165098
 20
158.0477840131514
 30
0.0
  0
VERTEX
  5
2E3
  8
1
  6
CONTINUOUS
 62
     7
 10
615.5355339059328
 20
158.4474784478859
 30
0.0
  0
VERTEX
  5
2E4
  8
1
  6
CONTINUOUS
 62
     7
 10
616.1573480615127
 20
158.9345075257678
 30
0.0
  0
VERTEX
  5
2E5
  8
1
  6
CONTINUOUS
 62
     7
 10
616.6193976625565
 20
159.4901549924631
 30
0.0
  0
VERTEX
  5
2E6
  8
1
  6
CONTINUOUS
 62
     7
 10
616.9039264020162
 20
160.0930676274375
 30
0.0
  0
VERTEX
  5
2E7
  8
1
  6
CONTINUOUS
 62
     7
 10
617.0
 20
160.7200758362461
 30
0.0
  0
SEQEND
  5
53D
  8
1
  6
CONTINUOUS
 62
     7
  0
POLYLINE
  5
1BB
  8
1
  6
CONTINUOUS
 62
     7
 66
     1
 10
0.0
 20
0.0
 30
0.0
  0
VERTEX
  5
2E8
  8
1
  6
CONTINUOUS
 62
     7
 10
612.0
 20
159.9574800057941
 30
0.0
  0
VERTEX
  5
2E9
  8
1
  6
CONTINUOUS
 62
     7
 10
612.9754516100807
 20
160.0192349241962
 30
0.0
  0
VERTEX
  5
2EA
  8
1
  6
CONTINUOUS
 62
     7
 10
613.9134171618255
 20
160.2021264725206
 30
0.0
  0
VERTEX
  5
2EB
  8
1
  6
CONTINUOUS
 62
     7
 10
614.777851165098
 20
160.4991262311321
 30
0.0
  0
VERTEX
  5
2EC
  8
1
  6
CONTINUOUS
 62
     7
 10
615.5355339059328
 20
160.8988206658666
 30
0.0
  0
VERTEX
  5
2ED
  8
1
  6
CONTINUOUS
 62
     7
 10
616.1573480615127
 20
161.3858497437485
 30
0.0
  0
VERTEX
  5
2EE
  8
1
  6
CONTINUOUS
 62
     7
 10
616.6193976625565
 20
161.9414972104439
 30
0.0
  0
VERTEX
  5
2EF
  8
1
  6
CONTINUOUS
 62
     7
 10
616.9039264020162
 20
162.5444098454182
 30
0.0
  0
VERTEX
  5
2F0
  8
1
  6
CONTINUOUS
 62
     7
 10
617.0
 20
163.1714180542268
 30
0.0
  0
SEQEND
  5
53E
  8
1
  6
CONTINUOUS
 62
     7
  0
POLYLINE
  5
1BC
  8
1
  6
CONTINUOUS
 62
     7
 66
     1
 10
0.0
 20
0.0
 30
0.0
  0
VERTEX
  5
2F1
  8
1
  6
CONTINUOUS
 62
     7
 10
583.0
 20
163.1714180542268
 30
0.0
  0
VERTEX
  5
2F2
  8
1
  6
CONTINUOUS
 62
     7
 10
583.0960735979838
 20
162.5444098454182
 30
0.0
  0
VERTEX
  5
2F3
  8
1
  6
CONTINUOUS
 62
     7
 10
583.3806023374435
 20
161.9414972104438
 30
0.0
  0
VERTEX
  5
2F4
  8
1
  6
CONTINUOUS
 62
     7
 10
583.8426519384873
 20
161.3858497437485
 30
0.0
  0
VERTEX
  5
2F5
  8
1
  6
CONTINUOUS
 62
     7
 10
584.4644660940672
 20
160.8988206658666
 30
0.0
  0
VERTEX
  5
2F6
  8
1
  6
CONTINUOUS
 62
     7
 10
585.222148834902
 20
160.4991262311321
 30
0.0
  0
VERTEX
  5
2F7
  8
1
  6
CONTINUOUS
 62
     7
 10
586.0865828381745
 20
160.2021264725206
 30
0.0
  0
VERTEX
  5
2F8
  8
1
  6
CONTINUOUS
 62
     7
 10
587.0245483899193
 20
160.0192349241962
 30
0.0
  0
VERTEX
  5
2F9
  8
1
  6
CONTINUOUS
 62
     7
 10
588.0
 20
159.9574800057941
 30
0.0
  0
SEQEND
  5
53F
  8
1
  6
CONTINUOUS
 62
     7
  0
POLYLINE
  5
1BD
  8
1
  6
CONTINUOUS
 62
     7
 66
     1
 10
0.0
 20
0.0
 30
0.0
  0
VERTEX
  5
2FA
  8
1
  6
CONTINUOUS
 62
     7
 10
583.0
 20
160.7200758362461
 30
0.0
  0
VERTEX
  5
2FB
  8
1
  6
CONTINUOUS
 62
     7
 10
583.0960735979838
 20
160.0930676274375
 30
0.0
  0
VERTEX
  5
2FC
  8
1
  6
CONTINUOUS
 62
     7
 10
583.3806023374435
 20
159.4901549924631
 30
0.0
  0
VERTEX
  5
2FD
  8
1
  6
CONTINUOUS
 62
     7
 10
583.8426519384873
 20
158.9345075257678
 30
0.0
  0
VERTEX
  5
2FE
  8
1
  6
CONTINUOUS
 62
     7
 10
584.4644660940672
 20
158.4474784478859
 30
0.0
  0
VERTEX
  5
2FF
  8
1
  6
CONTINUOUS
 62
     7
 10
585.222148834902
 20
158.0477840131514
 30
0.0
  0
VERTEX
  5
300
  8
1
  6
CONTINUOUS
 62
     7
 10
586.0865828381745
 20
157.7507842545399
 30
0.0
  0
VERTEX
  5
301
  8
1
  6
CONTINUOUS
 62
     7
 10
587.0245483899193
 20
157.5678927062154
 30
0.0
  0
VERTEX
  5
302
  8
1
  6
CONTINUOUS
 62
     7
 10
588.0
 20
157.5061377878134
 30
0.0
  0
SEQEND
  5
540
  8
1
  6
CONTINUOUS
 62
     7
  0
LINE
  5
1BE
  8
1
  6
CONTINUOUS
 62
     7
 10
614.0
 20
139.4693992940054
 30
0.0
 11
610.0
 21
139.4693992940054
 31
0.0
  0
LINE
  5
1BF
  8
1
  6
CONTINUOUS
 62
     7
 10
590.0
 20
139.4693992940054
 30
0.0
 11
586.0
 21
139.4693992940054
 31
0.0
  0
LINE
  5
1C0
  8
1
  6
CONTINUOUS
 62
     7
 10
614.0
 20
136.3180144843663
 30
0.0
 11
610.0
 21
136.3180144843663
 31
0.0
  0
LINE
  5
1C1
  8
1
  6
CONTINUOUS
 62
     7
 10
590.0
 20
136.3180144843663
 30
0.0
 11
586.0
 21
136.3180144843663
 31
0.0
  0
POLYLINE
  5
1C2
  8
1
  6
CONTINUOUS
 62
     7
 66
     1
 10
0.0
 20
0.0
 30
0.0
  0
VERTEX
  5
303
  8
1
  6
CONTINUOUS
 62
     7
 10
610.2784997659176
 20
141.6400015148421
 30
0.0
  0
VERTEX
  5
304
  8
1
  6
CONTINUOUS
 62
     7
 10
610.2704765409753
 20
141.6554930860043
 30
0.0
  0
VERTEX
  5
305
  8
1
  6
CONTINUOUS
 62
     7
 10
610.2466643547021
 20
141.670487487726
 30
0.0
  0
SEQEND
  5
541
  8
1
  6
CONTINUOUS
 62
     7
  0
LINE
  5
1C3
  8
1
  6
CONTINUOUS
 62
     7
 10
607.4999999999999
 20
142.942362847344
 30
0.0
 11
610.246664354702
 21
141.670487487726
 31
0.0
  0
POLYLINE
  5
1C4
  8
1
  6
CONTINUOUS
 62
     7
 66
     1
 10
0.0
 20
0.0
 30
0.0
  0
VERTEX
  5
306
  8
1
  6
CONTINUOUS
 62
     7
 10
614.0
 20
139.4693992940054
 30
0.0
  0
VERTEX
  5
307
  8
1
  6
CONTINUOUS
 62
     7
 10
614.5852709660484
 20
139.4794090971324
 30
0.0
  0
VERTEX
  5
308
  8
1
  6
CONTINUOUS
 62
     7
 10
615.1480502970953
 20
139.5090538353931
 30
0.0
  0
VERTEX
  5
309
  8
1
  6
CONTINUOUS
 62
     7
 10
615.6667106990589
 20
139.5571942781209
 30
0.0
  0
VERTEX
  5
30A
  8
1
  6
CONTINUOUS
 62
     7
 10
616.1213203435597
 20
139.6219804150992
 30
0.0
  0
VERTEX
  5
30B
  8
1
  6
CONTINUOUS
 62
     7
 10
616.4944088369076
 20
139.7009225514166
 30
0.0
  0
VERTEX
  5
30C
  8
1
  6
CONTINUOUS
 62
     7
 10
616.7716385975339
 20
139.7909869850456
 30
0.0
  0
VERTEX
  5
30D
  8
1
  6
CONTINUOUS
 62
     7
 10
616.9423558412097
 20
139.8887125903105
 30
0.0
  0
VERTEX
  5
30E
  8
1
  6
CONTINUOUS
 62
     7
 10
617.0
 20
139.9903438270062
 30
0.0
  0
SEQEND
  5
542
  8
1
  6
CONTINUOUS
 62
     7
  0
POLYLINE
  5
1C5
  8
1
  6
CONTINUOUS
 62
     7
 66
     1
 10
0.0
 20
0.0
 30
0.0
  0
VERTEX
  5
30F
  8
1
  6
CONTINUOUS
 62
     7
 10
583.0
 20
139.9903438270062
 30
0.0
  0
VERTEX
  5
310
  8
1
  6
CONTINUOUS
 62
     7
 10
583.0576441587903
 20
139.8887125903105
 30
0.0
  0
VERTEX
  5
311
  8
1
  6
CONTINUOUS
 62
     7
 10
583.2283614024661
 20
139.7909869850456
 30
0.0
  0
VERTEX
  5
312
  8
1
  6
CONTINUOUS
 62
     7
 10
583.5055911630924
 20
139.7009225514166
 30
0.0
  0
VERTEX
  5
313
  8
1
  6
CONTINUOUS
 62
     7
 10
583.8786796564403
 20
139.6219804150992
 30
0.0
  0
VERTEX
  5
314
  8
1
  6
CONTINUOUS
 62
     7
 10
584.3332893009411
 20
139.5571942781209
 30
0.0
  0
VERTEX
  5
315
  8
1
  6
CONTINUOUS
 62
     7
 10
584.8519497029047
 20
139.5090538353931
 30
0.0
  0
VERTEX
  5
316
  8
1
  6
CONTINUOUS
 62
     7
 10
585.4147290339516
 20
139.4794090971324
 30
0.0
  0
VERTEX
  5
317
  8
1
  6
CONTINUOUS
 62
     7
 10
586.0
 20
139.4693992940054
 30
0.0
  0
SEQEND
  5
543
  8
1
  6
CONTINUOUS
 62
     7
  0
LINE
  5
1C6
  8
1
  6
CONTINUOUS
 62
     7
 10
592.5
 20
142.942362847344
 30
0.0
 11
589.7533356452979
 21
141.670487487726
 31
0.0
  0
POLYLINE
  5
1C7
  8
1
  6
CONTINUOUS
 62
     7
 66
     1
 10
0.0
 20
0.0
 30
0.0
  0
VERTEX
  5
318
  8
1
  6
CONTINUOUS
 62
     7
 10
589.7533356452977
 20
141.670487487726
 30
0.0
  0
VERTEX
  5
319
  8
1
  6
CONTINUOUS
 62
     7
 10
589.7295234590246
 20
141.6554930860043
 30
0.0
  0
VERTEX
  5
31A
  8
1
  6
CONTINUOUS
 62
     7
 10
589.7215002340823
 20
141.6400015148421
 30
0.0
  0
SEQEND
  5
544
  8
1
  6
CONTINUOUS
 62
     7
  0
LINE
  5
1C8
  8
1
  6
CONTINUOUS
 62
     7
 10
590.2215002340822
 20
141.5531774260085
 30
0.0
 11
609.7784997659177
 21
141.5531774260085
 31
0.0
  0
LINE
  5
1C9
  8
1
  6
CONTINUOUS
 62
     7
 10
589.5
 20
140.2508160935065
 30
0.0
 11
590.0
 21
140.2508160935065
 31
0.0
  0
LINE
  5
1CA
  8
1
  6
CONTINUOUS
 62
     7
 10
610.0
 20
140.2508160935065
 30
0.0
 11
610.4999999999999
 21
140.2508160935065
 31
0.0
  0
LINE
  5
1CB
  8
1
  6
CONTINUOUS
 62
     7
 10
610.4999999999999
 20
140.7717606265073
 30
0.0
 11
610.4999999999999
 21
140.2508160935065
 31
0.0
  0
LINE
  5
1CC
  8
1
  6
CONTINUOUS
 62
     7
 10
589.5
 20
140.7717606265073
 30
0.0
 11
610.4999999999999
 21
140.7717606265073
 31
0.0
  0
LINE
  5
1CD
  8
1
  6
CONTINUOUS
 62
     7
 10
589.5
 20
140.7717606265073
 30
0.0
 11
589.5
 21
140.2508160935065
 31
0.0
  0
POLYLINE
  5
1CE
  8
1
  6
CONTINUOUS
 62
     7
 66
     1
 10
0.0
 20
0.0
 30
0.0
  0
VERTEX
  5
31B
  8
1
  6
CONTINUOUS
 62
     7
 10
583.0
 20
136.8389590173671
 30
0.0
  0
VERTEX
  5
31C
  8
1
  6
CONTINUOUS
 62
     7
 10
583.0576441587903
 20
136.7373277806714
 30
0.0
  0
VERTEX
  5
31D
  8
1
  6
CONTINUOUS
 62
     7
 10
583.2283614024661
 20
136.6396021754065
 30
0.0
  0
VERTEX
  5
31E
  8
1
  6
CONTINUOUS
 62
     7
 10
583.5055911630924
 20
136.5495377417776
 30
0.0
  0
VERTEX
  5
31F
  8
1
  6
CONTINUOUS
 62
     7
 10
583.8786796564403
 20
136.4705956054602
 30
0.0
  0
VERTEX
  5
320
  8
1
  6
CONTINUOUS
 62
     7
 10
584.3332893009411
 20
136.4058094684818
 30
0.0
  0
VERTEX
  5
321
  8
1
  6
CONTINUOUS
 62
     7
 10
584.8519497029047
 20
136.357669025754
 30
0.0
  0
VERTEX
  5
322
  8
1
  6
CONTINUOUS
 62
     7
 10
585.4147290339516
 20
136.3280242874934
 30
0.0
  0
VERTEX
  5
323
  8
1
  6
CONTINUOUS
 62
     7
 10
586.0
 20
136.3180144843663
 30
0.0
  0
SEQEND
  5
545
  8
1
  6
CONTINUOUS
 62
     7
  0
POLYLINE
  5
1CF
  8
1
  6
CONTINUOUS
 62
     7
 66
     1
 10
0.0
 20
0.0
 30
0.0
  0
VERTEX
  5
324
  8
1
  6
CONTINUOUS
 62
     7
 10
614.0
 20
136.3180144843663
 30
0.0
  0
VERTEX
  5
325
  8
1
  6
CONTINUOUS
 62
     7
 10
614.5852709660484
 20
136.3280242874934
 30
0.0
  0
VERTEX
  5
326
  8
1
  6
CONTINUOUS
 62
     7
 10
615.1480502970953
 20
136.357669025754
 30
0.0
  0
VERTEX
  5
327
  8
1
  6
CONTINUOUS
 62
     7
 10
615.6667106990589
 20
136.4058094684818
 30
0.0
  0
VERTEX
  5
328
  8
1
  6
CONTINUOUS
 62
     7
 10
616.1213203435597
 20
136.4705956054602
 30
0.0
  0
VERTEX
  5
329
  8
1
  6
CONTINUOUS
 62
     7
 10
616.4944088369076
 20
136.5495377417776
 30
0.0
  0
VERTEX
  5
32A
  8
1
  6
CONTINUOUS
 62
     7
 10
616.7716385975339
 20
136.6396021754065
 30
0.0
  0
VERTEX
  5
32B
  8
1
  6
CONTINUOUS
 62
     7
 10
616.9423558412097
 20
136.7373277806714
 30
0.0
  0
VERTEX
  5
32C
  8
1
  6
CONTINUOUS
 62
     7
 10
617.0
 20
136.8389590173671
 30
0.0
  0
SEQEND
  5
546
  8
1
  6
CONTINUOUS
 62
     7
  0
POLYLINE
  5
1D0
  8
1
  6
CONTINUOUS
 62
     7
 66
     1
 10
0.0
 20
0.0
 30
0.0
  0
VERTEX
  5
32D
  8
1
  6
CONTINUOUS
 62
     7
 10
609.7784997659177
 20
141.5531774260086
 30
0.0
  0
VERTEX
  5
32E
  8
1
  6
CONTINUOUS
 62
     7
 10
609.8760449269257
 20
141.5548457265298
 30
0.0
  0
VERTEX
  5
32F
  8
1
  6
CONTINUOUS
 62
     7
 10
609.9698414821002
 20
141.5597865162399
 30
0.0
  0
VERTEX
  5
330
  8
1
  6
CONTINUOUS
 62
     7
 10
610.0562848824275
 20
141.5678099233612
 30
0.0
  0
VERTEX
  5
331
  8
1
  6
CONTINUOUS
 62
     7
 10
610.1320531565109
 20
141.5786076128576
 30
0.0
  0
VERTEX
  5
332
  8
1
  6
CONTINUOUS
 62
     7
 10
610.1942345720689
 20
141.5917646355771
 30
0.0
  0
VERTEX
  5
333
  8
1
  6
CONTINUOUS
 62
     7
 10
610.2404395321732
 20
141.6067753745153
 30
0.0
  0
VERTEX
  5
334
  8
1
  6
CONTINUOUS
 62
     7
 10
610.2688924061192
 20
141.6230629753928
 30
0.0
  0
VERTEX
  5
335
  8
1
  6
CONTINUOUS
 62
     7
 10
610.2784997659176
 20
141.6400015148421
 30
0.0
  0
SEQEND
  5
547
  8
1
  6
CONTINUOUS
 62
     7
  0
POLYLINE
  5
1D1
  8
1
  6
CONTINUOUS
 62
     7
 66
     1
 10
0.0
 20
0.0
 30
0.0
  0
VERTEX
  5
336
  8
1
  6
CONTINUOUS
 62
     7
 10
589.7215002340823
 20
141.6400015148421
 30
0.0
  0
VERTEX
  5
337
  8
1
  6
CONTINUOUS
 62
     7
 10
589.7311075938807
 20
141.6230629753928
 30
0.0
  0
VERTEX
  5
338
  8
1
  6
CONTINUOUS
 62
     7
 10
589.7595604678266
 20
141.6067753745153
 30
0.0
  0
VERTEX
  5
339
  8
1
  6
CONTINUOUS
 62
     7
 10
589.805765427931
 20
141.5917646355771
 30
0.0
  0
VERTEX
  5
33A
  8
1
  6
CONTINUOUS
 62
     7
 10
589.867946843489
 20
141.5786076128576
 30
0.0
  0
VERTEX
  5
33B
  8
1
  6
CONTINUOUS
 62
     7
 10
589.9437151175724
 20
141.5678099233612
 30
0.0
  0
VERTEX
  5
33C
  8
1
  6
CONTINUOUS
 62
     7
 10
590.0301585178997
 20
141.5597865162399
 30
0.0
  0
VERTEX
  5
33D
  8
1
  6
CONTINUOUS
 62
     7
 10
590.1239550730742
 20
141.5548457265298
 30
0.0
  0
VERTEX
  5
33E
  8
1
  6
CONTINUOUS
 62
     7
 10
590.2215002340822
 20
141.5531774260086
 30
0.0
  0
SEQEND
  5
548
  8
1
  6
CONTINUOUS
 62
     7
  0
LINE
  5
1D2
  8
1
  6
CONTINUOUS
 62
     7
 10
607.4999999999999
 20
141.5531774260085
 30
0.0
 11
607.4999999999999
 21
142.442362847344
 31
0.0
  0
POLYLINE
  5
1D3
  8
1
  6
CONTINUOUS
 62
     7
 66
     1
 10
0.0
 20
0.0
 30
0.0
  0
VERTEX
  5
33F
  8
1
  6
CONTINUOUS
 62
     7
 10
607.0
 20
142.942362847344
 30
0.0
  0
VERTEX
  5
340
  8
1
  6
CONTINUOUS
 62
     7
 10
607.0245338371637
 20
142.9417605754466
 30
0.0
  0
VERTEX
  5
341
  8
1
  6
CONTINUOUS
 62
     7
 10
607.0490085701647
 20
142.9399552106801
 30
0.0
  0
VERTEX
  5
342
  8
1
  6
CONTINUOUS
 62
     7
 10
607.0733652372277
 20
142.9369511023264
 30
0.0
  0
VERTEX
  5
343
  8
1
  6
CONTINUOUS
 62
     7
 10
607.097545161008
 20
142.9327554875456
 30
0.0
  0
VERTEX
  5
344
  8
1
  6
CONTINUOUS
 62
     7
 10
607.1214900899516
 20
142.9273784739413
 30
0.0
  0
VERTEX
  5
345
  8
1
  6
CONTINUOUS
 62
     7
 10
607.1451423386271
 20
142.9208330152101
 30
0.0
  0
VERTEX
  5
346
  8
1
  6
CONTINUOUS
 62
     7
 10
607.1684449266961
 20
142.9131348799355
 30
0.0
  0
VERTEX
  5
347
  8
1
  6
CONTINUOUS
 62
     7
 10
607.1913417161825
 20
142.9043026135996
 30
0.0
  0
VERTEX
  5
348
  8
1
  6
CONTINUOUS
 62
     7
 10
607.2137775467152
 20
142.8943574939057
 30
0.0
  0
VERTEX
  5
349
  8
1
  6
CONTINUOUS
 62
     7
 10
607.235698368413
 20
142.8833234795182
 30
0.0
  0
VERTEX
  5
34A
  8
1
  6
CONTINUOUS
 62
     7
 10
607.2570513720966
 20
142.8712271523441
 30
0.0
  0
VERTEX
  5
34B
  8
1
  6
CONTINUOUS
 62
     7
 10
607.2777851165098
 20
142.8580976534952
 30
0.0
  0
VERTEX
  5
34C
  8
1
  6
CONTINUOUS
 62
     7
 10
607.2978496522462
 20
142.8439666130843
 30
0.0
  0
VERTEX
  5
34D
  8
1
  6
CONTINUOUS
 62
     7
 10
607.3171966420819
 20
142.8288680740254
 30
0.0
  0
VERTEX
  5
34E
  8
1
  6
CONTINUOUS
 62
     7
 10
607.3357794774234
 20
142.8128384100214
 30
0.0
  0
VERTEX
  5
34F
  8
1
  6
CONTINUOUS
 62
     7
 10
607.3535533905932
 20
142.7959162379373
 30
0.0
  0
VERTEX
  5
350
  8
1
  6
CONTINUOUS
 62
     7
 10
607.3704755626774
 20
142.7781423247675
 30
0.0
  0
VERTEX
  5
351
  8
1
  6
CONTINUOUS
 62
     7
 10
607.3865052266814
 20
142.7595594894258
 30
0.0
  0
VERTEX
  5
352
  8
1
  6
CONTINUOUS
 62
     7
 10
607.4016037657402
 20
142.7402124995902
 30
0.0
  0
VERTEX
  5
353
  8
1
  6
CONTINUOUS
 62
     7
 10
607.4157348061512
 20
142.7201479638538
 30
0.0
  0
VERTEX
  5
354
  8
1
  6
CONTINUOUS
 62
     7
 10
607.428864305
 20
142.6994142194406
 30
0.0
  0
VERTEX
  5
355
  8
1
  6
CONTINUOUS
 62
     7
 10
607.4409606321741
 20
142.678061215757
 30
0.0
  0
VERTEX
  5
356
  8
1
  6
CONTINUOUS
 62
     7
 10
607.4519946465617
 20
142.6561403940591
 30
0.0
  0
VERTEX
  5
357
  8
1
  6
CONTINUOUS
 62
     7
 10
607.4619397662556
 20
142.6337045635265
 30
0.0
  0
VERTEX
  5
358
  8
1
  6
CONTINUOUS
 62
     7
 10
607.4707720325914
 20
142.6108077740401
 30
0.0
  0
VERTEX
  5
359
  8
1
  6
CONTINUOUS
 62
     7
 10
607.478470167866
 20
142.5875051859712
 30
0.0
  0
VERTEX
  5
35A
  8
1
  6
CONTINUOUS
 62
     7
 10
607.4850156265973
 20
142.5638529372956
 30
0.0
  0
VERTEX
  5
35B
  8
1
  6
CONTINUOUS
 62
     7
 10
607.4903926402015
 20
142.5399080083521
 30
0.0
  0
VERTEX
  5
35C
  8
1
  6
CONTINUOUS
 62
     7
 10
607.4945882549823
 20
142.5157280845717
 30
0.0
  0
VERTEX
  5
35D
  8
1
  6
CONTINUOUS
 62
     7
 10
607.4975923633361
 20
142.4913714175088
 30
0.0
  0
VERTEX
  5
35E
  8
1
  6
CONTINUOUS
 62
     7
 10
607.4993977281025
 20
142.4668966845077
 30
0.0
  0
VERTEX
  5
35F
  8
1
  6
CONTINUOUS
 62
     7
 10
607.4999999999999
 20
142.442362847344
 30
0.0
  0
SEQEND
  5
549
  8
1
  6
CONTINUOUS
 62
     7
  0
POLYLINE
  5
1D4
  8
1
  6
CONTINUOUS
 62
     7
 66
     1
 10
0.0
 20
0.0
 30
0.0
  0
VERTEX
  5
360
  8
1
  6
CONTINUOUS
 62
     7
 10
593.0
 20
142.942362847344
 30
0.0
  0
VERTEX
  5
361
  8
1
  6
CONTINUOUS
 62
     7
 10
592.9754661628363
 20
142.9417605754466
 30
0.0
  0
VERTEX
  5
362
  8
1
  6
CONTINUOUS
 62
     7
 10
592.9509914298352
 20
142.9399552106801
 30
0.0
  0
VERTEX
  5
363
  8
1
  6
CONTINUOUS
 62
     7
 10
592.9266347627723
 20
142.9369511023264
 30
0.0
  0
VERTEX
  5
364
  8
1
  6
CONTINUOUS
 62
     7
 10
592.902454838992
 20
142.9327554875456
 30
0.0
  0
VERTEX
  5
365
  8
1
  6
CONTINUOUS
 62
     7
 10
592.8785099100483
 20
142.9273784739413
 30
0.0
  0
VERTEX
  5
366
  8
1
  6
CONTINUOUS
 62
     7
 10
592.8548576613728
 20
142.9208330152101
 30
0.0
  0
VERTEX
  5
367
  8
1
  6
CONTINUOUS
 62
     7
 10
592.8315550733039
 20
142.9131348799355
 30
0.0
  0
VERTEX
  5
368
  8
1
  6
CONTINUOUS
 62
     7
 10
592.8086582838174
 20
142.9043026135996
 30
0.0
  0
VERTEX
  5
369
  8
1
  6
CONTINUOUS
 62
     7
 10
592.7862224532848
 20
142.8943574939057
 30
0.0
  0
VERTEX
  5
36A
  8
1
  6
CONTINUOUS
 62
     7
 10
592.7643016315869
 20
142.8833234795182
 30
0.0
  0
VERTEX
  5
36B
  8
1
  6
CONTINUOUS
 62
     7
 10
592.7429486279033
 20
142.8712271523441
 30
0.0
  0
VERTEX
  5
36C
  8
1
  6
CONTINUOUS
 62
     7
 10
592.7222148834902
 20
142.8580976534952
 30
0.0
  0
VERTEX
  5
36D
  8
1
  6
CONTINUOUS
 62
     7
 10
592.7021503477538
 20
142.8439666130843
 30
0.0
  0
VERTEX
  5
36E
  8
1
  6
CONTINUOUS
 62
     7
 10
592.6828033579181
 20
142.8288680740254
 30
0.0
  0
VERTEX
  5
36F
  8
1
  6
CONTINUOUS
 62
     7
 10
592.6642205225764
 20
142.8128384100214
 30
0.0
  0
VERTEX
  5
370
  8
1
  6
CONTINUOUS
 62
     7
 10
592.6464466094067
 20
142.7959162379373
 30
0.0
  0
VERTEX
  5
371
  8
1
  6
CONTINUOUS
 62
     7
 10
592.6295244373225
 20
142.7781423247675
 30
0.0
  0
VERTEX
  5
372
  8
1
  6
CONTINUOUS
 62
     7
 10
592.6134947733186
 20
142.7595594894258
 30
0.0
  0
VERTEX
  5
373
  8
1
  6
CONTINUOUS
 62
     7
 10
592.5983962342597
 20
142.7402124995902
 30
0.0
  0
VERTEX
  5
374
  8
1
  6
CONTINUOUS
 62
     7
 10
592.5842651938486
 20
142.7201479638538
 30
0.0
  0
VERTEX
  5
375
  8
1
  6
CONTINUOUS
 62
     7
 10
592.5711356949998
 20
142.6994142194406
 30
0.0
  0
VERTEX
  5
376
  8
1
  6
CONTINUOUS
 62
     7
 10
592.5590393678258
 20
142.678061215757
 30
0.0
  0
VERTEX
  5
377
  8
1
  6
CONTINUOUS
 62
     7
 10
592.5480053534382
 20
142.6561403940591
 30
0.0
  0
VERTEX
  5
378
  8
1
  6
CONTINUOUS
 62
     7
 10
592.5380602337443
 20
142.6337045635265
 30
0.0
  0
VERTEX
  5
379
  8
1
  6
CONTINUOUS
 62
     7
 10
592.5292279674085
 20
142.6108077740401
 30
0.0
  0
VERTEX
  5
37A
  8
1
  6
CONTINUOUS
 62
     7
 10
592.5215298321339
 20
142.5875051859712
 30
0.0
  0
VERTEX
  5
37B
  8
1
  6
CONTINUOUS
 62
     7
 10
592.5149843734026
 20
142.5638529372956
 30
0.0
  0
VERTEX
  5
37C
  8
1
  6
CONTINUOUS
 62
     7
 10
592.5096073597985
 20
142.5399080083521
 30
0.0
  0
VERTEX
  5
37D
  8
1
  6
CONTINUOUS
 62
     7
 10
592.5054117450176
 20
142.5157280845717
 30
0.0
  0
VERTEX
  5
37E
  8
1
  6
CONTINUOUS
 62
     7
 10
592.5024076366639
 20
142.4913714175088
 30
0.0
  0
VERTEX
  5
37F
  8
1
  6
CONTINUOUS
 62
     7
 10
592.5006022718974
 20
142.4668966845077
 30
0.0
  0
VERTEX
  5
380
  8
1
  6
CONTINUOUS
 62
     7
 10
592.5
 20
142.442362847344
 30
0.0
  0
SEQEND
  5
54A
  8
1
  6
CONTINUOUS
 62
     7
  0
LINE
  5
1D5
  8
1
  6
CONTINUOUS
 62
     7
 10
592.5
 20
141.5531774260085
 30
0.0
 11
592.5
 21
142.442362847344
 31
0.0
  0
LINE
  5
1D6
  8
1
  6
CONTINUOUS
 62
     7
 10
608.7763932022501
 20
173.9078623198045
 30
0.0
 11
608.1617834407456
 21
173.942362847344
 31
0.0
  0
LINE
  5
1D7
  8
1
  6
CONTINUOUS
 62
     7
 10
590.7763932022501
 20
173.9078623198045
 30
0.0
 11
590.1617834407455
 21
173.942362847344
 31
0.0
  0
LINE
  5
1D8
  8
1
  6
CONTINUOUS
 62
     7
 10
609.22360679775
 20
173.9078623198045
 30
0.0
 11
608.77639320225
 21
173.9078623198045
 31
0.0
  0
LINE
  5
1D9
  8
1
  6
CONTINUOUS
 62
     7
 10
609.8382165592545
 20
173.942362847344
 30
0.0
 11
609.2236067977499
 21
173.9078623198045
 31
0.0
  0
LINE
  5
1DA
  8
1
  6
CONTINUOUS
 62
     7
 10
591.22360679775
 20
173.9078623198045
 30
0.0
 11
590.77639320225
 21
173.9078623198045
 31
0.0
  0
LINE
  5
1DB
  8
1
  6
CONTINUOUS
 62
     7
 10
591.8382165592544
 20
173.942362847344
 30
0.0
 11
591.2236067977499
 21
173.9078623198045
 31
0.0
  0
ARC
  5
1DC
  8
1
  6
CONTINUOUS
 62
     7
 10
589.0
 20
158.942362847344
 30
0.0
 40
1.999999999999968
 50
225.4710554572798
 51
314.1011335330016
  0
ARC
  5
1DD
  8
1
  6
CONTINUOUS
 62
     7
 10
600.0
 20
152.9423628473439
 30
0.0
 40
3.199999999999981
 50
179.999999999998
 51
0.0
  0
ARC
  5
1DE
  8
1
  6
CONTINUOUS
 62
     7
 10
611.0
 20
158.942362847344
 30
0.0
 40
2.000000000000009
 50
225.8988664669984
 51
314.5289445427134
  0
ARC
  5
1DF
  8
1
  6
CONTINUOUS
 62
     7
 10
611.8
 20
16.74236284734398
 30
0.0
 40
0.3000000000000086
 50
269.9999999999987
 51
0.0
  0
ARC
  5
1E0
  8
1
  6
CONTINUOUS
 62
     7
 10
610.8
 20
16.74236284734398
 30
0.0
 40
0.299999999999967
 50
180.0
 51
269.9999999999984
  0
LINE
  5
1E1
  8
1
  6
CONTINUOUS
 62
     7
 10
610.8
 20
16.44236284734399
 30
0.0
 11
611.8
 21
16.44236284734399
 31
0.0
  0
LINE
  5
1E2
  8
1
  6
CONTINUOUS
 62
     7
 10
588.1999999999999
 20
16.44236284734399
 30
0.0
 11
589.1999999999999
 21
16.44236284734399
 31
0.0
  0
ARC
  5
1E3
  8
1
  6
CONTINUOUS
 62
     7
 10
588.1999999999999
 20
16.74236284734398
 30
0.0
 40
0.299999999999967
 50
180.0
 51
270.0000000000013
  0
ARC
  5
1E4
  8
1
  6
CONTINUOUS
 62
     7
 10
589.1999999999999
 20
16.74236284734398
 30
0.0
 40
0.2999999999999947
 50
270.0000000000016
 51
0.0
  0
LINE
  5
1E5
  8
1
  6
CONTINUOUS
 62
     7
 10
589.4999999999999
 20
16.94236284734399
 30
0.0
 11
590.0
 21
16.94236284734399
 31
0.0
  0
LINE
  5
1E6
  8
1
  6
CONTINUOUS
 62
     7
 10
610.0
 20
16.94236284734399
 30
0.0
 11
610.5
 21
16.94236284734399
 31
0.0
  0
LINE
  5
1E7
  8
1
  6
CONTINUOUS
 62
     7
 10
610.0
 20
140.6508160935066
 30
0.0
 11
590.0
 21
140.6508160935066
 31
0.0
  0
LINE
  5
1E8
  8
1
  6
CONTINUOUS
 62
     7
 10
593.0
 20
168.6789833432827
 30
0.0
 11
593.0
 21
168.2959611217231
 31
0.0
  0
LINE
  5
1E9
  8
1
  6
CONTINUOUS
 62
     7
 10
607.0
 20
168.2959611217231
 30
0.0
 11
607.0
 21
168.6789833432827
 31
0.0
  0
LINE
  5
1EA
  8
1
  6
CONTINUOUS
 62
     7
 10
590.1617834407456
 20
173.942362847344
 30
0.0
 11
583.0
 21
173.942362847344
 31
0.0
  0
LINE
  5
1EB
  8
1
  6
CONTINUOUS
 62
     7
 10
608.1617834407456
 20
173.942362847344
 30
0.0
 11
591.8382165592544
 21
173.942362847344
 31
0.0
  0
LINE
  5
1EC
  8
1
  6
CONTINUOUS
 62
     7
 10
617.0
 20
173.942362847344
 30
0.0
 11
609.8382165592544
 21
173.942362847344
 31
0.0
  0
ENDBLK
  8
0
  0
BLOCK
  8
0
  2
D_FRAME_VIEW_1933
 70
     0
 10
0.0
 20
0.0
 30
0.0
  0
LINE
  5
1F1
  8
1
  6
CONTINUOUS
 62
     7
 10
813.3794600215766
 20
313.2
 30
0.0
 11
813.3794600215766
 21
306.8000000000001
 31
0.0
  0
LINE
  5
1F2
  8
1
  6
CONTINUOUS
 62
     7
 10
467.3794600215755
 20
320.5000000000002
 30
0.0
 11
467.3794600215755
 21
299.5000000000001
 31
0.0
  0
CIRCLE
  5
1F3
  8
1
  6
CONTINUOUS
 62
     7
 10
780.879460021576
 20
310.0000000000001
 30
0.0
 40
3.500000000000059
  0
CIRCLE
  5
1F4
  8
1
  6
CONTINUOUS
 62
     7
 10
795.879460021576
 20
310.0000000000001
 30
0.0
 40
3.500000000000059
  0
LINE
  5
1F5
  8
1
  6
CONTINUOUS
 62
     7
 10
813.2794600215761
 20
313.2
 30
0.0
 11
813.2794600215761
 21
306.8000000000001
 31
0.0
  0
LINE
  5
1F6
  8
1
  6
CONTINUOUS
 62
     7
 10
771.879460021576
 20
315.0000000000001
 30
0.0
 11
771.879460021576
 21
305.0000000000001
 31
0.0
  0
ARC
  5
1F7
  8
1
  6
CONTINUOUS
 62
     7
 10
776.879460021576
 20
315.0000000000001
 30
0.0
 40
5.000000000000004
 50
90.0
 51
180.0
  0
ARC
  5
1F8
  8
1
  6
CONTINUOUS
 62
     7
 10
776.879460021576
 20
305.0000000000001
 30
0.0
 40
5.000000000000004
 50
180.0
 51
270.0
  0
CIRCLE
  5
1F9
  8
1
  6
CONTINUOUS
 62
     7
 10
499.8794600215761
 20
310.0000000000001
 30
0.0
 40
3.500000000000003
  0
CIRCLE
  5
1FA
  8
1
  6
CONTINUOUS
 62
     7
 10
484.8794600215761
 20
310.0000000000001
 30
0.0
 40
3.500000000000003
  0
LINE
  5
1FB
  8
1
  6
CONTINUOUS
 62
     7
 10
467.479460021576
 20
320.0000000000001
 30
0.0
 11
467.479460021576
 21
300.0000000000001
 31
0.0
  0
LINE
  5
1FC
  8
1
  6
CONTINUOUS
 62
     7
 10
467.479460021576
 20
320.0000000000001
 30
0.0
 11
467.6848673109084
 21
320.0000000000001
 31
0.0
  0
LINE
  5
1FD
  8
1
  6
CONTINUOUS
 62
     7
 10
467.479460021576
 20
300.0000000000001
 30
0.0
 11
467.6848673109084
 21
300.0000000000001
 31
0.0
  0
LINE
  5
1FE
  8
1
  6
CONTINUOUS
 62
     7
 10
508.879460021576
 20
315.0000000000001
 30
0.0
 11
508.879460021576
 21
305.0000000000001
 31
0.0
  0
ARC
  5
1FF
  8
1
  6
CONTINUOUS
 62
     7
 10
503.879460021576
 20
315.0000000000001
 30
0.0
 40
5.000000000000004
 50
0.0
 51
90.0
  0
ARC
  5
200
  8
1
  6
CONTINUOUS
 62
     7
 10
503.879460021576
 20
305.0000000000001
 30
0.0
 40
5.000000000000004
 50
270.0
 51
0.0
  0
POLYLINE
  5
201
  8
1
  6
CONTINUOUS
 62
     7
 66
     1
 10
0.0
 20
0.0
 30
0.0
  0
VERTEX
  5
383
  8
1
  6
CONTINUOUS
 62
     7
 10
837.4098568748116
 20
303.0000000000001
 30
0.0
  0
VERTEX
  5
384
  8
1
  6
CONTINUOUS
 62
     7
 10
837.6469964271015
 20
303.1345030371774
 30
0.0
  0
VERTEX
  5
385
  8
1
  6
CONTINUOUS
 62
     7
 10
837.8750228393862
 20
303.532843272421
 30
0.0
  0
VERTEX
  5
386
  8
1
  6
CONTINUOUS
 62
     7
 10
838.0851731845205
 20
304.1797127138822
 30
0.0
  0
VERTEX
  5
387
  8
1
  6
CONTINUOUS
 62
     7
 10
838.2693715025944
 20
305.0502525316942
 30
0.0
  0
VERTEX
  5
388
  8
1
  6
CONTINUOUS
 62
     7
 10
838.4205391555439
 20
306.1110083688628
 30
0.0
  0
VERTEX
  5
389
  8
1
  6
CONTINUOUS
 62
     7
 10
838.5328668552421
 20
307.3212159734445
 30
0.0
  0
VERTEX
  5
38A
  8
1
  6
CONTINUOUS
 62
     7
 10
838.6020379111835
 20
308.6343677458872
 30
0.0
  0
VERTEX
  5
38B
  8
1
  6
CONTINUOUS
 62
     7
 10
838.6253941184801
 20
310.0000000000001
 30
0.0
  0
VERTEX
  5
38C
  8
1
  6
CONTINUOUS
 62
     7
 10
838.6020379111835
 20
311.3656322541129
 30
0.0
  0
VERTEX
  5
38D
  8
1
  6
CONTINUOUS
 62
     7
 10
838.5328668552421
 20
312.6787840265557
 30
0.0
  0
VERTEX
  5
38E
  8
1
  6
CONTINUOUS
 62
     7
 10
838.4205391555439
 20
313.8889916311373
 30
0.0
  0
VERTEX
  5
38F
  8
1
  6
CONTINUOUS
 62
     7
 10
838.2693715025944
 20
314.9497474683059
 30
0.0
  0
VERTEX
  5
390
  8
1
  6
CONTINUOUS
 62
     7
 10
838.0851731845205
 20
315.8202872861179
 30
0.0
  0
VERTEX
  5
391
  8
1
  6
CONTINUOUS
 62
     7
 10
837.8750228393862
 20
316.4671567275791
 30
0.0
  0
VERTEX
  5
392
  8
1
  6
CONTINUOUS
 62
     7
 10
837.6469964271015
 20
316.8654969628226
 30
0.0
  0
VERTEX
  5
393
  8
1
  6
CONTINUOUS
 62
     7
 10
837.4098568748116
 20
317.0000000000001
 30
0.0
  0
SEQEND
  5
54B
  8
1
  6
CONTINUOUS
 62
     7
  0
POLYLINE
  5
202
  8
1
  6
CONTINUOUS
 62
     7
 66
     1
 10
0.0
 20
0.0
 30
0.0
  0
VERTEX
  5
394
  8
1
  6
CONTINUOUS
 62
     7
 10
837.4098568748116
 20
317.0000000000001
 30
0.0
  0
VERTEX
  5
395
  8
1
  6
CONTINUOUS
 62
     7
 10
837.1827024682144
 20
316.8766849326442
 30
0.0
  0
VERTEX
  5
396
  8
1
  6
CONTINUOUS
 62
     7
 10
836.9635513647457
 20
316.5110844751015
 30
0.0
  0
VERTEX
  5
397
  8
1
  6
CONTINUOUS
 62
     7
 10
836.7601248881442
 20
315.9160797830997
 30
0.0
  0
VERTEX
  5
398
  8
1
  6
CONTINUOUS
 62
     7
 10
836.579590338314
 20
315.112634583402
 30
0.0
  0
VERTEX
  5
399
  8
1
  6
CONTINUOUS
 62
     7
 10
836.4283084667327
 20
314.1290565614135
 30
0.0
  0
VERTEX
  5
39A
  8
1
  6
CONTINUOUS
 62
     7
 10
836.3116093688814
 20
313.0000000000002
 30
0.0
  0
SEQEND
  5
54C
  8
1
  6
CONTINUOUS
 62
     7
  0
POLYLINE
  5
203
  8
1
  6
CONTINUOUS
 62
     7
 66
     1
 10
0.0
 20
0.0
 30
0.0
  0
VERTEX
  5
39B
  8
1
  6
CONTINUOUS
 62
     7
 10
836.3116093688814
 20
307.0
 30
0.0
  0
VERTEX
  5
39C
  8
1
  6
CONTINUOUS
 62
     7
 10
836.4283084667327
 20
305.8709434385866
 30
0.0
  0
VERTEX
  5
39D
  8
1
  6
CONTINUOUS
 62
     7
 10
836.579590338314
 20
304.8873654165981
 30
0.0
  0
VERTEX
  5
39E
  8
1
  6
CONTINUOUS
 62
     7
 10
836.7601248881442
 20
304.0839202169004
 30
0.0
  0
VERTEX
  5
39F
  8
1
  6
CONTINUOUS
 62
     7
 10
836.9635513647457
 20
303.4889155248986
 30
0.0
  0
VERTEX
  5
3A0
  8
1
  6
CONTINUOUS
 62
     7
 10
837.1827024682144
 20
303.1233150673559
 30
0.0
  0
VERTEX
  5
3A1
  8
1
  6
CONTINUOUS
 62
     7
 10
837.4098568748116
 20
303.0000000000001
 30
0.0
  0
SEQEND
  5
54D
  8
1
  6
CONTINUOUS
 62
     7
  0
POLYLINE
  5
204
  8
1
  6
CONTINUOUS
 62
     7
 66
     1
 10
0.0
 20
0.0
 30
0.0
  0
VERTEX
  5
3A2
  8
1
  6
CONTINUOUS
 62
     7
 10
838.6901069537274
 20
303.0000000000001
 30
0.0
  0
VERTEX
  5
3A3
  8
1
  6
CONTINUOUS
 62
     7
 10
838.9272465060174
 20
303.1345030371774
 30
0.0
  0
VERTEX
  5
3A4
  8
1
  6
CONTINUOUS
 62
     7
 10
839.1552729183021
 20
303.532843272421
 30
0.0
  0
VERTEX
  5
3A5
  8
1
  6
CONTINUOUS
 62
     7
 10
839.3654232634364
 20
304.1797127138822
 30
0.0
  0
VERTEX
  5
3A6
  8
1
  6
CONTINUOUS
 62
     7
 10
839.5496215815102
 20
305.0502525316942
 30
0.0
  0
VERTEX
  5
3A7
  8
1
  6
CONTINUOUS
 62
     7
 10
839.7007892344598
 20
306.1110083688628
 30
0.0
  0
VERTEX
  5
3A8
  8
1
  6
CONTINUOUS
 62
     7
 10
839.813116934158
 20
307.3212159734445
 30
0.0
  0
VERTEX
  5
3A9
  8
1
  6
CONTINUOUS
 62
     7
 10
839.8822879900994
 20
308.6343677458872
 30
0.0
  0
VERTEX
  5
3AA
  8
1
  6
CONTINUOUS
 62
     7
 10
839.905644197396
 20
310.0000000000001
 30
0.0
  0
VERTEX
  5
3AB
  8
1
  6
CONTINUOUS
 62
     7
 10
839.8822879900994
 20
311.3656322541129
 30
0.0
  0
VERTEX
  5
3AC
  8
1
  6
CONTINUOUS
 62
     7
 10
839.813116934158
 20
312.6787840265557
 30
0.0
  0
VERTEX
  5
3AD
  8
1
  6
CONTINUOUS
 62
     7
 10
839.7007892344598
 20
313.8889916311373
 30
0.0
  0
VERTEX
  5
3AE
  8
1
  6
CONTINUOUS
 62
     7
 10
839.5496215815102
 20
314.9497474683059
 30
0.0
  0
VERTEX
  5
3AF
  8
1
  6
CONTINUOUS
 62
     7
 10
839.3654232634364
 20
315.8202872861179
 30
0.0
  0
VERTEX
  5
3B0
  8
1
  6
CONTINUOUS
 62
     7
 10
839.1552729183021
 20
316.4671567275791
 30
0.0
  0
VERTEX
  5
3B1
  8
1
  6
CONTINUOUS
 62
     7
 10
838.9272465060174
 20
316.8654969628226
 30
0.0
  0
VERTEX
  5
3B2
  8
1
  6
CONTINUOUS
 62
     7
 10
838.6901069537274
 20
317.0000000000001
 30
0.0
  0
SEQEND
  5
54E
  8
1
  6
CONTINUOUS
 62
     7
  0
LINE
  5
205
  8
1
  6
CONTINUOUS
 62
     7
 10
844.1769065364589
 20
310.0000000000001
 30
0.0
 11
839.905644197396
 21
310.0000000000001
 31
0.0
  0
ARC
  5
206
  8
1
  6
CONTINUOUS
 62
     7
 10
836.8549234259855
 20
308.1888396337038
 30
0.0
 40
7.542661237421552
 50
354.7601155497055
 51
13.89375247157489
  0
ARC
  5
207
  8
1
  6
CONTINUOUS
 62
     7
 10
835.9541129608372
 20
308.477828224751
 30
0.0
 40
8.468593436598018
 50
335.7528401783524
 51
353.3695395535141
  0
ARC
  5
208
  8
1
  6
CONTINUOUS
 62
     7
 10
836.119321317334
 20
311.5677981573425
 30
0.0
 40
8.299263310345713
 50
6.449269371743369
 51
24.42835089639034
  0
ARC
  5
209
  8
1
  6
CONTINUOUS
 62
     7
 10
836.7415002797575
 20
311.8197423176084
 30
0.0
 40
7.654849985773069
 50
346.2477463090103
 51
5.098385669709159
  0
POLYLINE
  5
20A
  8
1
  6
CONTINUOUS
 62
     7
 66
     1
 10
0.0
 20
0.0
 30
0.0
  0
VERTEX
  5
3B3
  8
1
  6
CONTINUOUS
 62
     7
 10
844.3660643846907
 20
307.5000000000001
 30
0.0
  0
VERTEX
  5
3B4
  8
1
  6
CONTINUOUS
 62
     7
 10
844.4398918733532
 20
308.4549150281253
 30
0.0
  0
VERTEX
  5
3B5
  8
1
  6
CONTINUOUS
 62
     7
 10
844.4776302926914
 20
309.4773576836618
 30
0.0
  0
VERTEX
  5
3B6
  8
1
  6
CONTINUOUS
 62
     7
 10
844.4776302926914
 20
310.5226423163383
 30
0.0
  0
VERTEX
  5
3B7
  8
1
  6
CONTINUOUS
 62
     7
 10
844.4398918733532
 20
311.5450849718748
 30
0.0
  0
VERTEX
  5
3B8
  8
1
  6
CONTINUOUS
 62
     7
 10
844.3660643846907
 20
312.5000000000001
 30
0.0
  0
SEQEND
  5
54F
  8
1
  6
CONTINUOUS
 62
     7
  0
POLYLINE
  5
20B
  8
1
  6
CONTINUOUS
 62
     7
 66
     1
 10
0.0
 20
0.0
 30
0.0
  0
VERTEX
  5
3B9
  8
1
  6
CONTINUOUS
 62
     7
 10
844.3660643846907
 20
312.5000000000001
 30
0.0
  0
VERTEX
  5
3BA
  8
1
  6
CONTINUOUS
 62
     7
 10
844.2738262566365
 20
313.2508441890618
 30
0.0
  0
VERTEX
  5
3BB
  8
1
  6
CONTINUOUS
 62
     7
 10
844.159266721768
 20
313.8916905663476
 30
0.0
  0
VERTEX
  5
3BC
  8
1
  6
CONTINUOUS
 62
     7
 10
844.0262620957188
 20
314.4008550107228
 30
0.0
  0
VERTEX
  5
3BD
  8
1
  6
CONTINUOUS
 62
     7
 10
843.8793128149823
 20
314.7611090819859
 30
0.0
  0
SEQEND
  5
550
  8
1
  6
CONTINUOUS
 62
     7
  0
POLYLINE
  5
20C
  8
1
  6
CONTINUOUS
 62
     7
 66
     1
 10
0.0
 20
0.0
 30
0.0
  0
VERTEX
  5
3BE
  8
1
  6
CONTINUOUS
 62
     7
 10
843.8793128149823
 20
305.2388909180142
 30
0.0
  0
VERTEX
  5
3BF
  8
1
  6
CONTINUOUS
 62
     7
 10
844.0262620957188
 20
305.5991449892773
 30
0.0
  0
VERTEX
  5
3C0
  8
1
  6
CONTINUOUS
 62
     7
 10
844.159266721768
 20
306.1083094336525
 30
0.0
  0
VERTEX
  5
3C1
  8
1
  6
CONTINUOUS
 62
     7
 10
844.2738262566365
 20
306.7491558109383
 30
0.0
  0
VERTEX
  5
3C2
  8
1
  6
CONTINUOUS
 62
     7
 10
844.3660643846907
 20
307.5000000000001
 30
0.0
  0
SEQEND
  5
551
  8
1
  6
CONTINUOUS
 62
     7
  0
POLYLINE
  5
20D
  8
1
  6
CONTINUOUS
 62
     7
 66
     1
 10
0.0
 20
0.0
 30
0.0
  0
VERTEX
  5
3C3
  8
1
  6
CONTINUOUS
 62
     7
 10
814.164184191663
 20
310.0000000000001
 30
0.0
  0
VERTEX
  5
3C4
  8
1
  6
CONTINUOUS
 62
     7
 10
814.2806672387447
 20
308.6343677458872
 30
0.0
  0
VERTEX
  5
3C5
  8
1
  6
CONTINUOUS
 62
     7
 10
814.6256400018152
 20
307.3212159734445
 30
0.0
  0
VERTEX
  5
3C6
  8
1
  6
CONTINUOUS
 62
     7
 10
815.1858453710524
 20
306.1110083688628
 30
0.0
  0
VERTEX
  5
3C7
  8
1
  6
CONTINUOUS
 62
     7
 10
815.9397549682835
 20
305.0502525316942
 30
0.0
  0
VERTEX
  5
3C8
  8
1
  6
CONTINUOUS
 62
     7
 10
816.8583964704842
 20
304.1797127138822
 30
0.0
  0
VERTEX
  5
3C9
  8
1
  6
CONTINUOUS
 62
     7
 10
817.906466999905
 20
303.532843272421
 30
0.0
  0
VERTEX
  5
3CA
  8
1
  6
CONTINUOUS
 62
     7
 10
819.0436897938649
 20
303.1345030371774
 30
0.0
  0
VERTEX
  5
3CB
  8
1
  6
CONTINUOUS
 62
     7
 10
820.2263620181541
 20
303.0000000000001
 30
0.0
  0
SEQEND
  5
552
  8
1
  6
CONTINUOUS
 62
     7
  0
POLYLINE
  5
20E
  8
1
  6
CONTINUOUS
 62
     7
 66
     1
 10
0.0
 20
0.0
 30
0.0
  0
VERTEX
  5
3CC
  8
1
  6
CONTINUOUS
 62
     7
 10
820.2263620181541
 20
317.0000000000001
 30
0.0
  0
VERTEX
  5
3CD
  8
1
  6
CONTINUOUS
 62
     7
 10
819.0436897938649
 20
316.8654969628227
 30
0.0
  0
VERTEX
  5
3CE
  8
1
  6
CONTINUOUS
 62
     7
 10
817.906466999905
 20
316.4671567275791
 30
0.0
  0
VERTEX
  5
3CF
  8
1
  6
CONTINUOUS
 62
     7
 10
816.8583964704842
 20
315.8202872861179
 30
0.0
  0
VERTEX
  5
3D0
  8
1
  6
CONTINUOUS
 62
     7
 10
815.9397549682835
 20
314.9497474683059
 30
0.0
  0
VERTEX
  5
3D1
  8
1
  6
CONTINUOUS
 62
     7
 10
815.1858453710524
 20
313.8889916311373
 30
0.0
  0
VERTEX
  5
3D2
  8
1
  6
CONTINUOUS
 62
     7
 10
814.6256400018152
 20
312.6787840265557
 30
0.0
  0
VERTEX
  5
3D3
  8
1
  6
CONTINUOUS
 62
     7
 10
814.2806672387447
 20
311.3656322541129
 30
0.0
  0
VERTEX
  5
3D4
  8
1
  6
CONTINUOUS
 62
     7
 10
814.164184191663
 20
310.0000000000001
 30
0.0
  0
SEQEND
  5
553
  8
1
  6
CONTINUOUS
 62
     7
  0
POLYLINE
  5
20F
  8
1
  6
CONTINUOUS
 62
     7
 66
     1
 10
0.0
 20
0.0
 30
0.0
  0
VERTEX
  5
3D5
  8
1
  6
CONTINUOUS
 62
     7
 10
820.2263620181541
 20
303.0000000000001
 30
0.0
  0
VERTEX
  5
3D6
  8
1
  6
CONTINUOUS
 62
     7
 10
821.4090342424432
 20
303.1345030371774
 30
0.0
  0
VERTEX
  5
3D7
  8
1
  6
CONTINUOUS
 62
     7
 10
822.5462570364032
 20
303.532843272421
 30
0.0
  0
VERTEX
  5
3D8
  8
1
  6
CONTINUOUS
 62
     7
 10
823.594327565824
 20
304.1797127138822
 30
0.0
  0
VERTEX
  5
3D9
  8
1
  6
CONTINUOUS
 62
     7
 10
824.5129690680246
 20
305.0502525316942
 30
0.0
  0
VERTEX
  5
3DA
  8
1
  6
CONTINUOUS
 62
     7
 10
825.2668786652557
 20
306.1110083688628
 30
0.0
  0
VERTEX
  5
3DB
  8
1
  6
CONTINUOUS
 62
     7
 10
825.8270840344929
 20
307.3212159734445
 30
0.0
  0
VERTEX
  5
3DC
  8
1
  6
CONTINUOUS
 62
     7
 10
826.1720567975634
 20
308.6343677458872
 30
0.0
  0
VERTEX
  5
3DD
  8
1
  6
CONTINUOUS
 62
     7
 10
826.2885398446451
 20
310.0000000000001
 30
0.0
  0
VERTEX
  5
3DE
  8
1
  6
CONTINUOUS
 62
     7
 10
826.1720567975634
 20
311.3656322541129
 30
0.0
  0
VERTEX
  5
3DF
  8
1
  6
CONTINUOUS
 62
     7
 10
825.8270840344929
 20
312.6787840265557
 30
0.0
  0
VERTEX
  5
3E0
  8
1
  6
CONTINUOUS
 62
     7
 10
825.2668786652557
 20
313.8889916311373
 30
0.0
  0
VERTEX
  5
3E1
  8
1
  6
CONTINUOUS
 62
     7
 10
824.5129690680246
 20
314.9497474683059
 30
0.0
  0
VERTEX
  5
3E2
  8
1
  6
CONTINUOUS
 62
     7
 10
823.594327565824
 20
315.8202872861179
 30
0.0
  0
VERTEX
  5
3E3
  8
1
  6
CONTINUOUS
 62
     7
 10
822.5462570364032
 20
316.4671567275791
 30
0.0
  0
VERTEX
  5
3E4
  8
1
  6
CONTINUOUS
 62
     7
 10
821.4090342424432
 20
316.8654969628227
 30
0.0
  0
VERTEX
  5
3E5
  8
1
  6
CONTINUOUS
 62
     7
 10
820.2263620181541
 20
317.0000000000001
 30
0.0
  0
SEQEND
  5
554
  8
1
  6
CONTINUOUS
 62
     7
  0
POLYLINE
  5
210
  8
1
  6
CONTINUOUS
 62
     7
 66
     1
 10
0.0
 20
0.0
 30
0.0
  0
VERTEX
  5
3E6
  8
1
  6
CONTINUOUS
 62
     7
 10
820.4763620181542
 20
303.0000000000001
 30
0.0
  0
VERTEX
  5
3E7
  8
1
  6
CONTINUOUS
 62
     7
 10
821.6590342424433
 20
303.1345030371774
 30
0.0
  0
VERTEX
  5
3E8
  8
1
  6
CONTINUOUS
 62
     7
 10
822.7962570364033
 20
303.532843272421
 30
0.0
  0
VERTEX
  5
3E9
  8
1
  6
CONTINUOUS
 62
     7
 10
823.8443275658241
 20
304.1797127138822
 30
0.0
  0
VERTEX
  5
3EA
  8
1
  6
CONTINUOUS
 62
     7
 10
824.7629690680247
 20
305.0502525316942
 30
0.0
  0
VERTEX
  5
3EB
  8
1
  6
CONTINUOUS
 62
     7
 10
825.5168786652558
 20
306.1110083688628
 30
0.0
  0
VERTEX
  5
3EC
  8
1
  6
CONTINUOUS
 62
     7
 10
826.077084034493
 20
307.3212159734445
 30
0.0
  0
VERTEX
  5
3ED
  8
1
  6
CONTINUOUS
 62
     7
 10
826.4220567975635
 20
308.6343677458872
 30
0.0
  0
VERTEX
  5
3EE
  8
1
  6
CONTINUOUS
 62
     7
 10
826.5385398446452
 20
310.0000000000001
 30
0.0
  0
VERTEX
  5
3EF
  8
1
  6
CONTINUOUS
 62
     7
 10
826.4220567975635
 20
311.3656322541129
 30
0.0
  0
VERTEX
  5
3F0
  8
1
  6
CONTINUOUS
 62
     7
 10
826.077084034493
 20
312.6787840265557
 30
0.0
  0
VERTEX
  5
3F1
  8
1
  6
CONTINUOUS
 62
     7
 10
825.5168786652558
 20
313.8889916311373
 30
0.0
  0
VERTEX
  5
3F2
  8
1
  6
CONTINUOUS
 62
     7
 10
824.7629690680247
 20
314.9497474683059
 30
0.0
  0
VERTEX
  5
3F3
  8
1
  6
CONTINUOUS
 62
     7
 10
823.8443275658241
 20
315.8202872861179
 30
0.0
  0
VERTEX
  5
3F4
  8
1
  6
CONTINUOUS
 62
     7
 10
822.7962570364033
 20
316.4671567275791
 30
0.0
  0
VERTEX
  5
3F5
  8
1
  6
CONTINUOUS
 62
     7
 10
821.6590342424433
 20
316.8654969628227
 30
0.0
  0
VERTEX
  5
3F6
  8
1
  6
CONTINUOUS
 62
     7
 10
820.4763620181542
 20
317.0000000000001
 30
0.0
  0
SEQEND
  5
555
  8
1
  6
CONTINUOUS
 62
     7
  0
POLYLINE
  5
211
  8
1
  6
CONTINUOUS
 62
     7
 66
     1
 10
0.0
 20
0.0
 30
0.0
  0
VERTEX
  5
3F7
  8
1
  6
CONTINUOUS
 62
     7
 10
865.9154905622383
 20
310.0000000000001
 30
0.0
  0
VERTEX
  5
3F8
  8
1
  6
CONTINUOUS
 62
     7
 10
865.9054807591112
 20
310.5852709660484
 30
0.0
  0
VERTEX
  5
3F9
  8
1
  6
CONTINUOUS
 62
     7
 10
865.8758360208507
 20
311.1480502970953
 30
0.0
  0
VERTEX
  5
3FA
  8
1
  6
CONTINUOUS
 62
     7
 10
865.8276955781229
 20
311.6667106990589
 30
0.0
  0
VERTEX
  5
3FB
  8
1
  6
CONTINUOUS
 62
     7
 10
865.7629094411444
 20
312.1213203435597
 30
0.0
  0
VERTEX
  5
3FC
  8
1
  6
CONTINUOUS
 62
     7
 10
865.6839673048271
 20
312.4944088369077
 30
0.0
  0
VERTEX
  5
3FD
  8
1
  6
CONTINUOUS
 62
     7
 10
865.5939028711981
 20
312.7716385975339
 30
0.0
  0
VERTEX
  5
3FE
  8
1
  6
CONTINUOUS
 62
     7
 10
865.4961772659332
 20
312.9423558412097
 30
0.0
  0
VERTEX
  5
3FF
  8
1
  6
CONTINUOUS
 62
     7
 10
865.3945460292375
 20
313.0000000000001
 30
0.0
  0
SEQEND
  5
556
  8
1
  6
CONTINUOUS
 62
     7
  0
POLYLINE
  5
212
  8
1
  6
CONTINUOUS
 62
     7
 66
     1
 10
0.0
 20
0.0
 30
0.0
  0
VERTEX
  5
400
  8
1
  6
CONTINUOUS
 62
     7
 10
865.3945460292375
 20
307.0000000000001
 30
0.0
  0
VERTEX
  5
401
  8
1
  6
CONTINUOUS
 62
     7
 10
865.4961772659332
 20
307.0576441587904
 30
0.0
  0
VERTEX
  5
402
  8
1
  6
CONTINUOUS
 62
     7
 10
865.5939028711981
 20
307.2283614024662
 30
0.0
  0
VERTEX
  5
403
  8
1
  6
CONTINUOUS
 62
     7
 10
865.6839673048271
 20
307.5055911630924
 30
0.0
  0
VERTEX
  5
404
  8
1
  6
CONTINUOUS
 62
     7
 10
865.7629094411444
 20
307.8786796564404
 30
0.0
  0
VERTEX
  5
405
  8
1
  6
CONTINUOUS
 62
     7
 10
865.8276955781229
 20
308.3332893009413
 30
0.0
  0
VERTEX
  5
406
  8
1
  6
CONTINUOUS
 62
     7
 10
865.8758360208507
 20
308.8519497029048
 30
0.0
  0
VERTEX
  5
407
  8
1
  6
CONTINUOUS
 62
     7
 10
865.9054807591112
 20
309.4147290339517
 30
0.0
  0
VERTEX
  5
408
  8
1
  6
CONTINUOUS
 62
     7
 10
865.9154905622383
 20
310.0000000000001
 30
0.0
  0
SEQEND
  5
557
  8
1
  6
CONTINUOUS
 62
     7
  0
POLYLINE
  5
213
  8
1
  6
CONTINUOUS
 62
     7
 66
     1
 10
0.0
 20
0.0
 30
0.0
  0
VERTEX
  5
409
  8
1
  6
CONTINUOUS
 62
     7
 10
444.0845094377618
 20
296.0000000000001
 30
0.0
  0
VERTEX
  5
40A
  8
1
  6
CONTINUOUS
 62
     7
 10
444.0945192408888
 20
295.4147290339517
 30
0.0
  0
VERTEX
  5
40B
  8
1
  6
CONTINUOUS
 62
     7
 10
444.1241639791494
 20
294.8519497029048
 30
0.0
  0
VERTEX
  5
40C
  8
1
  6
CONTINUOUS
 62
     7
 10
444.1723044218772
 20
294.3332893009413
 30
0.0
  0
VERTEX
  5
40D
  8
1
  6
CONTINUOUS
 62
     7
 10
444.2370905588556
 20
293.8786796564404
 30
0.0
  0
VERTEX
  5
40E
  8
1
  6
CONTINUOUS
 62
     7
 10
444.316032695173
 20
293.5055911630924
 30
0.0
  0
VERTEX
  5
40F
  8
1
  6
CONTINUOUS
 62
     7
 10
444.4060971288019
 20
293.2283614024662
 30
0.0
  0
VERTEX
  5
410
  8
1
  6
CONTINUOUS
 62
     7
 10
444.5038227340669
 20
293.0576441587904
 30
0.0
  0
VERTEX
  5
411
  8
1
  6
CONTINUOUS
 62
     7
 10
444.6054539707625
 20
293.0000000000001
 30
0.0
  0
SEQEND
  5
558
  8
1
  6
CONTINUOUS
 62
     7
  0
POLYLINE
  5
214
  8
1
  6
CONTINUOUS
 62
     7
 66
     1
 10
0.0
 20
0.0
 30
0.0
  0
VERTEX
  5
412
  8
1
  6
CONTINUOUS
 62
     7
 10
447.2358942474008
 20
296.0000000000001
 30
0.0
  0
VERTEX
  5
413
  8
1
  6
CONTINUOUS
 62
     7
 10
447.2459040505279
 20
295.4147290339517
 30
0.0
  0
VERTEX
  5
414
  8
1
  6
CONTINUOUS
 62
     7
 10
447.2755487887885
 20
294.8519497029048
 30
0.0
  0
VERTEX
  5
415
  8
1
  6
CONTINUOUS
 62
     7
 10
447.3236892315163
 20
294.3332893009413
 30
0.0
  0
VERTEX
  5
416
  8
1
  6
CONTINUOUS
 62
     7
 10
447.3884753684947
 20
293.8786796564404
 30
0.0
  0
VERTEX
  5
417
  8
1
  6
CONTINUOUS
 62
     7
 10
447.467417504812
 20
293.5055911630924
 30
0.0
  0
VERTEX
  5
418
  8
1
  6
CONTINUOUS
 62
     7
 10
447.557481938441
 20
293.2283614024662
 30
0.0
  0
VERTEX
  5
419
  8
1
  6
CONTINUOUS
 62
     7
 10
447.655207543706
 20
293.0576441587904
 30
0.0
  0
VERTEX
  5
41A
  8
1
  6
CONTINUOUS
 62
     7
 10
447.7568387804016
 20
293.0000000000001
 30
0.0
  0
SEQEND
  5
559
  8
1
  6
CONTINUOUS
 62
     7
  0
POLYLINE
  5
215
  8
1
  6
CONTINUOUS
 62
     7
 66
     1
 10
0.0
 20
0.0
 30
0.0
  0
VERTEX
  5
41B
  8
1
  6
CONTINUOUS
 62
     7
 10
449.4064964682375
 20
323.7500000000001
 30
0.0
  0
VERTEX
  5
41C
  8
1
  6
CONTINUOUS
 62
     7
 10
449.3133345012665
 20
323.697159521109
 30
0.0
  0
VERTEX
  5
41D
  8
1
  6
CONTINUOUS
 62
     7
 10
449.2237526964403
 20
323.5406687144061
 30
0.0
  0
VERTEX
  5
41E
  8
1
  6
CONTINUOUS
 62
     7
 10
449.1411936322804
 20
323.2865414338321
 30
0.0
  0
VERTEX
  5
41F
  8
1
  6
CONTINUOUS
 62
     7
 10
449.0688300073228
 20
322.9445436482631
 30
0.0
  0
VERTEX
  5
420
  8
1
  6
CONTINUOUS
 62
     7
 10
449.0094427150926
 20
322.527818140804
 30
0.0
  0
VERTEX
  5
421
  8
1
  6
CONTINUOUS
 62
     7
 10
448.9653139759255
 20
322.0523794390041
 30
0.0
  0
VERTEX
  5
422
  8
1
  6
CONTINUOUS
 62
     7
 10
448.9381396325199
 20
321.5364983855444
 30
0.0
  0
VERTEX
  5
423
  8
1
  6
CONTINUOUS
 62
     7
 10
448.9289639796534
 20
321.0000000000001
 30
0.0
  0
SEQEND
  5
55A
  8
1
  6
CONTINUOUS
 62
     7
  0
POLYLINE
  5
216
  8
1
  6
CONTINUOUS
 62
     7
 66
     1
 10
0.0
 20
0.0
 30
0.0
  0
VERTEX
  5
424
  8
1
  6
CONTINUOUS
 62
     7
 10
451.0302351792352
 20
302.6689011017642
 30
0.0
  0
VERTEX
  5
425
  8
1
  6
CONTINUOUS
 62
     7
 10
451.0437728904263
 20
302.5975490669421
 30
0.0
  0
VERTEX
  5
426
  8
1
  6
CONTINUOUS
 62
     7
 10
451.0596123956292
 20
302.5441768714085
 30
0.0
  0
VERTEX
  5
427
  8
1
  6
CONTINUOUS
 62
     7
 10
451.0770460514158
 20
302.5111689636001
 30
0.0
  0
VERTEX
  5
428
  8
1
  6
CONTINUOUS
 62
     7
 10
451.0952949943185
 20
302.5000000000001
 30
0.0
  0
SEQEND
  5
55B
  8
1
  6
CONTINUOUS
 62
     7
  0
LINE
  5
217
  8
1
  6
CONTINUOUS
 62
     7
 10
451.0952949943185
 20
302.5000000000001
 30
0.0
 11
452.1848673109083
 21
302.5000000000001
 31
0.0
  0
LINE
  5
218
  8
1
  6
CONTINUOUS
 62
     7
 10
452.1848673109083
 20
293.0000000000001
 30
0.0
 11
452.1848673109083
 21
302.5000000000001
 31
0.0
  0
LINE
  5
219
  8
1
  6
CONTINUOUS
 62
     7
 10
447.2358942474008
 20
296.0000000000001
 30
0.0
 11
447.2358942474008
 21
324.0000000000001
 31
0.0
  0
POLYLINE
  5
21A
  8
1
  6
CONTINUOUS
 62
     7
 66
     1
 10
0.0
 20
0.0
 30
0.0
  0
VERTEX
  5
429
  8
1
  6
CONTINUOUS
 62
     7
 10
447.7568387804016
 20
327.0000000000001
 30
0.0
  0
VERTEX
  5
42A
  8
1
  6
CONTINUOUS
 62
     7
 10
447.655207543706
 20
326.9423558412097
 30
0.0
  0
VERTEX
  5
42B
  8
1
  6
CONTINUOUS
 62
     7
 10
447.557481938441
 20
326.7716385975339
 30
0.0
  0
VERTEX
  5
42C
  8
1
  6
CONTINUOUS
 62
     7
 10
447.467417504812
 20
326.4944088369077
 30
0.0
  0
VERTEX
  5
42D
  8
1
  6
CONTINUOUS
 62
     7
 10
447.3884753684947
 20
326.1213203435597
 30
0.0
  0
VERTEX
  5
42E
  8
1
  6
CONTINUOUS
 62
     7
 10
447.3236892315163
 20
325.6667106990589
 30
0.0
  0
VERTEX
  5
42F
  8
1
  6
CONTINUOUS
 62
     7
 10
447.2755487887885
 20
325.1480502970953
 30
0.0
  0
VERTEX
  5
430
  8
1
  6
CONTINUOUS
 62
     7
 10
447.2459040505279
 20
324.5852709660484
 30
0.0
  0
VERTEX
  5
431
  8
1
  6
CONTINUOUS
 62
     7
 10
447.2358942474008
 20
324.0000000000001
 30
0.0
  0
SEQEND
  5
55C
  8
1
  6
CONTINUOUS
 62
     7
  0
LINE
  5
21B
  8
1
  6
CONTINUOUS
 62
     7
 10
452.1848673109083
 20
327.0000000000001
 30
0.0
 11
452.1848673109083
 21
317.5000000000001
 31
0.0
  0
LINE
  5
21C
  8
1
  6
CONTINUOUS
 62
     7
 10
451.0952949943185
 20
317.5000000000001
 30
0.0
 11
452.1848673109083
 21
317.5000000000001
 31
0.0
  0
POLYLINE
  5
21D
  8
1
  6
CONTINUOUS
 62
     7
 66
     1
 10
0.0
 20
0.0
 30
0.0
  0
VERTEX
  5
432
  8
1
  6
CONTINUOUS
 62
     7
 10
451.0952949943185
 20
317.5000000000001
 30
0.0
  0
VERTEX
  5
433
  8
1
  6
CONTINUOUS
 62
     7
 10
451.0770460514158
 20
317.4888310364
 30
0.0
  0
VERTEX
  5
434
  8
1
  6
CONTINUOUS
 62
     7
 10
451.0596123956292
 20
317.4558231285916
 30
0.0
  0
VERTEX
  5
435
  8
1
  6
CONTINUOUS
 62
     7
 10
451.0437728904263
 20
317.402450933058
 30
0.0
  0
VERTEX
  5
436
  8
1
  6
CONTINUOUS
 62
     7
 10
451.0302351792352
 20
317.331098898236
 30
0.0
  0
SEQEND
  5
55D
  8
1
  6
CONTINUOUS
 62
     7
  0
LINE
  5
21E
  8
1
  6
CONTINUOUS
 62
     7
 10
450.422210057777
 20
313.3689011017642
 30
0.0
 11
451.0302351792352
 21
317.3310988982359
 31
0.0
  0
POLYLINE
  5
21F
  8
1
  6
CONTINUOUS
 62
     7
 66
     1
 10
0.0
 20
0.0
 30
0.0
  0
VERTEX
  5
437
  8
1
  6
CONTINUOUS
 62
     7
 10
450.3571502426937
 20
313.2
 30
0.0
  0
VERTEX
  5
438
  8
1
  6
CONTINUOUS
 62
     7
 10
450.3753991855964
 20
313.2111689636001
 30
0.0
  0
VERTEX
  5
439
  8
1
  6
CONTINUOUS
 62
     7
 10
450.392832841383
 20
313.2441768714085
 30
0.0
  0
VERTEX
  5
43A
  8
1
  6
CONTINUOUS
 62
     7
 10
450.4086723465859
 20
313.2975490669421
 30
0.0
  0
VERTEX
  5
43B
  8
1
  6
CONTINUOUS
 62
     7
 10
450.422210057777
 20
313.3689011017642
 30
0.0
  0
SEQEND
  5
55E
  8
1
  6
CONTINUOUS
 62
     7
  0
LINE
  5
220
  8
1
  6
CONTINUOUS
 62
     7
 10
448.6077148509696
 20
313.2
 30
0.0
 11
450.3571502426937
 21
313.2
 31
0.0
  0
POLYLINE
  5
221
  8
1
  6
CONTINUOUS
 62
     7
 66
     1
 10
0.0
 20
0.0
 30
0.0
  0
VERTEX
  5
43C
  8
1
  6
CONTINUOUS
 62
     7
 10
448.6077148509696
 20
313.2
 30
0.0
  0
VERTEX
  5
43D
  8
1
  6
CONTINUOUS
 62
     7
 10
448.4993081984942
 20
313.1385128972904
 30
0.0
  0
VERTEX
  5
43E
  8
1
  6
CONTINUOUS
 62
     7
 10
448.3950675528783
 20
312.9564145040362
 30
0.0
  0
VERTEX
  5
43F
  8
1
  6
CONTINUOUS
 62
     7
 10
448.2989988236741
 20
312.6607027593682
 30
0.0
  0
VERTEX
  5
440
  8
1
  6
CONTINUOUS
 62
     7
 10
448.2147938782689
 20
312.262741699797
 30
0.0
  0
VERTEX
  5
441
  8
1
  6
CONTINUOUS
 62
     7
 10
448.1456886654919
 20
311.7778247456628
 30
0.0
  0
VERTEX
  5
442
  8
1
  6
CONTINUOUS
 62
     7
 10
448.0943388599156
 20
311.2245869835683
 30
0.0
  0
VERTEX
  5
443
  8
1
  6
CONTINUOUS
 62
     7
 10
448.062717805771
 20
310.6242890304517
 30
0.0
  0
VERTEX
  5
444
  8
1
  6
CONTINUOUS
 62
     7
 10
448.0520406824355
 20
310.0000000000001
 30
0.0
  0
VERTEX
  5
445
  8
1
  6
CONTINUOUS
 62
     7
 10
448.062717805771
 20
309.3757109695484
 30
0.0
  0
VERTEX
  5
446
  8
1
  6
CONTINUOUS
 62
     7
 10
448.0943388599156
 20
308.7754130164318
 30
0.0
  0
VERTEX
  5
447
  8
1
  6
CONTINUOUS
 62
     7
 10
448.1456886654919
 20
308.2221752543373
 30
0.0
  0
VERTEX
  5
448
  8
1
  6
CONTINUOUS
 62
     7
 10
448.2147938782689
 20
307.7372583002031
 30
0.0
  0
VERTEX
  5
449
  8
1
  6
CONTINUOUS
 62
     7
 10
448.2989988236741
 20
307.3392972406319
 30
0.0
  0
VERTEX
  5
44A
  8
1
  6
CONTINUOUS
 62
     7
 10
448.3950675528783
 20
307.043585495964
 30
0.0
  0
VERTEX
  5
44B
  8
1
  6
CONTINUOUS
 62
     7
 10
448.4993081984942
 20
306.8614871027098
 30
0.0
  0
VERTEX
  5
44C
  8
1
  6
CONTINUOUS
 62
     7
 10
448.6077148509696
 20
306.8000000000001
 30
0.0
  0
SEQEND
  5
55F
  8
1
  6
CONTINUOUS
 62
     7
  0
LINE
  5
222
  8
1
  6
CONTINUOUS
 62
     7
 10
448.6077148509696
 20
306.8000000000001
 30
0.0
 11
450.3571502426937
 21
306.8000000000001
 31
0.0
  0
POLYLINE
  5
223
  8
1
  6
CONTINUOUS
 62
     7
 66
     1
 10
0.0
 20
0.0
 30
0.0
  0
VERTEX
  5
44D
  8
1
  6
CONTINUOUS
 62
     7
 10
450.422210057777
 20
306.631098898236
 30
0.0
  0
VERTEX
  5
44E
  8
1
  6
CONTINUOUS
 62
     7
 10
450.4086723465859
 20
306.702450933058
 30
0.0
  0
VERTEX
  5
44F
  8
1
  6
CONTINUOUS
 62
     7
 10
450.392832841383
 20
306.7558231285916
 30
0.0
  0
VERTEX
  5
450
  8
1
  6
CONTINUOUS
 62
     7
 10
450.3753991855964
 20
306.7888310364
 30
0.0
  0
VERTEX
  5
451
  8
1
  6
CONTINUOUS
 62
     7
 10
450.3571502426937
 20
306.8000000000001
 30
0.0
  0
SEQEND
  5
560
  8
1
  6
CONTINUOUS
 62
     7
  0
LINE
  5
224
  8
1
  6
CONTINUOUS
 62
     7
 10
450.422210057777
 20
306.6310988982359
 30
0.0
 11
451.0302351792352
 21
302.6689011017642
 31
0.0
  0
POLYLINE
  5
225
  8
1
  6
CONTINUOUS
 62
     7
 66
     1
 10
0.0
 20
0.0
 30
0.0
  0
VERTEX
  5
452
  8
1
  6
CONTINUOUS
 62
     7
 10
448.9289639796534
 20
299.0000000000001
 30
0.0
  0
VERTEX
  5
453
  8
1
  6
CONTINUOUS
 62
     7
 10
448.9381396325199
 20
298.4635016144557
 30
0.0
  0
VERTEX
  5
454
  8
1
  6
CONTINUOUS
 62
     7
 10
448.9653139759255
 20
297.947620560996
 30
0.0
  0
VERTEX
  5
455
  8
1
  6
CONTINUOUS
 62
     7
 10
449.0094427150926
 20
297.4721818591962
 30
0.0
  0
VERTEX
  5
456
  8
1
  6
CONTINUOUS
 62
     7
 10
449.0688300073228
 20
297.055456351737
 30
0.0
  0
VERTEX
  5
457
  8
1
  6
CONTINUOUS
 62
     7
 10
449.1411936322804
 20
296.713458566168
 30
0.0
  0
VERTEX
  5
458
  8
1
  6
CONTINUOUS
 62
     7
 10
449.2237526964403
 20
296.459331285594
 30
0.0
  0
VERTEX
  5
459
  8
1
  6
CONTINUOUS
 62
     7
 10
449.3133345012665
 20
296.3028404788911
 30
0.0
  0
VERTEX
  5
45A
  8
1
  6
CONTINUOUS
 62
     7
 10
449.4064964682375
 20
296.25
 30
0.0
  0
SEQEND
  5
561
  8
1
  6
CONTINUOUS
 62
     7
  0
POLYLINE
  5
226
  8
1
  6
CONTINUOUS
 62
     7
 66
     1
 10
0.0
 20
0.0
 30
0.0
  0
VERTEX
  5
45B
  8
1
  6
CONTINUOUS
 62
     7
 10
444.6054539707625
 20
327.0000000000001
 30
0.0
  0
VERTEX
  5
45C
  8
1
  6
CONTINUOUS
 62
     7
 10
444.5038227340669
 20
326.9423558412097
 30
0.0
  0
VERTEX
  5
45D
  8
1
  6
CONTINUOUS
 62
     7
 10
444.4060971288019
 20
326.7716385975339
 30
0.0
  0
VERTEX
  5
45E
  8
1
  6
CONTINUOUS
 62
     7
 10
444.316032695173
 20
326.4944088369077
 30
0.0
  0
VERTEX
  5
45F
  8
1
  6
CONTINUOUS
 62
     7
 10
444.2370905588556
 20
326.1213203435597
 30
0.0
  0
VERTEX
  5
460
  8
1
  6
CONTINUOUS
 62
     7
 10
444.1723044218772
 20
325.6667106990589
 30
0.0
  0
VERTEX
  5
461
  8
1
  6
CONTINUOUS
 62
     7
 10
444.1241639791494
 20
325.1480502970953
 30
0.0
  0
VERTEX
  5
462
  8
1
  6
CONTINUOUS
 62
     7
 10
444.0945192408888
 20
324.5852709660484
 30
0.0
  0
VERTEX
  5
463
  8
1
  6
CONTINUOUS
 62
     7
 10
444.0845094377618
 20
324.0000000000001
 30
0.0
  0
SEQEND
  5
562
  8
1
  6
CONTINUOUS
 62
     7
  0
LINE
  5
227
  8
1
  6
CONTINUOUS
 62
     7
 10
444.0845094377618
 20
296.0000000000001
 30
0.0
 11
444.0845094377618
 21
324.0000000000001
 31
0.0
  0
POLYLINE
  5
228
  8
1
  6
CONTINUOUS
 62
     7
 66
     1
 10
0.0
 20
0.0
 30
0.0
  0
VERTEX
  5
464
  8
1
  6
CONTINUOUS
 62
     7
 10
449.4064964682375
 20
301.7500000000001
 30
0.0
  0
VERTEX
  5
465
  8
1
  6
CONTINUOUS
 62
     7
 10
449.3133345012665
 20
301.697159521109
 30
0.0
  0
VERTEX
  5
466
  8
1
  6
CONTINUOUS
 62
     7
 10
449.2237526964403
 20
301.5406687144061
 30
0.0
  0
VERTEX
  5
467
  8
1
  6
CONTINUOUS
 62
     7
 10
449.1411936322804
 20
301.2865414338321
 30
0.0
  0
VERTEX
  5
468
  8
1
  6
CONTINUOUS
 62
     7
 10
449.0688300073228
 20
300.9445436482631
 30
0.0
  0
VERTEX
  5
469
  8
1
  6
CONTINUOUS
 62
     7
 10
449.0094427150926
 20
300.527818140804
 30
0.0
  0
VERTEX
  5
46A
  8
1
  6
CONTINUOUS
 62
     7
 10
448.9653139759255
 20
300.0523794390041
 30
0.0
  0
VERTEX
  5
46B
  8
1
  6
CONTINUOUS
 62
     7
 10
448.9381396325199
 20
299.5364983855444
 30
0.0
  0
VERTEX
  5
46C
  8
1
  6
CONTINUOUS
 62
     7
 10
448.9289639796534
 20
299.0000000000001
 30
0.0
  0
SEQEND
  5
563
  8
1
  6
CONTINUOUS
 62
     7
  0
POLYLINE
  5
229
  8
1
  6
CONTINUOUS
 62
     7
 66
     1
 10
0.0
 20
0.0
 30
0.0
  0
VERTEX
  5
46D
  8
1
  6
CONTINUOUS
 62
     7
 10
449.4064964682375
 20
296.25
 30
0.0
  0
VERTEX
  5
46E
  8
1
  6
CONTINUOUS
 62
     7
 10
449.4996584352085
 20
296.3028404788911
 30
0.0
  0
VERTEX
  5
46F
  8
1
  6
CONTINUOUS
 62
     7
 10
449.5892402400347
 20
296.459331285594
 30
0.0
  0
VERTEX
  5
470
  8
1
  6
CONTINUOUS
 62
     7
 10
449.6717993041946
 20
296.713458566168
 30
0.0
  0
VERTEX
  5
471
  8
1
  6
CONTINUOUS
 62
     7
 10
449.7441629291522
 20
297.055456351737
 30
0.0
  0
VERTEX
  5
472
  8
1
  6
CONTINUOUS
 62
     7
 10
449.8035502213824
 20
297.4721818591962
 30
0.0
  0
VERTEX
  5
473
  8
1
  6
CONTINUOUS
 62
     7
 10
449.8476789605495
 20
297.947620560996
 30
0.0
  0
VERTEX
  5
474
  8
1
  6
CONTINUOUS
 62
     7
 10
449.8748533039551
 20
298.4635016144557
 30
0.0
  0
VERTEX
  5
475
  8
1
  6
CONTINUOUS
 62
     7
 10
449.8840289568216
 20
299.0000000000001
 30
0.0
  0
VERTEX
  5
476
  8
1
  6
CONTINUOUS
 62
     7
 10
449.8748533039551
 20
299.5364983855444
 30
0.0
  0
VERTEX
  5
477
  8
1
  6
CONTINUOUS
 62
     7
 10
449.8476789605495
 20
300.0523794390041
 30
0.0
  0
VERTEX
  5
478
  8
1
  6
CONTINUOUS
 62
     7
 10
449.8035502213824
 20
300.527818140804
 30
0.0
  0
VERTEX
  5
479
  8
1
  6
CONTINUOUS
 62
     7
 10
449.7441629291522
 20
300.9445436482631
 30
0.0
  0
VERTEX
  5
47A
  8
1
  6
CONTINUOUS
 62
     7
 10
449.6717993041946
 20
301.2865414338321
 30
0.0
  0
VERTEX
  5
47B
  8
1
  6
CONTINUOUS
 62
     7
 10
449.5892402400347
 20
301.5406687144061
 30
0.0
  0
VERTEX
  5
47C
  8
1
  6
CONTINUOUS
 62
     7
 10
449.4996584352085
 20
301.697159521109
 30
0.0
  0
VERTEX
  5
47D
  8
1
  6
CONTINUOUS
 62
     7
 10
449.4064964682375
 20
301.7500000000001
 30
0.0
  0
SEQEND
  5
564
  8
1
  6
CONTINUOUS
 62
     7
  0
POLYLINE
  5
22A
  8
1
  6
CONTINUOUS
 62
     7
 66
     1
 10
0.0
 20
0.0
 30
0.0
  0
VERTEX
  5
47E
  8
1
  6
CONTINUOUS
 62
     7
 10
448.9289639796534
 20
321.0000000000001
 30
0.0
  0
VERTEX
  5
47F
  8
1
  6
CONTINUOUS
 62
     7
 10
448.9381396325199
 20
320.4635016144557
 30
0.0
  0
VERTEX
  5
480
  8
1
  6
CONTINUOUS
 62
     7
 10
448.9653139759255
 20
319.947620560996
 30
0.0
  0
VERTEX
  5
481
  8
1
  6
CONTINUOUS
 62
     7
 10
449.0094427150926
 20
319.4721818591962
 30
0.0
  0
VERTEX
  5
482
  8
1
  6
CONTINUOUS
 62
     7
 10
449.0688300073228
 20
319.055456351737
 30
0.0
  0
VERTEX
  5
483
  8
1
  6
CONTINUOUS
 62
     7
 10
449.1411936322804
 20
318.713458566168
 30
0.0
  0
VERTEX
  5
484
  8
1
  6
CONTINUOUS
 62
     7
 10
449.2237526964403
 20
318.459331285594
 30
0.0
  0
VERTEX
  5
485
  8
1
  6
CONTINUOUS
 62
     7
 10
449.3133345012665
 20
318.3028404788911
 30
0.0
  0
VERTEX
  5
486
  8
1
  6
CONTINUOUS
 62
     7
 10
449.4064964682375
 20
318.25
 30
0.0
  0
SEQEND
  5
565
  8
1
  6
CONTINUOUS
 62
     7
  0
POLYLINE
  5
22B
  8
1
  6
CONTINUOUS
 62
     7
 66
     1
 10
0.0
 20
0.0
 30
0.0
  0
VERTEX
  5
487
  8
1
  6
CONTINUOUS
 62
     7
 10
449.4064964682375
 20
318.25
 30
0.0
  0
VERTEX
  5
488
  8
1
  6
CONTINUOUS
 62
     7
 10
449.4996584352085
 20
318.3028404788911
 30
0.0
  0
VERTEX
  5
489
  8
1
  6
CONTINUOUS
 62
     7
 10
449.5892402400347
 20
318.459331285594
 30
0.0
  0
VERTEX
  5
48A
  8
1
  6
CONTINUOUS
 62
     7
 10
449.6717993041946
 20
318.713458566168
 30
0.0
  0
VERTEX
  5
48B
  8
1
  6
CONTINUOUS
 62
     7
 10
449.7441629291522
 20
319.055456351737
 30
0.0
  0
VERTEX
  5
48C
  8
1
  6
CONTINUOUS
 62
     7
 10
449.8035502213824
 20
319.4721818591962
 30
0.0
  0
VERTEX
  5
48D
  8
1
  6
CONTINUOUS
 62
     7
 10
449.8476789605495
 20
319.947620560996
 30
0.0
  0
VERTEX
  5
48E
  8
1
  6
CONTINUOUS
 62
     7
 10
449.8748533039551
 20
320.4635016144557
 30
0.0
  0
VERTEX
  5
48F
  8
1
  6
CONTINUOUS
 62
     7
 10
449.8840289568216
 20
321.0000000000001
 30
0.0
  0
VERTEX
  5
490
  8
1
  6
CONTINUOUS
 62
     7
 10
449.8748533039551
 20
321.5364983855444
 30
0.0
  0
VERTEX
  5
491
  8
1
  6
CONTINUOUS
 62
     7
 10
449.8476789605495
 20
322.0523794390041
 30
0.0
  0
VERTEX
  5
492
  8
1
  6
CONTINUOUS
 62
     7
 10
449.8035502213824
 20
322.527818140804
 30
0.0
  0
VERTEX
  5
493
  8
1
  6
CONTINUOUS
 62
     7
 10
449.7441629291522
 20
322.9445436482631
 30
0.0
  0
VERTEX
  5
494
  8
1
  6
CONTINUOUS
 62
     7
 10
449.6717993041946
 20
323.2865414338321
 30
0.0
  0
VERTEX
  5
495
  8
1
  6
CONTINUOUS
 62
     7
 10
449.5892402400347
 20
323.5406687144061
 30
0.0
  0
VERTEX
  5
496
  8
1
  6
CONTINUOUS
 62
     7
 10
449.4996584352085
 20
323.697159521109
 30
0.0
  0
VERTEX
  5
497
  8
1
  6
CONTINUOUS
 62
     7
 10
449.4064964682375
 20
323.7500000000001
 30
0.0
  0
SEQEND
  5
566
  8
1
  6
CONTINUOUS
 62
     7
  0
LINE
  5
22C
  8
1
  6
CONTINUOUS
 62
     7
 10
467.6848673109084
 20
299.5000000000001
 30
0.0
 11
464.6848673109085
 21
299.5000000000001
 31
0.0
  0
LINE
  5
22D
  8
1
  6
CONTINUOUS
 62
     7
 10
467.6848673109084
 20
320.5000000000001
 30
0.0
 11
467.6848673109084
 21
299.5000000000001
 31
0.0
  0
LINE
  5
22E
  8
1
  6
CONTINUOUS
 62
     7
 10
467.6848673109084
 20
320.5000000000001
 30
0.0
 11
464.6848673109085
 21
320.5000000000001
 31
0.0
  0
LINE
  5
22F
  8
1
  6
CONTINUOUS
 62
     7
 10
464.6848673109085
 20
320.5000000000001
 30
0.0
 11
464.6848673109085
 21
299.5000000000001
 31
0.0
  0
LINE
  5
230
  8
1
  6
CONTINUOUS
 62
     7
 10
459.5093055901141
 20
320.2466643547022
 30
0.0
 11
452.1848673109083
 21
317.5000000000001
 31
0.0
  0
ARC
  5
231
  8
1
  6
CONTINUOUS
 62
     7
 10
469.1848673109084
 20
324.0000000000001
 30
0.0
 40
3.000000000000003
 50
0.0
 51
90.0
  0
LINE
  5
232
  8
1
  6
CONTINUOUS
 62
     7
 10
472.1848673109084
 20
296.0000000000001
 30
0.0
 11
472.1848673109084
 21
300.0000000000001
 31
0.0
  0
LINE
  5
233
  8
1
  6
CONTINUOUS
 62
     7
 10
472.1848673109084
 20
320.0000000000001
 30
0.0
 11
472.1848673109084
 21
324.0000000000001
 31
0.0
  0
ARC
  5
234
  8
1
  6
CONTINUOUS
 62
     7
 10
469.1848673109084
 20
296.0000000000001
 30
0.0
 40
3.000000000000003
 50
270.0
 51
0.0
  0
LINE
  5
235
  8
1
  6
CONTINUOUS
 62
     7
 10
459.5093055901141
 20
299.7533356452979
 30
0.0
 11
452.1848673109083
 21
302.5000000000001
 31
0.0
  0
ARC
  5
236
  8
1
  6
CONTINUOUS
 62
     7
 10
459.6848673109083
 20
300.2215002340824
 30
0.0
 40
0.5000000000000004
 50
249.4439547804168
 51
0.0000000000003979
  0
LINE
  5
237
  8
1
  6
CONTINUOUS
 62
     7
 10
460.1848673109083
 20
319.7784997659177
 30
0.0
 11
460.1848673109083
 21
300.2215002340824
 31
0.0
  0
ARC
  5
238
  8
1
  6
CONTINUOUS
 62
     7
 10
459.6848673109083
 20
319.7784997659177
 30
0.0
 40
0.5000000000000004
 50
359.9999999999996
 51
110.5560452195833
  0
LINE
  5
239
  8
1
  6
CONTINUOUS
 62
     7
 10
835.5921627871558
 20
301.2236067977501
 30
0.0
 11
835.5921627871558
 21
300.7763932022501
 31
0.0
  0
POLYLINE
  5
23A
  8
1
  6
CONTINUOUS
 62
     7
 66
     1
 10
0.0
 20
0.0
 30
0.0
  0
VERTEX
  5
498
  8
1
  6
CONTINUOUS
 62
     7
 10
835.5921627871556
 20
301.22360679775
 30
0.0
  0
VERTEX
  5
499
  8
1
  6
CONTINUOUS
 62
     7
 10
835.0478009592034
 20
302.1996474140368
 30
0.0
  0
VERTEX
  5
49A
  8
1
  6
CONTINUOUS
 62
     7
 10
834.3367947686471
 20
302.7982709416962
 30
0.0
  0
VERTEX
  5
49B
  8
1
  6
CONTINUOUS
 62
     7
 10
833.4822781847234
 20
303.0000000000001
 30
0.0
  0
VERTEX
  5
49C
  8
1
  6
CONTINUOUS
 62
     7
 10
832.5120545664296
 20
302.7982709416963
 30
0.0
  0
VERTEX
  5
49D
  8
1
  6
CONTINUOUS
 62
     7
 10
831.4576920261625
 20
302.1996474140369
 30
0.0
  0
VERTEX
  5
49E
  8
1
  6
CONTINUOUS
 62
     7
 10
830.3534962997865
 20
301.2236067977501
 30
0.0
  0
SEQEND
  5
567
  8
1
  6
CONTINUOUS
 62
     7
  0
POLYLINE
  5
23B
  8
1
  6
CONTINUOUS
 62
     7
 66
     1
 10
0.0
 20
0.0
 30
0.0
  0
VERTEX
  5
49F
  8
1
  6
CONTINUOUS
 62
     7
 10
830.3534962997865
 20
300.7763932022501
 30
0.0
  0
VERTEX
  5
4A0
  8
1
  6
CONTINUOUS
 62
     7
 10
830.341159320021
 20
300.7896586576827
 30
0.0
  0
VERTEX
  5
4A1
  8
1
  6
CONTINUOUS
 62
     7
 10
830.329340386295
 20
300.8034459703381
 30
0.0
  0
VERTEX
  5
4A2
  8
1
  6
CONTINUOUS
 62
     7
 10
830.3181114980592
 20
300.817737967056
 30
0.0
  0
VERTEX
  5
4A3
  8
1
  6
CONTINUOUS
 62
     7
 10
830.3075446547648
 20
300.8325174746755
 30
0.0
  0
VERTEX
  5
4A4
  8
1
  6
CONTINUOUS
 62
     7
 10
830.2977118558628
 20
300.8477673200362
 30
0.0
  0
VERTEX
  5
4A5
  8
1
  6
CONTINUOUS
 62
     7
 10
830.2886851008037
 20
300.8634703299774
 30
0.0
  0
VERTEX
  5
4A6
  8
1
  6
CONTINUOUS
 62
     7
 10
830.2825048659749
 20
300.8754942901268
 30
0.0
  0
VERTEX
  5
4A7
  8
1
  6
CONTINUOUS
 62
     7
 10
830.2768245788396
 20
300.8877769346084
 30
0.0
  0
VERTEX
  5
4A8
  8
1
  6
CONTINUOUS
 62
     7
 10
830.2716780252064
 20
300.9002917220104
 30
0.0
  0
VERTEX
  5
4A9
  8
1
  6
CONTINUOUS
 62
     7
 10
830.2670989908837
 20
300.913012110921
 30
0.0
  0
VERTEX
  5
4AA
  8
1
  6
CONTINUOUS
 62
     7
 10
830.2629863917487
 20
300.9263845250221
 30
0.0
  0
VERTEX
  5
4AB
  8
1
  6
CONTINUOUS
 62
     7
 10
830.2595290738121
 20
300.9399596824511
 30
0.0
  0
VERTEX
  5
4AC
  8
1
  6
CONTINUOUS
 62
     7
 10
830.2567537385488
 20
300.9536895330366
 30
0.0
  0
VERTEX
  5
4AD
  8
1
  6
CONTINUOUS
 62
     7
 10
830.254687087433
 20
300.9675260266072
 30
0.0
  0
VERTEX
  5
4AE
  8
1
  6
CONTINUOUS
 62
     7
 10
830.2534726038332
 20
300.9797413541354
 30
0.0
  0
VERTEX
  5
4AF
  8
1
  6
CONTINUOUS
 62
     7
 10
830.2528204259409
 20
300.992012813851
 30
0.0
  0
VERTEX
  5
4B0
  8
1
  6
CONTINUOUS
 62
     7
 10
830.2527332640657
 20
301.0043012004466
 30
0.0
  0
VERTEX
  5
4B1
  8
1
  6
CONTINUOUS
 62
     7
 10
830.2532138285175
 20
301.0165673086153
 30
0.0
  0
VERTEX
  5
4B2
  8
1
  6
CONTINUOUS
 62
     7
 10
830.2543117669759
 20
301.0292356809451
 30
0.0
  0
VERTEX
  5
4B3
  8
1
  6
CONTINUOUS
 62
     7
 10
830.2560100473627
 20
301.0418516334813
 30
0.0
  0
VERTEX
  5
4B4
  8
1
  6
CONTINUOUS
 62
     7
 10
830.2582937707518
 20
301.0543753218136
 30
0.0
  0
VERTEX
  5
4B5
  8
1
  6
CONTINUOUS
 62
     7
 10
830.2611480382178
 20
301.0667669015317
 30
0.0
  0
VERTEX
  5
4B6
  8
1
  6
CONTINUOUS
 62
     7
 10
830.2652421444944
 20
301.0812137603518
 30
0.0
  0
VERTEX
  5
4B7
  8
1
  6
CONTINUOUS
 62
     7
 10
830.2700930142415
 20
301.0954584339611
 30
0.0
  0
VERTEX
  5
4B8
  8
1
  6
CONTINUOUS
 62
     7
 10
830.275655124329
 20
301.109463077735
 30
0.0
  0
VERTEX
  5
4B9
  8
1
  6
CONTINUOUS
 62
     7
 10
830.2818829516261
 20
301.1231898470489
 30
0.0
  0
VERTEX
  5
4BA
  8
1
  6
CONTINUOUS
 62
     7
 10
830.2887309730029
 20
301.1366008972783
 30
0.0
  0
VERTEX
  5
4BB
  8
1
  6
CONTINUOUS
 62
     7
 10
830.2961536653287
 20
301.1496583837986
 30
0.0
  0
VERTEX
  5
4BC
  8
1
  6
CONTINUOUS
 62
     7
 10
830.306185449751
 20
301.1654805756765
 30
0.0
  0
VERTEX
  5
4BD
  8
1
  6
CONTINUOUS
 62
     7
 10
830.3170130961514
 20
301.1808019197448
 30
0.0
  0
VERTEX
  5
4BE
  8
1
  6
CONTINUOUS
 62
     7
 10
830.3285591137867
 20
301.1956070092693
 30
0.0
  0
VERTEX
  5
4BF
  8
1
  6
CONTINUOUS
 62
     7
 10
830.340746011913
 20
301.2098804375158
 30
0.0
  0
VERTEX
  5
4C0
  8
1
  6
CONTINUOUS
 62
     7
 10
830.3534962997865
 20
301.2236067977501
 30
0.0
  0
SEQEND
  5
568
  8
1
  6
CONTINUOUS
 62
     7
  0
POLYLINE
  5
23C
  8
1
  6
CONTINUOUS
 62
     7
 66
     1
 10
0.0
 20
0.0
 30
0.0
  0
VERTEX
  5
4C1
  8
1
  6
CONTINUOUS
 62
     7
 10
830.3534962997865
 20
300.77639320225
 30
0.0
  0
VERTEX
  5
4C2
  8
1
  6
CONTINUOUS
 62
     7
 10
831.4576920261625
 20
299.8003525859632
 30
0.0
  0
VERTEX
  5
4C3
  8
1
  6
CONTINUOUS
 62
     7
 10
832.5120545664296
 20
299.2017290583039
 30
0.0
  0
VERTEX
  5
4C4
  8
1
  6
CONTINUOUS
 62
     7
 10
833.4822781847234
 20
299.0000000000001
 30
0.0
  0
VERTEX
  5
4C5
  8
1
  6
CONTINUOUS
 62
     7
 10
834.3367947686471
 20
299.201729058304
 30
0.0
  0
VERTEX
  5
4C6
  8
1
  6
CONTINUOUS
 62
     7
 10
835.0478009592034
 20
299.8003525859633
 30
0.0
  0
VERTEX
  5
4C7
  8
1
  6
CONTINUOUS
 62
     7
 10
835.5921627871556
 20
300.7763932022501
 30
0.0
  0
SEQEND
  5
569
  8
1
  6
CONTINUOUS
 62
     7
  0
LINE
  5
23D
  8
1
  6
CONTINUOUS
 62
     7
 10
826.8261042793471
 20
312.7
 30
0.0
 11
826.8261042793471
 21
307.3000000000001
 31
0.0
  0
LINE
  5
23E
  8
1
  6
CONTINUOUS
 62
     7
 10
835.5921627871558
 20
319.22360679775
 30
0.0
 11
835.5921627871558
 21
318.7763932022501
 31
0.0
  0
POLYLINE
  5
23F
  8
1
  6
CONTINUOUS
 62
     7
 66
     1
 10
0.0
 20
0.0
 30
0.0
  0
VERTEX
  5
4C8
  8
1
  6
CONTINUOUS
 62
     7
 10
835.5921627871556
 20
319.2236067977499
 30
0.0
  0
VERTEX
  5
4C9
  8
1
  6
CONTINUOUS
 62
     7
 10
835.0478009592034
 20
320.1996474140367
 30
0.0
  0
VERTEX
  5
4CA
  8
1
  6
CONTINUOUS
 62
     7
 10
834.336794768647
 20
320.7982709416961
 30
0.0
  0
VERTEX
  5
4CB
  8
1
  6
CONTINUOUS
 62
     7
 10
833.4822781847234
 20
321.0
 30
0.0
  0
VERTEX
  5
4CC
  8
1
  6
CONTINUOUS
 62
     7
 10
832.5120545664296
 20
320.7982709416962
 30
0.0
  0
VERTEX
  5
4CD
  8
1
  6
CONTINUOUS
 62
     7
 10
831.4576920261625
 20
320.1996474140368
 30
0.0
  0
VERTEX
  5
4CE
  8
1
  6
CONTINUOUS
 62
     7
 10
830.3534962997865
 20
319.22360679775
 30
0.0
  0
SEQEND
  5
56A
  8
1
  6
CONTINUOUS
 62
     7
  0
POLYLINE
  5
240
  8
1
  6
CONTINUOUS
 62
     7
 66
     1
 10
0.0
 20
0.0
 30
0.0
  0
VERTEX
  5
4CF
  8
1
  6
CONTINUOUS
 62
     7
 10
830.3534962997865
 20
318.7763932022501
 30
0.0
  0
VERTEX
  5
4D0
  8
1
  6
CONTINUOUS
 62
     7
 10
830.341159320021
 20
318.7896586576827
 30
0.0
  0
VERTEX
  5
4D1
  8
1
  6
CONTINUOUS
 62
     7
 10
830.329340386295
 20
318.8034459703381
 30
0.0
  0
VERTEX
  5
4D2
  8
1
  6
CONTINUOUS
 62
     7
 10
830.3181114980592
 20
318.817737967056
 30
0.0
  0
VERTEX
  5
4D3
  8
1
  6
CONTINUOUS
 62
     7
 10
830.3075446547648
 20
318.8325174746756
 30
0.0
  0
VERTEX
  5
4D4
  8
1
  6
CONTINUOUS
 62
     7
 10
830.2977118558628
 20
318.8477673200362
 30
0.0
  0
VERTEX
  5
4D5
  8
1
  6
CONTINUOUS
 62
     7
 10
830.2886851008037
 20
318.8634703299774
 30
0.0
  0
VERTEX
  5
4D6
  8
1
  6
CONTINUOUS
 62
     7
 10
830.2825048659748
 20
318.8754942901268
 30
0.0
  0
VERTEX
  5
4D7
  8
1
  6
CONTINUOUS
 62
     7
 10
830.2768245788396
 20
318.8877769346084
 30
0.0
  0
VERTEX
  5
4D8
  8
1
  6
CONTINUOUS
 62
     7
 10
830.2716780252064
 20
318.9002917220104
 30
0.0
  0
VERTEX
  5
4D9
  8
1
  6
CONTINUOUS
 62
     7
 10
830.2670989908836
 20
318.9130121109209
 30
0.0
  0
VERTEX
  5
4DA
  8
1
  6
CONTINUOUS
 62
     7
 10
830.2629863917487
 20
318.926384525022
 30
0.0
  0
VERTEX
  5
4DB
  8
1
  6
CONTINUOUS
 62
     7
 10
830.2595290738121
 20
318.9399596824511
 30
0.0
  0
VERTEX
  5
4DC
  8
1
  6
CONTINUOUS
 62
     7
 10
830.2567537385488
 20
318.9536895330366
 30
0.0
  0
VERTEX
  5
4DD
  8
1
  6
CONTINUOUS
 62
     7
 10
830.2546870874331
 20
318.9675260266072
 30
0.0
  0
VERTEX
  5
4DE
  8
1
  6
CONTINUOUS
 62
     7
 10
830.2534726038333
 20
318.9797413541354
 30
0.0
  0
VERTEX
  5
4DF
  8
1
  6
CONTINUOUS
 62
     7
 10
830.2528204259409
 20
318.9920128138509
 30
0.0
  0
VERTEX
  5
4E0
  8
1
  6
CONTINUOUS
 62
     7
 10
830.2527332640657
 20
319.0043012004466
 30
0.0
  0
VERTEX
  5
4E1
  8
1
  6
CONTINUOUS
 62
     7
 10
830.2532138285175
 20
319.0165673086153
 30
0.0
  0
VERTEX
  5
4E2
  8
1
  6
CONTINUOUS
 62
     7
 10
830.2543117669758
 20
319.0292356809451
 30
0.0
  0
VERTEX
  5
4E3
  8
1
  6
CONTINUOUS
 62
     7
 10
830.2560100473626
 20
319.0418516334813
 30
0.0
  0
VERTEX
  5
4E4
  8
1
  6
CONTINUOUS
 62
     7
 10
830.2582937707518
 20
319.0543753218136
 30
0.0
  0
VERTEX
  5
4E5
  8
1
  6
CONTINUOUS
 62
     7
 10
830.2611480382178
 20
319.0667669015317
 30
0.0
  0
VERTEX
  5
4E6
  8
1
  6
CONTINUOUS
 62
     7
 10
830.2652421444944
 20
319.0812137603519
 30
0.0
  0
VERTEX
  5
4E7
  8
1
  6
CONTINUOUS
 62
     7
 10
830.2700930142415
 20
319.0954584339611
 30
0.0
  0
VERTEX
  5
4E8
  8
1
  6
CONTINUOUS
 62
     7
 10
830.275655124329
 20
319.109463077735
 30
0.0
  0
VERTEX
  5
4E9
  8
1
  6
CONTINUOUS
 62
     7
 10
830.2818829516261
 20
319.1231898470488
 30
0.0
  0
VERTEX
  5
4EA
  8
1
  6
CONTINUOUS
 62
     7
 10
830.2887309730029
 20
319.1366008972782
 30
0.0
  0
VERTEX
  5
4EB
  8
1
  6
CONTINUOUS
 62
     7
 10
830.2961536653287
 20
319.1496583837987
 30
0.0
  0
VERTEX
  5
4EC
  8
1
  6
CONTINUOUS
 62
     7
 10
830.306185449751
 20
319.1654805756764
 30
0.0
  0
VERTEX
  5
4ED
  8
1
  6
CONTINUOUS
 62
     7
 10
830.3170130961514
 20
319.1808019197447
 30
0.0
  0
VERTEX
  5
4EE
  8
1
  6
CONTINUOUS
 62
     7
 10
830.3285591137867
 20
319.1956070092692
 30
0.0
  0
VERTEX
  5
4EF
  8
1
  6
CONTINUOUS
 62
     7
 10
830.340746011913
 20
319.2098804375157
 30
0.0
  0
VERTEX
  5
4F0
  8
1
  6
CONTINUOUS
 62
     7
 10
830.3534962997865
 20
319.22360679775
 30
0.0
  0
SEQEND
  5
56B
  8
1
  6
CONTINUOUS
 62
     7
  0
POLYLINE
  5
241
  8
1
  6
CONTINUOUS
 62
     7
 66
     1
 10
0.0
 20
0.0
 30
0.0
  0
VERTEX
  5
4F1
  8
1
  6
CONTINUOUS
 62
     7
 10
830.3534962997865
 20
318.7763932022501
 30
0.0
  0
VERTEX
  5
4F2
  8
1
  6
CONTINUOUS
 62
     7
 10
831.4576920261625
 20
317.8003525859633
 30
0.0
  0
VERTEX
  5
4F3
  8
1
  6
CONTINUOUS
 62
     7
 10
832.5120545664296
 20
317.201729058304
 30
0.0
  0
VERTEX
  5
4F4
  8
1
  6
CONTINUOUS
 62
     7
 10
833.4822781847234
 20
317.0000000000001
 30
0.0
  0
VERTEX
  5
4F5
  8
1
  6
CONTINUOUS
 62
     7
 10
834.3367947686471
 20
317.201729058304
 30
0.0
  0
VERTEX
  5
4F6
  8
1
  6
CONTINUOUS
 62
     7
 10
835.0478009592034
 20
317.8003525859634
 30
0.0
  0
VERTEX
  5
4F7
  8
1
  6
CONTINUOUS
 62
     7
 10
835.5921627871556
 20
318.7763932022502
 30
0.0
  0
SEQEND
  5
56C
  8
1
  6
CONTINUOUS
 62
     7
  0
POLYLINE
  5
242
  8
1
  6
CONTINUOUS
 62
     7
 66
     1
 10
0.0
 20
0.0
 30
0.0
  0
VERTEX
  5
4F8
  8
1
  6
CONTINUOUS
 62
     7
 10
826.8261042793471
 20
312.7
 30
0.0
  0
VERTEX
  5
4F9
  8
1
  6
CONTINUOUS
 62
     7
 10
826.8177840616984
 20
312.7975451610081
 30
0.0
  0
VERTEX
  5
4FA
  8
1
  6
CONTINUOUS
 62
     7
 10
826.7931431500505
 20
312.8913417161826
 30
0.0
  0
VERTEX
  5
4FB
  8
1
  6
CONTINUOUS
 62
     7
 10
826.7531284808192
 20
312.9777851165098
 30
0.0
  0
VERTEX
  5
4FC
  8
1
  6
CONTINUOUS
 62
     7
 10
826.6992777953027
 20
313.0535533905933
 30
0.0
  0
VERTEX
  5
4FD
  8
1
  6
CONTINUOUS
 62
     7
 10
826.6336605451455
 20
313.1157348061513
 30
0.0
  0
VERTEX
  5
4FE
  8
1
  6
CONTINUOUS
 62
     7
 10
826.5587983644726
 20
313.1619397662557
 30
0.0
  0
VERTEX
  5
4FF
  8
1
  6
CONTINUOUS
 62
     7
 10
826.4775681649041
 20
313.1903926402017
 30
0.0
  0
VERTEX
  5
500
  8
1
  6
CONTINUOUS
 62
     7
 10
826.3930915774549
 20
313.2
 30
0.0
  0
SEQEND
  5
56D
  8
1
  6
CONTINUOUS
 62
     7
  0
LINE
  5
243
  8
1
  6
CONTINUOUS
 62
     7
 10
826.3930915774549
 20
306.8000000000001
 30
0.0
 11
825.8680222448377
 21
306.8000000000001
 31
0.0
  0
LINE
  5
244
  8
1
  6
CONTINUOUS
 62
     7
 10
814.8347017914707
 20
306.8000000000001
 30
0.0
 11
810.804634309335
 21
306.8000000000001
 31
0.0
  0
POLYLINE
  5
245
  8
1
  6
CONTINUOUS
 62
     7
 66
     1
 10
0.0
 20
0.0
 30
0.0
  0
VERTEX
  5
501
  8
1
  6
CONTINUOUS
 62
     7
 10
826.3930915774549
 20
306.8000000000001
 30
0.0
  0
VERTEX
  5
502
  8
1
  6
CONTINUOUS
 62
     7
 10
826.4775681649041
 20
306.8096073597985
 30
0.0
  0
VERTEX
  5
503
  8
1
  6
CONTINUOUS
 62
     7
 10
826.5587983644726
 20
306.8380602337444
 30
0.0
  0
VERTEX
  5
504
  8
1
  6
CONTINUOUS
 62
     7
 10
826.6336605451455
 20
306.8842651938488
 30
0.0
  0
VERTEX
  5
505
  8
1
  6
CONTINUOUS
 62
     7
 10
826.6992777953027
 20
306.9464466094068
 30
0.0
  0
VERTEX
  5
506
  8
1
  6
CONTINUOUS
 62
     7
 10
826.7531284808192
 20
307.0222148834903
 30
0.0
  0
VERTEX
  5
507
  8
1
  6
CONTINUOUS
 62
     7
 10
826.7931431500505
 20
307.1086582838175
 30
0.0
  0
VERTEX
  5
508
  8
1
  6
CONTINUOUS
 62
     7
 10
826.8177840616984
 20
307.202454838992
 30
0.0
  0
VERTEX
  5
509
  8
1
  6
CONTINUOUS
 62
     7
 10
826.8261042793471
 20
307.3000000000001
 30
0.0
  0
SEQEND
  5
56E
  8
1
  6
CONTINUOUS
 62
     7
  0
POLYLINE
  5
246
  8
1
  6
CONTINUOUS
 62
     7
 66
     1
 10
0.0
 20
0.0
 30
0.0
  0
VERTEX
  5
50A
  8
1
  6
CONTINUOUS
 62
     7
 10
809.9386089055505
 20
298.0000000000001
 30
0.0
  0
VERTEX
  5
50B
  8
1
  6
CONTINUOUS
 62
     7
 10
810.0218110820375
 20
297.0245483899194
 30
0.0
  0
VERTEX
  5
50C
  8
1
  6
CONTINUOUS
 62
     7
 10
810.2682201985164
 20
296.0865828381746
 30
0.0
  0
VERTEX
  5
50D
  8
1
  6
CONTINUOUS
 62
     7
 10
810.6683668908287
 20
295.222148834902
 30
0.0
  0
VERTEX
  5
50E
  8
1
  6
CONTINUOUS
 62
     7
 10
811.2068737459937
 20
294.4644660940673
 30
0.0
  0
VERTEX
  5
50F
  8
1
  6
CONTINUOUS
 62
     7
 10
811.8630462475656
 20
293.8426519384873
 30
0.0
  0
VERTEX
  5
510
  8
1
  6
CONTINUOUS
 62
     7
 10
812.6116680542948
 20
293.3806023374436
 30
0.0
  0
VERTEX
  5
511
  8
1
  6
CONTINUOUS
 62
     7
 10
813.4239700499804
 20
293.0960735979839
 30
0.0
  0
VERTEX
  5
512
  8
1
  6
CONTINUOUS
 62
     7
 10
814.2687359244727
 20
293.0000000000001
 30
0.0
  0
SEQEND
  5
56F
  8
1
  6
CONTINUOUS
 62
     7
  0
LINE
  5
247
  8
1
  6
CONTINUOUS
 62
     7
 10
809.9386089055506
 20
298.0000000000001
 30
0.0
 11
809.9386089055506
 21
305.8000000000001
 31
0.0
  0
POLYLINE
  5
248
  8
1
  6
CONTINUOUS
 62
     7
 66
     1
 10
0.0
 20
0.0
 30
0.0
  0
VERTEX
  5
513
  8
1
  6
CONTINUOUS
 62
     7
 10
810.8046343093347
 20
306.8000000000001
 30
0.0
  0
VERTEX
  5
514
  8
1
  6
CONTINUOUS
 62
     7
 10
810.6356811344363
 20
306.7807852804032
 30
0.0
  0
VERTEX
  5
515
  8
1
  6
CONTINUOUS
 62
     7
 10
810.4732207352992
 20
306.7238795325112
 30
0.0
  0
VERTEX
  5
516
  8
1
  6
CONTINUOUS
 62
     7
 10
810.3234963739533
 20
306.6314696123024
 30
0.0
  0
VERTEX
  5
517
  8
1
  6
CONTINUOUS
 62
     7
 10
810.192261873639
 20
306.5071067811863
 30
0.0
  0
VERTEX
  5
518
  8
1
  6
CONTINUOUS
 62
     7
 10
810.084560502606
 20
306.3555702330194
 30
0.0
  0
VERTEX
  5
519
  8
1
  6
CONTINUOUS
 62
     7
 10
810.0045311641436
 20
306.1826834323649
 30
0.0
  0
VERTEX
  5
51A
  8
1
  6
CONTINUOUS
 62
     7
 10
809.9552493408479
 20
305.9950903220159
 30
0.0
  0
VERTEX
  5
51B
  8
1
  6
CONTINUOUS
 62
     7
 10
809.9386089055506
 20
305.7999999999997
 30
0.0
  0
SEQEND
  5
570
  8
1
  6
CONTINUOUS
 62
     7
  0
LINE
  5
249
  8
1
  6
CONTINUOUS
 62
     7
 10
809.9386089055506
 20
322.0000000000001
 30
0.0
 11
809.9386089055506
 21
314.2
 31
0.0
  0
POLYLINE
  5
24A
  8
1
  6
CONTINUOUS
 62
     7
 66
     1
 10
0.0
 20
0.0
 30
0.0
  0
VERTEX
  5
51C
  8
1
  6
CONTINUOUS
 62
     7
 10
814.2687359244727
 20
327.0000000000001
 30
0.0
  0
VERTEX
  5
51D
  8
1
  6
CONTINUOUS
 62
     7
 10
813.4239700499804
 20
326.9039264020162
 30
0.0
  0
VERTEX
  5
51E
  8
1
  6
CONTINUOUS
 62
     7
 10
812.6116680542948
 20
326.6193976625565
 30
0.0
  0
VERTEX
  5
51F
  8
1
  6
CONTINUOUS
 62
     7
 10
811.8630462475656
 20
326.1573480615128
 30
0.0
  0
VERTEX
  5
520
  8
1
  6
CONTINUOUS
 62
     7
 10
811.2068737459937
 20
325.5355339059328
 30
0.0
  0
VERTEX
  5
521
  8
1
  6
CONTINUOUS
 62
     7
 10
810.6683668908287
 20
324.7778511650981
 30
0.0
  0
VERTEX
  5
522
  8
1
  6
CONTINUOUS
 62
     7
 10
810.2682201985164
 20
323.9134171618255
 30
0.0
  0
VERTEX
  5
523
  8
1
  6
CONTINUOUS
 62
     7
 10
810.0218110820375
 20
322.9754516100807
 30
0.0
  0
VERTEX
  5
524
  8
1
  6
CONTINUOUS
 62
     7
 10
809.9386089055505
 20
322.0000000000001
 30
0.0
  0
SEQEND
  5
571
  8
1
  6
CONTINUOUS
 62
     7
  0
LINE
  5
24B
  8
1
  6
CONTINUOUS
 62
     7
 10
826.3930915774549
 20
313.2
 30
0.0
 11
825.8680222448377
 21
313.2
 31
0.0
  0
LINE
  5
24C
  8
1
  6
CONTINUOUS
 62
     7
 10
814.8347017914707
 20
313.2
 30
0.0
 11
810.804634309335
 21
313.2
 31
0.0
  0
POLYLINE
  5
24D
  8
1
  6
CONTINUOUS
 62
     7
 66
     1
 10
0.0
 20
0.0
 30
0.0
  0
VERTEX
  5
525
  8
1
  6
CONTINUOUS
 62
     7
 10
809.9386089055506
 20
314.2000000000004
 30
0.0
  0
VERTEX
  5
526
  8
1
  6
CONTINUOUS
 62
     7
 10
809.9552493408479
 20
314.0049096779842
 30
0.0
  0
VERTEX
  5
527
  8
1
  6
CONTINUOUS
 62
     7
 10
810.0045311641436
 20
313.8173165676353
 30
0.0
  0
VERTEX
  5
528
  8
1
  6
CONTINUOUS
 62
     7
 10
810.084560502606
 20
313.6444297669807
 30
0.0
  0
VERTEX
  5
529
  8
1
  6
CONTINUOUS
 62
     7
 10
810.192261873639
 20
313.4928932188138
 30
0.0
  0
VERTEX
  5
52A
  8
1
  6
CONTINUOUS
 62
     7
 10
810.3234963739533
 20
313.3685303876977
 30
0.0
  0
VERTEX
  5
52B
  8
1
  6
CONTINUOUS
 62
     7
 10
810.4732207352992
 20
313.2761204674889
 30
0.0
  0
VERTEX
  5
52C
  8
1
  6
CONTINUOUS
 62
     7
 10
810.6356811344363
 20
313.2192147195969
 30
0.0
  0
VERTEX
  5
52D
  8
1
  6
CONTINUOUS
 62
     7
 10
810.8046343093347
 20
313.2
 30
0.0
  0
SEQEND
  5
572
  8
1
  6
CONTINUOUS
 62
     7
  0
LINE
  5
24E
  8
1
  6
CONTINUOUS
 62
     7
 10
813.0740527322439
 20
313.2
 30
0.0
 11
813.0740527322439
 21
306.8000000000001
 31
0.0
  0
ARC
  5
24F
  8
1
  6
CONTINUOUS
 62
     7
 10
811.5740527322438
 20
324.0000000000001
 30
0.0
 40
3.000000000000003
 50
90.0
 51
180.0
  0
LINE
  5
250
  8
1
  6
CONTINUOUS
 62
     7
 10
808.5740527322438
 20
296.0000000000001
 30
0.0
 11
808.5740527322438
 21
300.0000000000001
 31
0.0
  0
LINE
  5
251
  8
1
  6
CONTINUOUS
 62
     7
 10
808.5740527322438
 20
320.0000000000001
 30
0.0
 11
808.5740527322438
 21
324.0000000000001
 31
0.0
  0
ARC
  5
252
  8
1
  6
CONTINUOUS
 62
     7
 10
811.5740527322438
 20
296.0000000000001
 30
0.0
 40
3.000000000000003
 50
180.0
 51
270.0
  0
LINE
  5
253
  8
1
  6
CONTINUOUS
 62
     7
 10
837.4098568748116
 20
303.0000000000001
 30
0.0
 11
838.6901069537274
 21
303.0000000000001
 31
0.0
  0
LINE
  5
254
  8
1
  6
CONTINUOUS
 62
     7
 10
838.6901069537274
 20
317.0000000000001
 30
0.0
 11
837.4098568748116
 21
317.0000000000001
 31
0.0
  0
LINE
  5
255
  8
1
  6
CONTINUOUS
 62
     7
 10
843.8793128149823
 20
314.7611090819858
 30
0.0
 11
843.7499740831508
 21
315.0000000000001
 31
0.0
  0
LINE
  5
256
  8
1
  6
CONTINUOUS
 62
     7
 10
843.7499740831508
 20
305.0000000000001
 30
0.0
 11
843.8793128149823
 21
305.2388909180143
 31
0.0
  0
LINE
  5
257
  8
1
  6
CONTINUOUS
 62
     7
 10
820.2263620181541
 20
303.0000000000001
 30
0.0
 11
820.4763620181542
 21
303.0000000000001
 31
0.0
  0
LINE
  5
258
  8
1
  6
CONTINUOUS
 62
     7
 10
820.4763620181542
 20
317.0000000000001
 30
0.0
 11
820.2263620181541
 21
317.0000000000001
 31
0.0
  0
LINE
  5
259
  8
1
  6
CONTINUOUS
 62
     7
 10
826.8261042793471
 20
307.4
 30
0.0
 11
826.1048609299423
 21
307.4
 31
0.0
  0
LINE
  5
25A
  8
1
  6
CONTINUOUS
 62
     7
 10
826.1048609299423
 20
312.6
 30
0.0
 11
826.8261042793471
 21
312.6
 31
0.0
  0
LINE
  5
25B
  8
1
  6
CONTINUOUS
 62
     7
 10
865.3945460292375
 20
313.0000000000001
 30
0.0
 11
844.3087384294563
 21
313.0000000000001
 31
0.0
  0
LINE
  5
25C
  8
1
  6
CONTINUOUS
 62
     7
 10
844.3087384294563
 20
307.0000000000001
 30
0.0
 11
865.3945460292375
 21
307.0000000000001
 31
0.0
  0
LINE
  5
25D
  8
1
  6
CONTINUOUS
 62
     7
 10
836.126104279347
 20
293.0000000000001
 30
0.0
 11
836.126104279347
 21
327.0000000000001
 31
0.0
  0
LINE
  5
25E
  8
1
  6
CONTINUOUS
 62
     7
 10
836.1263177617747
 20
319.663166384568
 30
0.0
 11
836.2490884040664
 21
321.0000000000001
 31
0.0
  0
LINE
  5
25F
  8
1
  6
CONTINUOUS
 62
     7
 10
836.2490884040664
 20
321.0000000000001
 30
0.0
 11
836.1262287268025
 21
322.3372010392093
 31
0.0
  0
LINE
  5
260
  8
1
  6
CONTINUOUS
 62
     7
 10
836.1263177617747
 20
297.6631663845679
 30
0.0
 11
836.2490884040664
 21
299.0000000000001
 31
0.0
  0
LINE
  5
261
  8
1
  6
CONTINUOUS
 62
     7
 10
836.2490884040664
 20
299.0000000000001
 30
0.0
 11
836.1262287268025
 21
300.3372010392093
 31
0.0
  0
ENDBLK
  8
0
  0
ENDSEC
  0
SECTION
  2
ENTITIES
  0
LINE
  5
70
  8
1
  6
CENTER
 62
     1
 10
695.0
 20
14.442362847344
 30
0.0
 11
695.0
 21
180.0
 31
0.0
  0
LINE
  5
72
  8
1
  6
CENTER
 62
     1
 10
600.0
 20
180.0
 30
0.0
 11
600.0
 21
16.05763715265601
 31
0.0
  0
LINE
  5
73
  8
1
  6
CENTER
 62
     1
 10
631.7353981119293
 20
77.7069647354148
 30
0.0
 11
758.2646018880708
 21
77.7069647354148
 31
0.0
  0
TEXT
  5
74
  8
1
  6
CONTINUOUS
 62
     7
 10
650.345379517319
 20
204.1606352382143
 30
0.0
 40
8.0
  1
YHM-100
  0
INSERT
  5
100
  8
1
  6
CONTINUOUS
 62
     7
  2
D_FRAME_VIEW_1474
 10
0.0
 20
0.0
 30
0.0
  0
INSERT
  5
148
  8
1
  6
CONTINUOUS
 62
     7
  2
D_FRAME_VIEW_1935
 10
0.0
 20
0.0
 30
0.0
  0
POINT
  5
149
  8
1
 62
     7
 10
600.0
 20
150.0
 30
0.0
  0
POINT
  5
14A
  8
1
 62
     1
 10
680.0
 20
180.0
 30
0.0
  0
POINT
  5
14B
  8
1
 62
     1
 10
655.0
 20
310.0000000000001
 30
0.0
  0
LINE
  5
14C
  8
1
  6
CONTINUOUS
 62
     7
 10
597.3999999999999
 20
164.0759584368068
 30
0.0
 11
597.3999999999999
 21
160.933260634135
 31
0.0
  0
LINE
  5
14D
  8
1
  6
CONTINUOUS
 62
     7
 10
602.6
 20
160.933260634135
 30
0.0
 11
602.6
 21
164.0759584368068
 31
0.0
  0
LINE
  5
14E
  8
1
  6
CONTINUOUS
 62
     7
 10
583.0
 20
173.942362847344
 30
0.0
 11
583.0
 21
136.8389590173671
 31
0.0
  0
LINE
  5
14F
  8
1
  6
CONTINUOUS
 62
     7
 10
617.0
 20
173.942362847344
 30
0.0
 11
617.0
 21
136.8389590173671
 31
0.0
  0
LINE
  5
150
  8
1
  6
CONTINUOUS
 62
     7
 10
603.1999999999999
 20
152.9423628473439
 30
0.0
 11
603.1999999999999
 21
164.2941242538818
 31
0.0
  0
LINE
  5
151
  8
1
  6
CONTINUOUS
 62
     7
 10
472.1848673109084
 20
320.5000000000001
 30
0.0
 11
808.5740527322438
 21
320.5000000000001
 31
0.0
  0
LINE
  5
152
  8
1
  6
CONTINUOUS
 62
     7
 10
472.1848673109084
 20
299.5000000000001
 30
0.0
 11
808.5740527322438
 21
299.5000000000001
 31
0.0
  0
LINE
  5
153
  8
1
  6
CONTINUOUS
 62
     7
 10
472.1848673109084
 20
322.1000000000001
 30
0.0
 11
808.5740527322438
 21
322.1000000000001
 31
0.0
  0
LINE
  5
154
  8
1
  6
CONTINUOUS
 62
     7
 10
472.1848673109084
 20
297.9
 30
0.0
 11
808.5740527322438
 21
297.9
 31
0.0
  0
LINE
  5
155
  8
1
  6
CONTINUOUS
 62
     7
 10
809.9386089055506
 20
300.0000000000001
 30
0.0
 11
468.8794600215761
 21
300.0000000000001
 31
0.0
  0
LINE
  5
156
  8
1
  6
CONTINUOUS
 62
     7
 10
809.9386089055506
 20
320.0000000000001
 30
0.0
 11
468.8794600215761
 21
320.0000000000001
 31
0.0
  0
LINE
  5
157
  8
1
  6
CONTINUOUS
 62
     7
 10
516.3005151117122
 20
227.8082960901238
 30
0.0
 11
764.4584049314398
 21
227.8082960901238
 31
0.0
  0
LINE
  5
158
  8
1
  6
CONTINUOUS
 62
     7
 10
516.3005151117122
 20
231.3082960901238
 30
0.0
 11
764.4584049314398
 21
231.3082960901238
 31
0.0
  0
LINE
  5
159
  8
1
  6
CONTINUOUS
 62
     7
 10
610.0
 20
140.6508160935066
 30
0.0
 11
610.0
 21
16.05763715265596
 31
0.0
  0
LINE
  5
15A
  8
1
  6
CONTINUOUS
 62
     7
 10
590.0
 20
140.6508160935066
 30
0.0
 11
590.0
 21
16.05763715265596
 31
0.0
  0
LINE
  5
15B
  8
1
  6
CONTINUOUS
 62
     7
 10
692.3556741685343
 20
139.790978037705
 30
0.0
 11
669.7535882077798
 21
135.8056204625319
 31
0.0
  0
LINE
  5
15C
  8
1
  6
CONTINUOUS
 62
     7
 10
697.6443258314658
 20
139.7909780377051
 30
0.0
 11
720.2464117922203
 21
135.8056204625319
 31
0.0
  0
LINE
  5
15D
  8
1
  6
CONTINUOUS
 62
     7
 10
769.2100475724669
 20
230.8082960901238
 30
0.0
 11
804.8794600215763
 21
230.8082960901238
 31
0.0
  0
LINE
  5
15E
  8
1
  6
CONTINUOUS
 62
     7
 10
804.8794600215763
 20
231.2082960901238
 30
0.0
 11
766.5488594274763
 21
231.2082960901238
 31
0.0
  0
ARC
  5
15F
  8
1
  6
CONTINUOUS
 62
     7
 10
694.7120614758428
 20
77.7069647354148
 30
0.0
 40
61.65000000000008
 50
270.2676029549677
 51
48.57411522819736
  0
ARC
  5
160
  8
1
  6
CONTINUOUS
 62
     7
 10
695.2879385241572
 20
77.7069647354148
 30
0.0
 40
61.65000000000009
 50
131.4258847718027
 51
269.7323970450324
  0
LINE
  5
161
  8
1
  6
CONTINUOUS
 62
     7
 10
449.0334825012692
 20
232.4918529336385
 30
0.0
 11
444.0845094377618
 21
260.5588738944864
 31
0.0
  0
LINE
  5
162
  8
1
  6
CONTINUOUS
 62
     7
 10
828.5740527322438
 20
229.8475271021726
 30
0.0
 11
808.5740527322438
 21
229.8475271021726
 31
0.0
  0
LINE
  5
163
  8
1
  6
CONTINUOUS
 62
     7
 10
477.378459921556
 20
231.6082960901238
 30
0.0
 11
508.879460021576
 21
231.6082960901238
 31
0.0
  0
LINE
  5
164
  8
1
  6
CONTINUOUS
 62
     7
 10
811.5386089055505
 20
250.8397801212296
 30
0.0
 11
828.426104279347
 21
260.5897801212296
 31
0.0
  0
LINE
  5
165
  8
1
  6
CONTINUOUS
 62
     7
 10
467.3794600215755
 20
229.3082960901242
 30
0.0
 11
467.3794600215755
 21
225.8082960901242
 31
0.0
  0
ARC
  5
166
  8
1
  6
CONTINUOUS
 62
     7
 10
695.0
 20
77.7069647354148
 30
0.0
 40
57.76460188807086
 50
106.4549761417595
 51
73.54502385824047
  0
LINE
  5
167
  8
1
  6
CONTINUOUS
 62
     7
 10
477.378459921556
 20
230.4082960901238
 30
0.0
 11
508.879460021576
 21
230.4082960901238
 31
0.0
  0
LINE
  5
168
  8
1
  6
CONTINUOUS
 62
     7
 10
844.4823866071232
 20
253.1317866512606
 30
0.0
 11
842.7459048304531
 21
243.2837091211387
 31
0.0
  0
LINE
  5
169
  8
1
  6
CONTINUOUS
 62
     7
 10
511.5488724706852
 20
230.8082960901238
 30
0.0
 11
475.8794600215759
 21
230.8082960901238
 31
0.0
  0
LINE
  5
16A
  8
1
  6
CONTINUOUS
 62
     7
 10
808.5740527322438
 20
233.0475271021727
 30
0.0
 11
828.5740527322438
 21
233.0475271021727
 31
0.0
  0
ARC
  5
16B
  8
1
  6
CONTINUOUS
 62
     7
 10
695.0
 20
77.7069647354148
 30
0.0
 40
61.26460188807081
 50
106.4549761417596
 51
73.54502385824048
  0
LINE
  5
16C
  8
1
  6
CONTINUOUS
 62
     7
 10
472.1848673109084
 20
229.8475271021727
 30
0.0
 11
452.1848673109083
 21
229.8475271021729
 31
0.0
  0
LINE
  5
16D
  8
1
  6
CONTINUOUS
 62
     7
 10
803.3804601215961
 20
231.6082960901238
 30
0.0
 11
771.879460021576
 21
231.6082960901238
 31
0.0
  0
LINE
  5
16E
  8
1
  6
CONTINUOUS
 62
     7
 10
452.1848673109083
 20
233.0475271021727
 30
0.0
 11
472.1848673109084
 21
233.0475271021727
 31
0.0
  0
ARC
  5
16F
  8
1
  6
CONTINUOUS
 62
     9
 10
600.0
 20
161.5295272928486
 30
0.0
 40
3.000000000000036
 50
150.0735651333858
 51
185.703341215607
  0
LINE
  5
170
  8
1
  6
CONTINUOUS
 62
     7
 10
836.1943196311431
 20
242.4080771344158
 30
0.0
 11
838.6253941184801
 21
256.1953856765867
 31
0.0
  0
LINE
  5
171
  8
1
  6
CONTINUOUS
 62
     7
 10
447.2358942474008
 20
261.1145480630206
 30
0.0
 11
452.1848673109082
 21
233.0475271021727
 31
0.0
  0
LINE
  5
172
  8
1
  6
CONTINUOUS
 62
     7
 10
837.474569710059
 20
242.1823345034488
 30
0.0
 11
839.905644197396
 21
255.9696430456197
 31
0.0
  0
LINE
  5
173
  8
1
  6
CONTINUOUS
 62
     7
 10
826.8261042793471
 20
263.3610614133398
 30
0.0
 11
809.9386089055505
 21
253.6110614133397
 31
0.0
  0
LINE
  5
174
  8
1
  6
CONTINUOUS
 62
     7
 10
813.3794600215766
 20
229.3082960901242
 30
0.0
 11
813.3794600215766
 21
225.8082960901242
 31
0.0
  0
LINE
  5
175
  8
1
  6
CONTINUOUS
 62
     7
 10
514.2100606156757
 20
231.2082960901238
 30
0.0
 11
475.8794600215759
 21
231.2082960901238
 31
0.0
  0
LINE
  5
176
  8
1
  6
CONTINUOUS
 62
     7
 10
803.3804601215961
 20
230.4082960901238
 30
0.0
 11
771.879460021576
 21
230.4082960901238
 31
0.0
  0
LINE
  5
177
  8
1
  6
CONTINUOUS
 62
     7
 10
672.103844939756
 20
139.4693992940055
 30
0.0
 11
654.4971741715643
 21
123.9328886691908
 31
0.0
  0
LINE
  5
178
  8
1
  6
CONTINUOUS
 62
     7
 10
686.8716371709404
 20
170.0404961767009
 30
0.0
 11
671.9337705301203
 21
157.5061377878134
 31
0.0
  0
LINE
  5
179
  8
1
  6
CONTINUOUS
 62
     7
 10
698.2
 20
142.942362847344
 30
0.0
 11
698.2
 21
171.442362847344
 31
0.0
  0
LINE
  5
17A
  8
1
  6
CONTINUOUS
 62
     7
 10
704.5
 20
166.5295272928486
 30
0.0
 11
704.5
 21
156.5295272928486
 31
0.0
  0
LINE
  5
17B
  8
1
  6
CONTINUOUS
 62
     7
 10
731.6441939632272
 20
126.8043627651393
 30
0.0
 11
719.8609787225809
 21
137.2021291112629
 31
0.0
  0
LINE
  5
17C
  8
1
  6
CONTINUOUS
 62
     7
 10
717.8961550602442
 20
139.4693992940055
 30
0.0
 11
735.5028258284357
 21
123.9328886691908
 31
0.0
  0
LINE
  5
17D
  8
1
  6
CONTINUOUS
 62
     7
 10
672.1038449397558
 20
139.4693992940054
 30
0.0
 11
691.8000000000001
 21
142.9423628473438
 31
0.0
  0
LINE
  5
17E
  8
1
  6
CONTINUOUS
 62
     7
 10
469.1848673109084
 20
293.0000000000001
 30
0.0
 11
444.6054539707625
 21
293.0000000000001
 31
0.0
  0
LINE
  5
17F
  8
1
  6
CONTINUOUS
 62
     7
 10
669.8768501791235
 20
159.9574800057941
 30
0.0
 11
684.8147168199437
 21
172.4918383946816
 31
0.0
  0
LINE
  5
180
  8
1
  6
CONTINUOUS
 62
     7
 10
712.3539215648614
 20
136.4623291783697
 30
0.0
 11
711.3625052558489
 21
133.1056800006593
 31
0.0
  0
LINE
  5
181
  8
1
  6
CONTINUOUS
 62
     7
 10
677.6460784351387
 20
136.4623291783697
 30
0.0
 11
678.6374947441512
 21
133.1056800006593
 31
0.0
  0
LINE
  5
182
  8
1
  6
CONTINUOUS
 62
     7
 10
836.126104279347
 20
327.0000000000001
 30
0.0
 11
811.5740527322438
 21
327.0000000000001
 31
0.0
  0
LINE
  5
183
  8
1
  6
CONTINUOUS
 62
     7
 10
836.126104279347
 20
293.0000000000001
 30
0.0
 11
811.5740527322438
 21
293.0000000000001
 31
0.0
  0
LINE
  5
184
  8
1
  6
CONTINUOUS
 62
     7
 10
469.1848673109084
 20
327.0000000000001
 30
0.0
 11
444.6054539707625
 21
327.0000000000001
 31
0.0
  0
LINE
  5
185
  8
1
  6
CONTINUOUS
 62
     7
 10
843.7499703058429
 20
305.0000000000001
 30
0.0
 11
839.5408058138238
 21
305.0000000000001
 31
0.0
  0
LINE
  5
186
  8
1
  6
CONTINUOUS
 62
     7
 10
839.5408058138238
 20
315.0000000000001
 30
0.0
 11
843.7499702995106
 21
315.0000000000001
 31
0.0
  0
LINE
  5
187
  8
1
  6
CONTINUOUS
 62
     7
 10
695.0
 20
142.942362847344
 30
0.0
 11
695.0
 21
171.442362847344
 31
0.0
  0
LINE
  5
188
  8
1
  6
CONTINUOUS
 62
     7
 10
717.8961550602442
 20
139.4693992940054
 30
0.0
 11
698.2
 21
142.942362847344
 31
0.0
  0
LINE
  5
189
  8
1
  6
CONTINUOUS
 62
     7
 10
699.5
 20
154.5295272928486
 30
0.0
 11
699.5
 21
168.5295272928486
 31
0.0
  0
LINE
  5
18A
  8
1
  6
CONTINUOUS
 62
     7
 10
596.8
 20
152.9423628473439
 30
0.0
 11
596.8
 21
164.2941242538818
 31
0.0
  0
LINE
  5
18B
  8
1
  6
CONTINUOUS
 62
     7
 10
583.0
 20
142.942362847344
 30
0.0
 11
617.0
 21
142.942362847344
 31
0.0
  0
LINE
  5
18C
  8
1
  6
CONTINUOUS
 62
     7
 10
670.1390212774193
 20
137.2021291112629
 30
0.0
 11
658.355806036773
 21
126.8043627651392
 31
0.0
  0
LINE
  5
18D
  8
1
  6
CENTER
 62
     1
 10
441.0845094377618
 20
310.0000000000001
 30
0.0
 11
868.9154905622382
 21
310.0000000000001
 31
0.0
  0
INSERT
  5
1ED
  8
1
  6
CONTINUOUS
 62
     7
  2
D_FRAME_VIEW_2185
 10
0.0
 20
0.0
 30
0.0
  0
INSERT
  5
262
  8
1
  6
CONTINUOUS
 62
     7
  2
D_FRAME_VIEW_1933
 10
0.0
 20
0.0
 30
0.0
  0
ENDSEC
  0
EOF
