  0
SECTION
  2
HEADER
  9
$ACADVER
  1
AC1006
  9
$DWGCODEPAGE
  3
ansi_932
  9
$INSBASE
 10
0.0
 20
0.0
 30
0.0
  9
$EXTMIN
 10
0.0
 20
0.0
  9
$EXTMAX
 10
789.4154905622382
 20
327.0000000000001
  9
$LIMMIN
 10
0.0
 20
0.0
  9
$LIMMAX
 10
12.0
 20
9.0
  9
$ORTHOMODE
 70
     0
  9
$REGENMODE
 70
     1
  9
$FILLMODE
 70
     1
  9
$QTEXTMODE
 70
     0
  9
$MIRRTEXT
 70
     1
  9
$DRAGMODE
 70
     2
  9
$LTSCALE
 40
1.0
  9
$OSMODE
 70
    37
  9
$ATTMODE
 70
     1
  9
$TEXTSIZE
 40
0.2
  9
$TRACEWID
 40
0.05
  9
$TEXTSTYLE
  7
STANDARD
  9
$CLAYER
  8
0
  9
$CELTYPE
  6
BYLAYER
  9
$CECOLOR
 62
   256
  9
$DIMSCALE
 40
1.0
  9
$DIMASZ
 40
3.0
  9
$DIMEXO
 40
0.0625
  9
$DIMDLI
 40
0.38
  9
$DIMRND
 40
0.0
  9
$DIMDLE
 40
0.0
  9
$DIMEXE
 40
1.5
  9
$DIMTP
 40
0.0
  9
$DIMTM
 40
0.0
  9
$DIMTXT
 40
3.0
  9
$DIMCEN
 40
0.09
  9
$DIMTSZ
 40
0.0
  9
$DIMTOL
 70
     0
  9
$DIMLIM
 70
     0
  9
$DIMTIH
 70
     1
  9
$DIMTOH
 70
     1
  9
$DIMSE1
 70
     0
  9
$DIMSE2
 70
     0
  9
$DIMTAD
 70
     1
  9
$DIMZIN
 70
     0
  9
$DIMBLK
  1

  9
$DIMASO
 70
     1
  9
$DIMSHO
 70
     1
  9
$DIMPOST
  1

  9
$DIMAPOST
  1

  9
$DIMALT
 70
     0
  9
$DIMALTD
 70
     2
  9
$DIMALTF
 40
25.4
  9
$DIMLFAC
 40
1.0
  9
$DIMTOFL
 70
     0
  9
$DIMTVP
 40
0.0
  9
$DIMTIX
 70
     0
  9
$DIMSOXD
 70
     0
  9
$DIMSAH
 70
     0
  9
$DIMBLK1
  1

  9
$DIMBLK2
  1

  9
$LUNITS
 70
     2
  9
$LUPREC
 70
     4
  9
$SKETCHINC
 40
0.1
  9
$FILLETRAD
 40
0.5
  9
$AUNITS
 70
     0
  9
$AUPREC
 70
     0
  9
$MENU
  1
.
  9
$ELEVATION
 40
0.0
  9
$THICKNESS
 40
0.0
  9
$LIMCHECK
 70
     0
  9
$CHAMFERA
 40
0.0
  9
$CHAMFERB
 40
0.0
  9
$SKPOLY
 70
     0
  9
$TDCREATE
 40
2460455.755330579
  9
$TDUPDATE
 40
2460455.75533088
  9
$TDINDWG
 40
0.0000000116
  9
$TDUSRTIMER
 40
0.0000000116
  9
$USRTIMER
 70
     1
  9
$ANGBASE
 50
0.0
  9
$ANGDIR
 70
     0
  9
$PDMODE
 70
     0
  9
$PDSIZE
 40
0.0
  9
$PLINEWID
 40
0.0
  9
$COORDS
 70
     1
  9
$SPLFRAME
 70
     0
  9
$SPLINETYPE
 70
     6
  9
$SPLINESEGS
 70
     8
  9
$ATTDIA
 70
     0
  9
$ATTREQ
 70
     1
  9
$HANDLING
 70
     1
  9
$HANDSEED
  5
588
  9
$SURFTAB1
 70
     6
  9
$SURFTAB2
 70
     6
  9
$SURFTYPE
 70
     6
  9
$SURFU
 70
     6
  9
$SURFV
 70
     6
  9
$UCSNAME
  2

  9
$UCSORG
 10
0.0
 20
0.0
 30
0.0
  9
$UCSXDIR
 10
1.0
 20
0.0
 30
0.0
  9
$UCSYDIR
 10
0.0
 20
1.0
 30
0.0
  9
$USERI1
 70
     0
  9
$USERI2
 70
     0
  9
$USERI3
 70
     0
  9
$USERI4
 70
     0
  9
$USERI5
 70
     0
  9
$USERR1
 40
0.0
  9
$USERR2
 40
0.0
  9
$USERR3
 40
0.0
  9
$USERR4
 40
0.0
  9
$USERR5
 40
0.0
  9
$WORLDVIEW
 70
     1
  0
ENDSEC
  0
SECTION
  2
TABLES
  0
TABLE
  2
VPORT
 70
     1
  0
VPORT
  2
*ACTIVE
 70
     0
 10
0.0
 20
0.0
 11
1.0
 21
1.0
 12
394.7077452811191
 22
163.5
 13
0.0
 23
0.0
 14
0.5
 24
0.5
 15
0.5
 25
0.5
 16
0.0
 26
0.0
 36
1.0
 17
0.0
 27
0.0
 37
0.0
 40
327.0000000000001
 41
1.6
 42
50.0
 43
0.0
 44
0.0
 50
0.0
 51
0.0
 71
     0
 72
   100
 73
     1
 74
     3
 75
     0
 76
     0
 77
     0
 78
     0
  0
ENDTAB
  0
TABLE
  2
LTYPE
 70
     2
  0
LTYPE
  2
CONTINUOUS
 70
     0
  3
Solid line
 72
    65
 73
     0
 40
0.0
  0
LTYPE
  2
CENTER
 70
     0
  3

 72
    65
 73
     0
 40
0.0
  0
ENDTAB
  0
TABLE
  2
LAYER
 70
     2
  0
LAYER
  2
0
 70
     0
 62
     7
  6
CONTINUOUS
  0
LAYER
  2
1
 70
     0
 62
     7
  6
CONTINUOUS
  0
ENDTAB
  0
TABLE
  2
STYLE
 70
     2
  0
STYLE
  2
STANDARD
 70
     0
 40
0.0
 41
1.0
 50
0.0
 71
     0
 42
0.2
  3
txt
  4

  0
STYLE
  2
ＭＳ_ゴシック
 70
     0
 40
0.0
 41
1.0
 50
0.0
 71
     0
 42
0.2
  3
ＭＳ ゴシック.shx
  4

  0
ENDTAB
  0
TABLE
  2
VIEW
 70
     0
  0
ENDTAB
  0
TABLE
  2
UCS
 70
     0
  0
ENDTAB
  0
ENDSEC
  0
SECTION
  2
BLOCKS
  0
BLOCK
  8
0
  2
D_FRAME_VIEW_2185
 70
     0
 10
0.0
 20
0.0
 30
0.0
  0
ARC
  5
71
  8
1
  6
CONTINUOUS
 62
     9
 10
610.0
 20
165.0871644455046
 30
0.0
 40
3.000000000000038
 50
354.2966587844263
 51
29.92643486661445
  0
LINE
  5
72
  8
1
  6
CONTINUOUS
 62
     7
 10
620.8
 20
139.5571345113141
 30
0.0
 11
621.8
 21
139.5571345113141
 31
0.0
  0
POLYLINE
  5
73
  8
1
  6
CONTINUOUS
 62
     7
 66
     1
 10
0.0
 20
0.0
 30
0.0
  0
VERTEX
  5
26B
  8
1
  6
CONTINUOUS
 62
     7
 10
599.5
 20
139.2891673830539
 30
0.0
  0
VERTEX
  5
26C
  8
1
  6
CONTINUOUS
 62
     7
 10
599.4942355841209
 20
139.341445176396
 30
0.0
  0
VERTEX
  5
26D
  8
1
  6
CONTINUOUS
 62
     7
 10
599.4771638597534
 20
139.3917139634576
 30
0.0
  0
VERTEX
  5
26E
  8
1
  6
CONTINUOUS
 62
     7
 10
599.4494408836907
 20
139.4380419429431
 30
0.0
  0
VERTEX
  5
26F
  8
1
  6
CONTINUOUS
 62
     7
 10
599.412132034356
 20
139.4786487565818
 30
0.0
  0
VERTEX
  5
270
  8
1
  6
CONTINUOUS
 62
     7
 10
599.3666710699058
 20
139.5119739072983
 30
0.0
  0
VERTEX
  5
271
  8
1
  6
CONTINUOUS
 62
     7
 10
599.3148050297095
 20
139.5367367282394
 30
0.0
  0
VERTEX
  5
272
  8
1
  6
CONTINUOUS
 62
     7
 10
599.2585270966048
 20
139.5519855980835
 30
0.0
  0
VERTEX
  5
273
  8
1
  6
CONTINUOUS
 62
     7
 10
599.1999999999999
 20
139.5571345113142
 30
0.0
  0
SEQEND
  5
543
  8
1
  6
CONTINUOUS
 62
     7
  0
LINE
  5
74
  8
1
  6
CONTINUOUS
 62
     7
 10
599.5
 20
139.289167383054
 30
0.0
 11
599.5
 21
72.79999999999991
 31
0.0
  0
LINE
  5
75
  8
1
  6
CONTINUOUS
 62
     7
 10
620.4999999999999
 20
139.289167383054
 30
0.0
 11
620.4999999999999
 21
72.79999999999991
 31
0.0
  0
POLYLINE
  5
76
  8
1
  6
CONTINUOUS
 62
     7
 66
     1
 10
0.0
 20
0.0
 30
0.0
  0
VERTEX
  5
274
  8
1
  6
CONTINUOUS
 62
     7
 10
620.8
 20
139.5571345113142
 30
0.0
  0
VERTEX
  5
275
  8
1
  6
CONTINUOUS
 62
     7
 10
620.7414729033951
 20
139.5519855980835
 30
0.0
  0
VERTEX
  5
276
  8
1
  6
CONTINUOUS
 62
     7
 10
620.6851949702904
 20
139.5367367282394
 30
0.0
  0
VERTEX
  5
277
  8
1
  6
CONTINUOUS
 62
     7
 10
620.6333289300941
 20
139.5119739072983
 30
0.0
  0
VERTEX
  5
278
  8
1
  6
CONTINUOUS
 62
     7
 10
620.5878679656439
 20
139.4786487565818
 30
0.0
  0
VERTEX
  5
279
  8
1
  6
CONTINUOUS
 62
     7
 10
620.5505591163092
 20
139.4380419429431
 30
0.0
  0
VERTEX
  5
27A
  8
1
  6
CONTINUOUS
 62
     7
 10
620.5228361402465
 20
139.3917139634576
 30
0.0
  0
VERTEX
  5
27B
  8
1
  6
CONTINUOUS
 62
     7
 10
620.505764415879
 20
139.341445176396
 30
0.0
  0
VERTEX
  5
27C
  8
1
  6
CONTINUOUS
 62
     7
 10
620.4999999999999
 20
139.2891673830539
 30
0.0
  0
SEQEND
  5
544
  8
1
  6
CONTINUOUS
 62
     7
  0
POLYLINE
  5
77
  8
1
  6
CONTINUOUS
 62
     7
 66
     1
 10
0.0
 20
0.0
 30
0.0
  0
VERTEX
  5
27D
  8
1
  6
CONTINUOUS
 62
     7
 10
622.1
 20
139.2891673830539
 30
0.0
  0
VERTEX
  5
27E
  8
1
  6
CONTINUOUS
 62
     7
 10
622.094235584121
 20
139.341445176396
 30
0.0
  0
VERTEX
  5
27F
  8
1
  6
CONTINUOUS
 62
     7
 10
622.0771638597535
 20
139.3917139634576
 30
0.0
  0
VERTEX
  5
280
  8
1
  6
CONTINUOUS
 62
     7
 10
622.0494408836907
 20
139.4380419429431
 30
0.0
  0
VERTEX
  5
281
  8
1
  6
CONTINUOUS
 62
     7
 10
622.012132034356
 20
139.4786487565818
 30
0.0
  0
VERTEX
  5
282
  8
1
  6
CONTINUOUS
 62
     7
 10
621.9666710699058
 20
139.5119739072983
 30
0.0
  0
VERTEX
  5
283
  8
1
  6
CONTINUOUS
 62
     7
 10
621.9148050297096
 20
139.5367367282394
 30
0.0
  0
VERTEX
  5
284
  8
1
  6
CONTINUOUS
 62
     7
 10
621.8585270966048
 20
139.5519855980835
 30
0.0
  0
VERTEX
  5
285
  8
1
  6
CONTINUOUS
 62
     7
 10
621.8
 20
139.5571345113142
 30
0.0
  0
SEQEND
  5
545
  8
1
  6
CONTINUOUS
 62
     7
  0
LINE
  5
78
  8
1
  6
CONTINUOUS
 62
     7
 10
622.1
 20
139.289167383054
 30
0.0
 11
622.1
 21
72.79999999999997
 31
0.0
  0
POLYLINE
  5
79
  8
1
  6
CONTINUOUS
 62
     7
 66
     1
 10
0.0
 20
0.0
 30
0.0
  0
VERTEX
  5
286
  8
1
  6
CONTINUOUS
 62
     7
 10
598.1999999999999
 20
139.5571345113142
 30
0.0
  0
VERTEX
  5
287
  8
1
  6
CONTINUOUS
 62
     7
 10
598.1414729033951
 20
139.5519855980835
 30
0.0
  0
VERTEX
  5
288
  8
1
  6
CONTINUOUS
 62
     7
 10
598.0851949702903
 20
139.5367367282394
 30
0.0
  0
VERTEX
  5
289
  8
1
  6
CONTINUOUS
 62
     7
 10
598.0333289300941
 20
139.5119739072983
 30
0.0
  0
VERTEX
  5
28A
  8
1
  6
CONTINUOUS
 62
     7
 10
597.9878679656439
 20
139.4786487565818
 30
0.0
  0
VERTEX
  5
28B
  8
1
  6
CONTINUOUS
 62
     7
 10
597.9505591163091
 20
139.4380419429431
 30
0.0
  0
VERTEX
  5
28C
  8
1
  6
CONTINUOUS
 62
     7
 10
597.9228361402464
 20
139.3917139634576
 30
0.0
  0
VERTEX
  5
28D
  8
1
  6
CONTINUOUS
 62
     7
 10
597.9057644158789
 20
139.341445176396
 30
0.0
  0
VERTEX
  5
28E
  8
1
  6
CONTINUOUS
 62
     7
 10
597.8999999999999
 20
139.2891673830539
 30
0.0
  0
SEQEND
  5
546
  8
1
  6
CONTINUOUS
 62
     7
  0
LINE
  5
7A
  8
1
  6
CONTINUOUS
 62
     7
 10
597.9
 20
139.289167383054
 30
0.0
 11
597.9
 21
72.79999999999997
 31
0.0
  0
LINE
  5
7B
  8
1
  6
CONTINUOUS
 62
     7
 10
599.1999999999999
 20
139.5571345113141
 30
0.0
 11
598.1999999999999
 21
139.5571345113141
 31
0.0
  0
LINE
  5
7C
  8
1
  6
CONTINUOUS
 62
     7
 10
599.4999999999999
 20
139.1105226308805
 30
0.0
 11
600.0
 21
139.1105226308805
 31
0.0
  0
LINE
  5
7D
  8
1
  6
CONTINUOUS
 62
     7
 10
620.0
 20
139.1105226308805
 30
0.0
 11
620.4999999999999
 21
139.1105226308805
 31
0.0
  0
ARC
  5
7E
  8
1
  6
CONTINUOUS
 62
     7
 10
605.4969643046476
 20
116.4661185864153
 30
0.0
 40
5.505978841503093
 50
176.7209250648446
 51
264.8214909831089
  0
ARC
  5
7F
  8
1
  6
CONTINUOUS
 62
     7
 10
605.4930273310418
 20
116.7902407141712
 30
0.0
 40
5.500578331719429
 50
176.9974835010872
 51
264.8575686108002
  0
ARC
  5
80
  8
1
  6
CONTINUOUS
 62
     7
 10
614.4887516929123
 20
116.478435686001
 30
0.0
 40
5.519550505715314
 50
275.3146389169529
 51
3.142945035093646
  0
ARC
  5
81
  8
1
  6
CONTINUOUS
 62
     7
 10
614.4871146266386
 20
116.8074589956785
 30
0.0
 40
5.519537344275322
 50
275.3317188656135
 51
2.813229022498774
  0
LINE
  5
82
  8
1
  6
CONTINUOUS
 62
     7
 10
605.0
 20
111.3118024299312
 30
0.0
 11
615.0
 21
111.3118024299312
 31
0.0
  0
LINE
  5
83
  8
1
  6
CONTINUOUS
 62
     7
 10
605.0
 20
110.9826133677631
 30
0.0
 11
615.0
 21
110.9826133677631
 31
0.0
  0
LINE
  5
84
  8
1
  6
CONTINUOUS
 62
     7
 10
600.0
 20
72.52072149477559
 30
0.0
 11
620.0
 21
72.52072149477559
 31
0.0
  0
ARC
  5
85
  8
1
  6
CONTINUOUS
 62
     7
 10
610.0
 20
165.0871644455046
 30
0.0
 40
6.999999999999985
 50
242.7971055877856
 51
297.2028944122143
  0
POLYLINE
  5
86
  8
1
  6
CONTINUOUS
 62
     7
 66
     1
 10
0.0
 20
0.0
 30
0.0
  0
VERTEX
  5
28F
  8
1
  6
CONTINUOUS
 62
     7
 10
610.0
 20
167.737107228133
 30
0.0
  0
VERTEX
  5
290
  8
1
  6
CONTINUOUS
 62
     7
 10
611.3656322541129
 20
167.8235641138958
 30
0.0
  0
VERTEX
  5
291
  8
1
  6
CONTINUOUS
 62
     7
 10
612.6787840265556
 20
168.07961228155
 30
0.0
  0
VERTEX
  5
292
  8
1
  6
CONTINUOUS
 62
     7
 10
613.8889916311372
 20
168.4954119436061
 30
0.0
  0
VERTEX
  5
293
  8
1
  6
CONTINUOUS
 62
     7
 10
614.9497474683059
 20
169.0549841522345
 30
0.0
  0
VERTEX
  5
294
  8
1
  6
CONTINUOUS
 62
     7
 10
615.8202872861178
 20
169.7368248612691
 30
0.0
  0
VERTEX
  5
295
  8
1
  6
CONTINUOUS
 62
     7
 10
616.467156727579
 20
170.5147313146426
 30
0.0
  0
VERTEX
  5
296
  8
1
  6
CONTINUOUS
 62
     7
 10
616.8654969628226
 20
171.3588090036067
 30
0.0
  0
VERTEX
  5
297
  8
1
  6
CONTINUOUS
 62
     7
 10
617.0
 20
172.2366204959388
 30
0.0
  0
SEQEND
  5
547
  8
1
  6
CONTINUOUS
 62
     7
  0
POLYLINE
  5
87
  8
1
  6
CONTINUOUS
 62
     7
 66
     1
 10
0.0
 20
0.0
 30
0.0
  0
VERTEX
  5
298
  8
1
  6
CONTINUOUS
 62
     7
 10
603.0
 20
172.2366204959388
 30
0.0
  0
VERTEX
  5
299
  8
1
  6
CONTINUOUS
 62
     7
 10
603.1345030371774
 20
171.3588090036067
 30
0.0
  0
VERTEX
  5
29A
  8
1
  6
CONTINUOUS
 62
     7
 10
603.532843272421
 20
170.5147313146426
 30
0.0
  0
VERTEX
  5
29B
  8
1
  6
CONTINUOUS
 62
     7
 10
604.1797127138822
 20
169.7368248612691
 30
0.0
  0
VERTEX
  5
29C
  8
1
  6
CONTINUOUS
 62
     7
 10
605.0502525316941
 20
169.0549841522345
 30
0.0
  0
VERTEX
  5
29D
  8
1
  6
CONTINUOUS
 62
     7
 10
606.1110083688628
 20
168.4954119436061
 30
0.0
  0
VERTEX
  5
29E
  8
1
  6
CONTINUOUS
 62
     7
 10
607.3212159734444
 20
168.07961228155
 30
0.0
  0
VERTEX
  5
29F
  8
1
  6
CONTINUOUS
 62
     7
 10
608.6343677458871
 20
167.8235641138958
 30
0.0
  0
VERTEX
  5
2A0
  8
1
  6
CONTINUOUS
 62
     7
 10
610.0
 20
167.737107228133
 30
0.0
  0
SEQEND
  5
548
  8
1
  6
CONTINUOUS
 62
     7
  0
POLYLINE
  5
88
  8
1
  6
CONTINUOUS
 62
     7
 66
     1
 10
0.0
 20
0.0
 30
0.0
  0
VERTEX
  5
2A1
  8
1
  6
CONTINUOUS
 62
     7
 10
617.0
 20
172.2366204959388
 30
0.0
  0
VERTEX
  5
2A2
  8
1
  6
CONTINUOUS
 62
     7
 10
616.8654969628226
 20
173.1144319882708
 30
0.0
  0
VERTEX
  5
2A3
  8
1
  6
CONTINUOUS
 62
     7
 10
616.467156727579
 20
173.9585096772349
 30
0.0
  0
VERTEX
  5
2A4
  8
1
  6
CONTINUOUS
 62
     7
 10
615.8202872861178
 20
174.7364161306084
 30
0.0
  0
VERTEX
  5
2A5
  8
1
  6
CONTINUOUS
 62
     7
 10
614.9497474683059
 20
175.418256839643
 30
0.0
  0
VERTEX
  5
2A6
  8
1
  6
CONTINUOUS
 62
     7
 10
613.8889916311372
 20
175.9778290482714
 30
0.0
  0
VERTEX
  5
2A7
  8
1
  6
CONTINUOUS
 62
     7
 10
612.6787840265556
 20
176.3936287103275
 30
0.0
  0
VERTEX
  5
2A8
  8
1
  6
CONTINUOUS
 62
     7
 10
611.3656322541129
 20
176.6496768779817
 30
0.0
  0
VERTEX
  5
2A9
  8
1
  6
CONTINUOUS
 62
     7
 10
610.0
 20
176.7361337637445
 30
0.0
  0
VERTEX
  5
2AA
  8
1
  6
CONTINUOUS
 62
     7
 10
608.6343677458871
 20
176.6496768779817
 30
0.0
  0
VERTEX
  5
2AB
  8
1
  6
CONTINUOUS
 62
     7
 10
607.3212159734444
 20
176.3936287103275
 30
0.0
  0
VERTEX
  5
2AC
  8
1
  6
CONTINUOUS
 62
     7
 10
606.1110083688627
 20
175.9778290482714
 30
0.0
  0
VERTEX
  5
2AD
  8
1
  6
CONTINUOUS
 62
     7
 10
605.0502525316941
 20
175.418256839643
 30
0.0
  0
VERTEX
  5
2AE
  8
1
  6
CONTINUOUS
 62
     7
 10
604.1797127138822
 20
174.7364161306084
 30
0.0
  0
VERTEX
  5
2AF
  8
1
  6
CONTINUOUS
 62
     7
 10
603.532843272421
 20
173.9585096772349
 30
0.0
  0
VERTEX
  5
2B0
  8
1
  6
CONTINUOUS
 62
     7
 10
603.1345030371774
 20
173.1144319882708
 30
0.0
  0
VERTEX
  5
2B1
  8
1
  6
CONTINUOUS
 62
     7
 10
603.0
 20
172.2366204959388
 30
0.0
  0
SEQEND
  5
549
  8
1
  6
CONTINUOUS
 62
     7
  0
POLYLINE
  5
89
  8
1
  6
CONTINUOUS
 62
     7
 66
     1
 10
0.0
 20
0.0
 30
0.0
  0
VERTEX
  5
2B2
  8
1
  6
CONTINUOUS
 62
     7
 10
603.0
 20
171.8535982743792
 30
0.0
  0
VERTEX
  5
2B3
  8
1
  6
CONTINUOUS
 62
     7
 10
603.1345030371774
 20
170.9757867820471
 30
0.0
  0
VERTEX
  5
2B4
  8
1
  6
CONTINUOUS
 62
     7
 10
603.532843272421
 20
170.131709093083
 30
0.0
  0
VERTEX
  5
2B5
  8
1
  6
CONTINUOUS
 62
     7
 10
604.1797127138822
 20
169.3538026397095
 30
0.0
  0
VERTEX
  5
2B6
  8
1
  6
CONTINUOUS
 62
     7
 10
605.0502525316941
 20
168.6719619306749
 30
0.0
  0
VERTEX
  5
2B7
  8
1
  6
CONTINUOUS
 62
     7
 10
606.1110083688628
 20
168.1123897220465
 30
0.0
  0
VERTEX
  5
2B8
  8
1
  6
CONTINUOUS
 62
     7
 10
607.3212159734444
 20
167.6965900599905
 30
0.0
  0
VERTEX
  5
2B9
  8
1
  6
CONTINUOUS
 62
     7
 10
608.6343677458871
 20
167.4405418923362
 30
0.0
  0
VERTEX
  5
2BA
  8
1
  6
CONTINUOUS
 62
     7
 10
610.0
 20
167.3540850065734
 30
0.0
  0
SEQEND
  5
54A
  8
1
  6
CONTINUOUS
 62
     7
  0
POLYLINE
  5
8A
  8
1
  6
CONTINUOUS
 62
     7
 66
     1
 10
0.0
 20
0.0
 30
0.0
  0
VERTEX
  5
2BB
  8
1
  6
CONTINUOUS
 62
     7
 10
610.0
 20
167.3540850065734
 30
0.0
  0
VERTEX
  5
2BC
  8
1
  6
CONTINUOUS
 62
     7
 10
611.3656322541129
 20
167.4405418923362
 30
0.0
  0
VERTEX
  5
2BD
  8
1
  6
CONTINUOUS
 62
     7
 10
612.6787840265556
 20
167.6965900599905
 30
0.0
  0
VERTEX
  5
2BE
  8
1
  6
CONTINUOUS
 62
     7
 10
613.8889916311372
 20
168.1123897220465
 30
0.0
  0
VERTEX
  5
2BF
  8
1
  6
CONTINUOUS
 62
     7
 10
614.9497474683059
 20
168.6719619306749
 30
0.0
  0
VERTEX
  5
2C0
  8
1
  6
CONTINUOUS
 62
     7
 10
615.8202872861178
 20
169.3538026397095
 30
0.0
  0
VERTEX
  5
2C1
  8
1
  6
CONTINUOUS
 62
     7
 10
616.467156727579
 20
170.131709093083
 30
0.0
  0
VERTEX
  5
2C2
  8
1
  6
CONTINUOUS
 62
     7
 10
616.8654969628226
 20
170.9757867820471
 30
0.0
  0
VERTEX
  5
2C3
  8
1
  6
CONTINUOUS
 62
     7
 10
617.0
 20
171.8535982743792
 30
0.0
  0
SEQEND
  5
54B
  8
1
  6
CONTINUOUS
 62
     7
  0
LINE
  5
8B
  8
1
  6
CONTINUOUS
 62
     7
 10
607.5
 20
167.6271021159626
 30
0.0
 11
607.598761631126
 21
167.6271021159626
 31
0.0
  0
LINE
  5
8C
  8
1
  6
CONTINUOUS
 62
     7
 10
612.4012383688739
 20
167.6271021159626
 30
0.0
 11
612.4999999999999
 21
167.6271021159626
 31
0.0
  0
POLYLINE
  5
8D
  8
1
  6
CONTINUOUS
 62
     7
 66
     1
 10
0.0
 20
0.0
 30
0.0
  0
VERTEX
  5
2C4
  8
1
  6
CONTINUOUS
 62
     7
 10
612.4999999999999
 20
167.6271021159626
 30
0.0
  0
VERTEX
  5
2C5
  8
1
  6
CONTINUOUS
 62
     7
 10
612.593755755915
 20
167.6328028690013
 30
0.0
  0
VERTEX
  5
2C6
  8
1
  6
CONTINUOUS
 62
     7
 10
612.6841855086379
 20
167.649702892824
 30
0.0
  0
VERTEX
  5
2C7
  8
1
  6
CONTINUOUS
 62
     7
 10
612.7680812455694
 20
167.6772026558858
 30
0.0
  0
VERTEX
  5
2C8
  8
1
  6
CONTINUOUS
 62
     7
 10
612.8424667495576
 20
167.7143265988856
 30
0.0
  0
VERTEX
  5
2C9
  8
1
  6
CONTINUOUS
 62
     7
 10
612.9047031807648
 20
167.7597577429165
 30
0.0
  0
SEQEND
  5
54C
  8
1
  6
CONTINUOUS
 62
     7
  0
POLYLINE
  5
8E
  8
1
  6
CONTINUOUS
 62
     7
 66
     1
 10
0.0
 20
0.0
 30
0.0
  0
VERTEX
  5
2CA
  8
1
  6
CONTINUOUS
 62
     7
 10
607.0952968192352
 20
167.7597577429166
 30
0.0
  0
VERTEX
  5
2CB
  8
1
  6
CONTINUOUS
 62
     7
 10
607.1575332504424
 20
167.7143265988857
 30
0.0
  0
VERTEX
  5
2CC
  8
1
  6
CONTINUOUS
 62
     7
 10
607.2319187544306
 20
167.6772026558859
 30
0.0
  0
VERTEX
  5
2CD
  8
1
  6
CONTINUOUS
 62
     7
 10
607.3158144913621
 20
167.649702892824
 30
0.0
  0
VERTEX
  5
2CE
  8
1
  6
CONTINUOUS
 62
     7
 10
607.406244244085
 20
167.6328028690013
 30
0.0
  0
VERTEX
  5
2CF
  8
1
  6
CONTINUOUS
 62
     7
 10
607.5
 20
167.6271021159626
 30
0.0
  0
SEQEND
  5
54D
  8
1
  6
CONTINUOUS
 62
     7
  0
ARC
  5
8F
  8
1
  6
CONTINUOUS
 62
     7
 10
610.0
 20
164.490897786791
 30
0.0
 40
2.600000000000047
 50
180.0
 51
0.0
  0
ARC
  5
90
  8
1
  6
CONTINUOUS
 62
     7
 10
610.0
 20
164.490897786791
 30
0.0
 40
3.000000000000038
 50
150.0735651333857
 51
29.92643486661438
  0
ARC
  5
91
  8
1
  6
CONTINUOUS
 62
     7
 10
610.0
 20
167.1
 30
0.0
 40
3.199999999999981
 50
166.9100444220668
 51
180.0
  0
ARC
  5
92
  8
1
  6
CONTINUOUS
 62
     7
 10
610.0
 20
167.1
 30
0.0
 40
3.19999999999995
 50
0.0
 51
13.08995557793321
  0
LINE
  5
93
  8
1
  6
CONTINUOUS
 62
     7
 10
598.0
 20
161.0637749404694
 30
0.0
 11
605.8
 21
161.0637749404694
 31
0.0
  0
LINE
  5
94
  8
1
  6
CONTINUOUS
 62
     7
 10
598.0
 20
163.5151171584502
 30
0.0
 11
605.8
 21
163.5151171584502
 31
0.0
  0
POLYLINE
  5
95
  8
1
  6
CONTINUOUS
 62
     7
 66
     1
 10
0.0
 20
0.0
 30
0.0
  0
VERTEX
  5
2D0
  8
1
  6
CONTINUOUS
 62
     7
 10
593.0
 20
166.7290552068828
 30
0.0
  0
VERTEX
  5
2D1
  8
1
  6
CONTINUOUS
 62
     7
 10
593.0960735979838
 20
166.1020469980742
 30
0.0
  0
VERTEX
  5
2D2
  8
1
  6
CONTINUOUS
 62
     7
 10
593.3806023374435
 20
165.4991343630998
 30
0.0
  0
VERTEX
  5
2D3
  8
1
  6
CONTINUOUS
 62
     7
 10
593.8426519384873
 20
164.9434868964045
 30
0.0
  0
VERTEX
  5
2D4
  8
1
  6
CONTINUOUS
 62
     7
 10
594.4644660940672
 20
164.4564578185226
 30
0.0
  0
VERTEX
  5
2D5
  8
1
  6
CONTINUOUS
 62
     7
 10
595.222148834902
 20
164.0567633837881
 30
0.0
  0
VERTEX
  5
2D6
  8
1
  6
CONTINUOUS
 62
     7
 10
596.0865828381745
 20
163.7597636251766
 30
0.0
  0
VERTEX
  5
2D7
  8
1
  6
CONTINUOUS
 62
     7
 10
597.0245483899193
 20
163.5768720768522
 30
0.0
  0
VERTEX
  5
2D8
  8
1
  6
CONTINUOUS
 62
     7
 10
598.0
 20
163.5151171584502
 30
0.0
  0
SEQEND
  5
54E
  8
1
  6
CONTINUOUS
 62
     7
  0
POLYLINE
  5
96
  8
1
  6
CONTINUOUS
 62
     7
 66
     1
 10
0.0
 20
0.0
 30
0.0
  0
VERTEX
  5
2D9
  8
1
  6
CONTINUOUS
 62
     7
 10
593.0
 20
164.2777129889021
 30
0.0
  0
VERTEX
  5
2DA
  8
1
  6
CONTINUOUS
 62
     7
 10
593.0960735979838
 20
163.6507047800935
 30
0.0
  0
VERTEX
  5
2DB
  8
1
  6
CONTINUOUS
 62
     7
 10
593.3806023374435
 20
163.0477921451191
 30
0.0
  0
VERTEX
  5
2DC
  8
1
  6
CONTINUOUS
 62
     7
 10
593.8426519384873
 20
162.4921446784238
 30
0.0
  0
VERTEX
  5
2DD
  8
1
  6
CONTINUOUS
 62
     7
 10
594.4644660940672
 20
162.0051156005419
 30
0.0
  0
VERTEX
  5
2DE
  8
1
  6
CONTINUOUS
 62
     7
 10
595.222148834902
 20
161.6054211658074
 30
0.0
  0
VERTEX
  5
2DF
  8
1
  6
CONTINUOUS
 62
     7
 10
596.0865828381745
 20
161.3084214071959
 30
0.0
  0
VERTEX
  5
2E0
  8
1
  6
CONTINUOUS
 62
     7
 10
597.0245483899193
 20
161.1255298588714
 30
0.0
  0
VERTEX
  5
2E1
  8
1
  6
CONTINUOUS
 62
     7
 10
598.0
 20
161.0637749404694
 30
0.0
  0
SEQEND
  5
54F
  8
1
  6
CONTINUOUS
 62
     7
  0
POLYLINE
  5
97
  8
1
  6
CONTINUOUS
 62
     7
 66
     1
 10
0.0
 20
0.0
 30
0.0
  0
VERTEX
  5
2E2
  8
1
  6
CONTINUOUS
 62
     7
 10
622.0
 20
161.0637749404694
 30
0.0
  0
VERTEX
  5
2E3
  8
1
  6
CONTINUOUS
 62
     7
 10
622.9754516100807
 20
161.1255298588714
 30
0.0
  0
VERTEX
  5
2E4
  8
1
  6
CONTINUOUS
 62
     7
 10
623.9134171618255
 20
161.3084214071959
 30
0.0
  0
VERTEX
  5
2E5
  8
1
  6
CONTINUOUS
 62
     7
 10
624.777851165098
 20
161.6054211658074
 30
0.0
  0
VERTEX
  5
2E6
  8
1
  6
CONTINUOUS
 62
     7
 10
625.5355339059328
 20
162.0051156005419
 30
0.0
  0
VERTEX
  5
2E7
  8
1
  6
CONTINUOUS
 62
     7
 10
626.1573480615127
 20
162.4921446784238
 30
0.0
  0
VERTEX
  5
2E8
  8
1
  6
CONTINUOUS
 62
     7
 10
626.6193976625565
 20
163.0477921451191
 30
0.0
  0
VERTEX
  5
2E9
  8
1
  6
CONTINUOUS
 62
     7
 10
626.9039264020162
 20
163.6507047800935
 30
0.0
  0
VERTEX
  5
2EA
  8
1
  6
CONTINUOUS
 62
     7
 10
627.0
 20
164.2777129889021
 30
0.0
  0
SEQEND
  5
550
  8
1
  6
CONTINUOUS
 62
     7
  0
POLYLINE
  5
98
  8
1
  6
CONTINUOUS
 62
     7
 66
     1
 10
0.0
 20
0.0
 30
0.0
  0
VERTEX
  5
2EB
  8
1
  6
CONTINUOUS
 62
     7
 10
622.0
 20
163.5151171584502
 30
0.0
  0
VERTEX
  5
2EC
  8
1
  6
CONTINUOUS
 62
     7
 10
622.9754516100807
 20
163.5768720768522
 30
0.0
  0
VERTEX
  5
2ED
  8
1
  6
CONTINUOUS
 62
     7
 10
623.9134171618255
 20
163.7597636251766
 30
0.0
  0
VERTEX
  5
2EE
  8
1
  6
CONTINUOUS
 62
     7
 10
624.777851165098
 20
164.0567633837881
 30
0.0
  0
VERTEX
  5
2EF
  8
1
  6
CONTINUOUS
 62
     7
 10
625.5355339059328
 20
164.4564578185226
 30
0.0
  0
VERTEX
  5
2F0
  8
1
  6
CONTINUOUS
 62
     7
 10
626.1573480615127
 20
164.9434868964045
 30
0.0
  0
VERTEX
  5
2F1
  8
1
  6
CONTINUOUS
 62
     7
 10
626.6193976625565
 20
165.4991343630999
 30
0.0
  0
VERTEX
  5
2F2
  8
1
  6
CONTINUOUS
 62
     7
 10
626.9039264020162
 20
166.1020469980742
 30
0.0
  0
VERTEX
  5
2F3
  8
1
  6
CONTINUOUS
 62
     7
 10
627.0
 20
166.7290552068828
 30
0.0
  0
SEQEND
  5
551
  8
1
  6
CONTINUOUS
 62
     7
  0
LINE
  5
99
  8
1
  6
CONTINUOUS
 62
     7
 10
622.0
 20
163.5151171584502
 30
0.0
 11
614.1999999999999
 21
163.5151171584502
 31
0.0
  0
LINE
  5
9A
  8
1
  6
CONTINUOUS
 62
     7
 10
622.0
 20
161.0637749404694
 30
0.0
 11
614.1999999999999
 21
161.0637749404694
 31
0.0
  0
POLYLINE
  5
9B
  8
1
  6
CONTINUOUS
 62
     7
 66
     1
 10
0.0
 20
0.0
 30
0.0
  0
VERTEX
  5
2F4
  8
1
  6
CONTINUOUS
 62
     7
 10
613.1999999999999
 20
161.706562550156
 30
0.0
  0
VERTEX
  5
2F5
  8
1
  6
CONTINUOUS
 62
     7
 10
613.2192147195967
 20
161.5811609083943
 30
0.0
  0
VERTEX
  5
2F6
  8
1
  6
CONTINUOUS
 62
     7
 10
613.2761204674887
 20
161.4605783813994
 30
0.0
  0
VERTEX
  5
2F7
  8
1
  6
CONTINUOUS
 62
     7
 10
613.3685303876974
 20
161.3494488880603
 30
0.0
  0
VERTEX
  5
2F8
  8
1
  6
CONTINUOUS
 62
     7
 10
613.4928932188134
 20
161.2520430724839
 30
0.0
  0
VERTEX
  5
2F9
  8
1
  6
CONTINUOUS
 62
     7
 10
613.6444297669804
 20
161.172104185537
 30
0.0
  0
VERTEX
  5
2FA
  8
1
  6
CONTINUOUS
 62
     7
 10
613.8173165676349
 20
161.1127042338147
 30
0.0
  0
VERTEX
  5
2FB
  8
1
  6
CONTINUOUS
 62
     7
 10
614.0049096779838
 20
161.0761259241499
 30
0.0
  0
VERTEX
  5
2FC
  8
1
  6
CONTINUOUS
 62
     7
 10
614.1999999999999
 20
161.0637749404694
 30
0.0
  0
SEQEND
  5
552
  8
1
  6
CONTINUOUS
 62
     7
  0
POLYLINE
  5
9C
  8
1
  6
CONTINUOUS
 62
     7
 66
     1
 10
0.0
 20
0.0
 30
0.0
  0
VERTEX
  5
2FD
  8
1
  6
CONTINUOUS
 62
     7
 10
613.1999999999999
 20
164.1579047681367
 30
0.0
  0
VERTEX
  5
2FE
  8
1
  6
CONTINUOUS
 62
     7
 10
613.2192147195967
 20
164.032503126375
 30
0.0
  0
VERTEX
  5
2FF
  8
1
  6
CONTINUOUS
 62
     7
 10
613.2761204674887
 20
163.9119205993801
 30
0.0
  0
VERTEX
  5
300
  8
1
  6
CONTINUOUS
 62
     7
 10
613.3685303876973
 20
163.8007911060411
 30
0.0
  0
VERTEX
  5
301
  8
1
  6
CONTINUOUS
 62
     7
 10
613.4928932188134
 20
163.7033852904647
 30
0.0
  0
VERTEX
  5
302
  8
1
  6
CONTINUOUS
 62
     7
 10
613.6444297669802
 20
163.6234464035178
 30
0.0
  0
VERTEX
  5
303
  8
1
  6
CONTINUOUS
 62
     7
 10
613.8173165676347
 20
163.5640464517955
 30
0.0
  0
VERTEX
  5
304
  8
1
  6
CONTINUOUS
 62
     7
 10
614.0049096779836
 20
163.5274681421306
 30
0.0
  0
VERTEX
  5
305
  8
1
  6
CONTINUOUS
 62
     7
 10
614.1999999999998
 20
163.5151171584502
 30
0.0
  0
SEQEND
  5
553
  8
1
  6
CONTINUOUS
 62
     7
  0
POLYLINE
  5
9D
  8
1
  6
CONTINUOUS
 62
     7
 66
     1
 10
0.0
 20
0.0
 30
0.0
  0
VERTEX
  5
306
  8
1
  6
CONTINUOUS
 62
     7
 10
605.8000000000001
 20
163.5151171584502
 30
0.0
  0
VERTEX
  5
307
  8
1
  6
CONTINUOUS
 62
     7
 10
605.9950903220163
 20
163.5274681421306
 30
0.0
  0
VERTEX
  5
308
  8
1
  6
CONTINUOUS
 62
     7
 10
606.1826834323651
 20
163.5640464517955
 30
0.0
  0
VERTEX
  5
309
  8
1
  6
CONTINUOUS
 62
     7
 10
606.3555702330196
 20
163.6234464035178
 30
0.0
  0
VERTEX
  5
30A
  8
1
  6
CONTINUOUS
 62
     7
 10
606.5071067811865
 20
163.7033852904647
 30
0.0
  0
VERTEX
  5
30B
  8
1
  6
CONTINUOUS
 62
     7
 10
606.6314696123026
 20
163.8007911060411
 30
0.0
  0
VERTEX
  5
30C
  8
1
  6
CONTINUOUS
 62
     7
 10
606.7238795325112
 20
163.9119205993801
 30
0.0
  0
VERTEX
  5
30D
  8
1
  6
CONTINUOUS
 62
     7
 10
606.7807852804032
 20
164.032503126375
 30
0.0
  0
VERTEX
  5
30E
  8
1
  6
CONTINUOUS
 62
     7
 10
606.8
 20
164.1579047681367
 30
0.0
  0
SEQEND
  5
554
  8
1
  6
CONTINUOUS
 62
     7
  0
POLYLINE
  5
9E
  8
1
  6
CONTINUOUS
 62
     7
 66
     1
 10
0.0
 20
0.0
 30
0.0
  0
VERTEX
  5
30F
  8
1
  6
CONTINUOUS
 62
     7
 10
605.8
 20
161.0637749404694
 30
0.0
  0
VERTEX
  5
310
  8
1
  6
CONTINUOUS
 62
     7
 10
605.995090322016
 20
161.0761259241499
 30
0.0
  0
VERTEX
  5
311
  8
1
  6
CONTINUOUS
 62
     7
 10
606.182683432365
 20
161.1127042338147
 30
0.0
  0
VERTEX
  5
312
  8
1
  6
CONTINUOUS
 62
     7
 10
606.3555702330195
 20
161.172104185537
 30
0.0
  0
VERTEX
  5
313
  8
1
  6
CONTINUOUS
 62
     7
 10
606.5071067811865
 20
161.2520430724839
 30
0.0
  0
VERTEX
  5
314
  8
1
  6
CONTINUOUS
 62
     7
 10
606.6314696123025
 20
161.3494488880603
 30
0.0
  0
VERTEX
  5
315
  8
1
  6
CONTINUOUS
 62
     7
 10
606.7238795325112
 20
161.4605783813994
 30
0.0
  0
VERTEX
  5
316
  8
1
  6
CONTINUOUS
 62
     7
 10
606.7807852804032
 20
161.5811609083943
 30
0.0
  0
VERTEX
  5
317
  8
1
  6
CONTINUOUS
 62
     7
 10
606.8
 20
161.706562550156
 30
0.0
  0
SEQEND
  5
555
  8
1
  6
CONTINUOUS
 62
     7
  0
POLYLINE
  5
9F
  8
1
  6
CONTINUOUS
 62
     7
 66
     1
 10
0.0
 20
0.0
 30
0.0
  0
VERTEX
  5
318
  8
1
  6
CONTINUOUS
 62
     7
 10
620.2784997659176
 20
145.197638667498
 30
0.0
  0
VERTEX
  5
319
  8
1
  6
CONTINUOUS
 62
     7
 10
620.2704765409752
 20
145.2131302386603
 30
0.0
  0
VERTEX
  5
31A
  8
1
  6
CONTINUOUS
 62
     7
 10
620.2466643547021
 20
145.228124640382
 30
0.0
  0
SEQEND
  5
556
  8
1
  6
CONTINUOUS
 62
     7
  0
LINE
  5
A0
  8
1
  6
CONTINUOUS
 62
     7
 10
617.4999999999999
 20
146.5
 30
0.0
 11
620.2466643547021
 21
145.228124640382
 31
0.0
  0
POLYLINE
  5
A1
  8
1
  6
CONTINUOUS
 62
     7
 66
     1
 10
0.0
 20
0.0
 30
0.0
  0
VERTEX
  5
31B
  8
1
  6
CONTINUOUS
 62
     7
 10
624.0
 20
143.0270364466614
 30
0.0
  0
VERTEX
  5
31C
  8
1
  6
CONTINUOUS
 62
     7
 10
624.5852709660484
 20
143.0370462497885
 30
0.0
  0
VERTEX
  5
31D
  8
1
  6
CONTINUOUS
 62
     7
 10
625.1480502970953
 20
143.0666909880491
 30
0.0
  0
VERTEX
  5
31E
  8
1
  6
CONTINUOUS
 62
     7
 10
625.6667106990589
 20
143.1148314307769
 30
0.0
  0
VERTEX
  5
31F
  8
1
  6
CONTINUOUS
 62
     7
 10
626.1213203435597
 20
143.1796175677553
 30
0.0
  0
VERTEX
  5
320
  8
1
  6
CONTINUOUS
 62
     7
 10
626.4944088369076
 20
143.2585597040727
 30
0.0
  0
VERTEX
  5
321
  8
1
  6
CONTINUOUS
 62
     7
 10
626.7716385975339
 20
143.3486241377016
 30
0.0
  0
VERTEX
  5
322
  8
1
  6
CONTINUOUS
 62
     7
 10
626.9423558412097
 20
143.4463497429666
 30
0.0
  0
VERTEX
  5
323
  8
1
  6
CONTINUOUS
 62
     7
 10
627.0
 20
143.5479809796622
 30
0.0
  0
SEQEND
  5
557
  8
1
  6
CONTINUOUS
 62
     7
  0
LINE
  5
A2
  8
1
  6
CONTINUOUS
 62
     7
 10
624.0
 20
143.0270364466614
 30
0.0
 11
620.0
 21
143.0270364466614
 31
0.0
  0
LINE
  5
A3
  8
1
  6
CONTINUOUS
 62
     7
 10
600.0
 20
143.0270364466614
 30
0.0
 11
596.0
 21
143.0270364466614
 31
0.0
  0
POLYLINE
  5
A4
  8
1
  6
CONTINUOUS
 62
     7
 66
     1
 10
0.0
 20
0.0
 30
0.0
  0
VERTEX
  5
324
  8
1
  6
CONTINUOUS
 62
     7
 10
593.0
 20
143.5479809796622
 30
0.0
  0
VERTEX
  5
325
  8
1
  6
CONTINUOUS
 62
     7
 10
593.0576441587903
 20
143.4463497429666
 30
0.0
  0
VERTEX
  5
326
  8
1
  6
CONTINUOUS
 62
     7
 10
593.2283614024661
 20
143.3486241377016
 30
0.0
  0
VERTEX
  5
327
  8
1
  6
CONTINUOUS
 62
     7
 10
593.5055911630924
 20
143.2585597040727
 30
0.0
  0
VERTEX
  5
328
  8
1
  6
CONTINUOUS
 62
     7
 10
593.8786796564403
 20
143.1796175677553
 30
0.0
  0
VERTEX
  5
329
  8
1
  6
CONTINUOUS
 62
     7
 10
594.3332893009411
 20
143.1148314307769
 30
0.0
  0
VERTEX
  5
32A
  8
1
  6
CONTINUOUS
 62
     7
 10
594.8519497029047
 20
143.0666909880491
 30
0.0
  0
VERTEX
  5
32B
  8
1
  6
CONTINUOUS
 62
     7
 10
595.4147290339516
 20
143.0370462497885
 30
0.0
  0
VERTEX
  5
32C
  8
1
  6
CONTINUOUS
 62
     7
 10
596.0
 20
143.0270364466614
 30
0.0
  0
SEQEND
  5
558
  8
1
  6
CONTINUOUS
 62
     7
  0
LINE
  5
A5
  8
1
  6
CONTINUOUS
 62
     7
 10
602.5
 20
146.5
 30
0.0
 11
599.7533356452979
 21
145.228124640382
 31
0.0
  0
POLYLINE
  5
A6
  8
1
  6
CONTINUOUS
 62
     7
 66
     1
 10
0.0
 20
0.0
 30
0.0
  0
VERTEX
  5
32D
  8
1
  6
CONTINUOUS
 62
     7
 10
599.7533356452977
 20
145.228124640382
 30
0.0
  0
VERTEX
  5
32E
  8
1
  6
CONTINUOUS
 62
     7
 10
599.7295234590247
 20
145.2131302386603
 30
0.0
  0
VERTEX
  5
32F
  8
1
  6
CONTINUOUS
 62
     7
 10
599.7215002340823
 20
145.197638667498
 30
0.0
  0
SEQEND
  5
559
  8
1
  6
CONTINUOUS
 62
     7
  0
LINE
  5
A7
  8
1
  6
CONTINUOUS
 62
     7
 10
600.2215002340822
 20
145.1108145786645
 30
0.0
 11
619.7784997659177
 21
145.1108145786645
 31
0.0
  0
LINE
  5
A8
  8
1
  6
CONTINUOUS
 62
     7
 10
599.5
 20
143.8084532461625
 30
0.0
 11
600.0
 21
143.8084532461625
 31
0.0
  0
LINE
  5
A9
  8
1
  6
CONTINUOUS
 62
     7
 10
620.0
 20
143.8084532461625
 30
0.0
 11
620.4999999999999
 21
143.8084532461625
 31
0.0
  0
LINE
  5
AA
  8
1
  6
CONTINUOUS
 62
     7
 10
620.4999999999999
 20
144.3293977791633
 30
0.0
 11
620.4999999999999
 21
143.8084532461625
 31
0.0
  0
LINE
  5
AB
  8
1
  6
CONTINUOUS
 62
     7
 10
599.5
 20
144.3293977791633
 30
0.0
 11
620.4999999999999
 21
144.3293977791633
 31
0.0
  0
LINE
  5
AC
  8
1
  6
CONTINUOUS
 62
     7
 10
599.5
 20
144.3293977791633
 30
0.0
 11
599.5
 21
143.8084532461625
 31
0.0
  0
LINE
  5
AD
  8
1
  6
CONTINUOUS
 62
     7
 10
624.0
 20
139.8756516370223
 30
0.0
 11
620.0
 21
139.8756516370223
 31
0.0
  0
LINE
  5
AE
  8
1
  6
CONTINUOUS
 62
     7
 10
600.0
 20
139.8756516370223
 30
0.0
 11
596.0
 21
139.8756516370223
 31
0.0
  0
POLYLINE
  5
AF
  8
1
  6
CONTINUOUS
 62
     7
 66
     1
 10
0.0
 20
0.0
 30
0.0
  0
VERTEX
  5
330
  8
1
  6
CONTINUOUS
 62
     7
 10
593.0
 20
140.3965961700231
 30
0.0
  0
VERTEX
  5
331
  8
1
  6
CONTINUOUS
 62
     7
 10
593.0576441587903
 20
140.2949649333275
 30
0.0
  0
VERTEX
  5
332
  8
1
  6
CONTINUOUS
 62
     7
 10
593.2283614024661
 20
140.1972393280626
 30
0.0
  0
VERTEX
  5
333
  8
1
  6
CONTINUOUS
 62
     7
 10
593.5055911630924
 20
140.1071748944336
 30
0.0
  0
VERTEX
  5
334
  8
1
  6
CONTINUOUS
 62
     7
 10
593.8786796564403
 20
140.0282327581162
 30
0.0
  0
VERTEX
  5
335
  8
1
  6
CONTINUOUS
 62
     7
 10
594.3332893009411
 20
139.9634466211378
 30
0.0
  0
VERTEX
  5
336
  8
1
  6
CONTINUOUS
 62
     7
 10
594.8519497029047
 20
139.91530617841
 30
0.0
  0
VERTEX
  5
337
  8
1
  6
CONTINUOUS
 62
     7
 10
595.4147290339516
 20
139.8856614401494
 30
0.0
  0
VERTEX
  5
338
  8
1
  6
CONTINUOUS
 62
     7
 10
596.0
 20
139.8756516370223
 30
0.0
  0
SEQEND
  5
55A
  8
1
  6
CONTINUOUS
 62
     7
  0
POLYLINE
  5
B0
  8
1
  6
CONTINUOUS
 62
     7
 66
     1
 10
0.0
 20
0.0
 30
0.0
  0
VERTEX
  5
339
  8
1
  6
CONTINUOUS
 62
     7
 10
624.0
 20
139.8756516370223
 30
0.0
  0
VERTEX
  5
33A
  8
1
  6
CONTINUOUS
 62
     7
 10
624.5852709660484
 20
139.8856614401494
 30
0.0
  0
VERTEX
  5
33B
  8
1
  6
CONTINUOUS
 62
     7
 10
625.1480502970953
 20
139.91530617841
 30
0.0
  0
VERTEX
  5
33C
  8
1
  6
CONTINUOUS
 62
     7
 10
625.6667106990589
 20
139.9634466211378
 30
0.0
  0
VERTEX
  5
33D
  8
1
  6
CONTINUOUS
 62
     7
 10
626.1213203435597
 20
140.0282327581162
 30
0.0
  0
VERTEX
  5
33E
  8
1
  6
CONTINUOUS
 62
     7
 10
626.4944088369076
 20
140.1071748944336
 30
0.0
  0
VERTEX
  5
33F
  8
1
  6
CONTINUOUS
 62
     7
 10
626.7716385975339
 20
140.1972393280626
 30
0.0
  0
VERTEX
  5
340
  8
1
  6
CONTINUOUS
 62
     7
 10
626.9423558412097
 20
140.2949649333275
 30
0.0
  0
VERTEX
  5
341
  8
1
  6
CONTINUOUS
 62
     7
 10
627.0
 20
140.3965961700231
 30
0.0
  0
SEQEND
  5
55B
  8
1
  6
CONTINUOUS
 62
     7
  0
POLYLINE
  5
B1
  8
1
  6
CONTINUOUS
 62
     7
 66
     1
 10
0.0
 20
0.0
 30
0.0
  0
VERTEX
  5
342
  8
1
  6
CONTINUOUS
 62
     7
 10
619.7784997659177
 20
145.1108145786645
 30
0.0
  0
VERTEX
  5
343
  8
1
  6
CONTINUOUS
 62
     7
 10
619.8760449269257
 20
145.1124828791857
 30
0.0
  0
VERTEX
  5
344
  8
1
  6
CONTINUOUS
 62
     7
 10
619.9698414821002
 20
145.1174236688958
 30
0.0
  0
VERTEX
  5
345
  8
1
  6
CONTINUOUS
 62
     7
 10
620.0562848824275
 20
145.1254470760171
 30
0.0
  0
VERTEX
  5
346
  8
1
  6
CONTINUOUS
 62
     7
 10
620.1320531565109
 20
145.1362447655135
 30
0.0
  0
VERTEX
  5
347
  8
1
  6
CONTINUOUS
 62
     7
 10
620.1942345720689
 20
145.1494017882331
 30
0.0
  0
VERTEX
  5
348
  8
1
  6
CONTINUOUS
 62
     7
 10
620.2404395321732
 20
145.1644125271712
 30
0.0
  0
VERTEX
  5
349
  8
1
  6
CONTINUOUS
 62
     7
 10
620.2688924061192
 20
145.1807001280487
 30
0.0
  0
VERTEX
  5
34A
  8
1
  6
CONTINUOUS
 62
     7
 10
620.2784997659176
 20
145.197638667498
 30
0.0
  0
SEQEND
  5
55C
  8
1
  6
CONTINUOUS
 62
     7
  0
POLYLINE
  5
B2
  8
1
  6
CONTINUOUS
 62
     7
 66
     1
 10
0.0
 20
0.0
 30
0.0
  0
VERTEX
  5
34B
  8
1
  6
CONTINUOUS
 62
     7
 10
599.7215002340823
 20
145.197638667498
 30
0.0
  0
VERTEX
  5
34C
  8
1
  6
CONTINUOUS
 62
     7
 10
599.7311075938807
 20
145.1807001280487
 30
0.0
  0
VERTEX
  5
34D
  8
1
  6
CONTINUOUS
 62
     7
 10
599.7595604678266
 20
145.1644125271712
 30
0.0
  0
VERTEX
  5
34E
  8
1
  6
CONTINUOUS
 62
     7
 10
599.805765427931
 20
145.1494017882331
 30
0.0
  0
VERTEX
  5
34F
  8
1
  6
CONTINUOUS
 62
     7
 10
599.867946843489
 20
145.1362447655135
 30
0.0
  0
VERTEX
  5
350
  8
1
  6
CONTINUOUS
 62
     7
 10
599.9437151175724
 20
145.1254470760171
 30
0.0
  0
VERTEX
  5
351
  8
1
  6
CONTINUOUS
 62
     7
 10
600.0301585178997
 20
145.1174236688958
 30
0.0
  0
VERTEX
  5
352
  8
1
  6
CONTINUOUS
 62
     7
 10
600.1239550730742
 20
145.1124828791857
 30
0.0
  0
VERTEX
  5
353
  8
1
  6
CONTINUOUS
 62
     7
 10
600.2215002340822
 20
145.1108145786645
 30
0.0
  0
SEQEND
  5
55D
  8
1
  6
CONTINUOUS
 62
     7
  0
LINE
  5
B3
  8
1
  6
CONTINUOUS
 62
     7
 10
617.4999999999999
 20
145.1108145786645
 30
0.0
 11
617.4999999999999
 21
146.0
 31
0.0
  0
POLYLINE
  5
B4
  8
1
  6
CONTINUOUS
 62
     7
 66
     1
 10
0.0
 20
0.0
 30
0.0
  0
VERTEX
  5
354
  8
1
  6
CONTINUOUS
 62
     7
 10
617.0
 20
146.5
 30
0.0
  0
VERTEX
  5
355
  8
1
  6
CONTINUOUS
 62
     7
 10
617.0245338371637
 20
146.4993977281026
 30
0.0
  0
VERTEX
  5
356
  8
1
  6
CONTINUOUS
 62
     7
 10
617.0490085701648
 20
146.4975923633361
 30
0.0
  0
VERTEX
  5
357
  8
1
  6
CONTINUOUS
 62
     7
 10
617.0733652372277
 20
146.4945882549824
 30
0.0
  0
VERTEX
  5
358
  8
1
  6
CONTINUOUS
 62
     7
 10
617.097545161008
 20
146.4903926402016
 30
0.0
  0
VERTEX
  5
359
  8
1
  6
CONTINUOUS
 62
     7
 10
617.1214900899516
 20
146.4850156265973
 30
0.0
  0
VERTEX
  5
35A
  8
1
  6
CONTINUOUS
 62
     7
 10
617.1451423386271
 20
146.4784701678661
 30
0.0
  0
VERTEX
  5
35B
  8
1
  6
CONTINUOUS
 62
     7
 10
617.1684449266961
 20
146.4707720325915
 30
0.0
  0
VERTEX
  5
35C
  8
1
  6
CONTINUOUS
 62
     7
 10
617.1913417161825
 20
146.4619397662556
 30
0.0
  0
VERTEX
  5
35D
  8
1
  6
CONTINUOUS
 62
     7
 10
617.2137775467152
 20
146.4519946465617
 30
0.0
  0
VERTEX
  5
35E
  8
1
  6
CONTINUOUS
 62
     7
 10
617.235698368413
 20
146.4409606321742
 30
0.0
  0
VERTEX
  5
35F
  8
1
  6
CONTINUOUS
 62
     7
 10
617.2570513720966
 20
146.4288643050001
 30
0.0
  0
VERTEX
  5
360
  8
1
  6
CONTINUOUS
 62
     7
 10
617.2777851165098
 20
146.4157348061513
 30
0.0
  0
VERTEX
  5
361
  8
1
  6
CONTINUOUS
 62
     7
 10
617.2978496522462
 20
146.4016037657403
 30
0.0
  0
VERTEX
  5
362
  8
1
  6
CONTINUOUS
 62
     7
 10
617.3171966420819
 20
146.3865052266814
 30
0.0
  0
VERTEX
  5
363
  8
1
  6
CONTINUOUS
 62
     7
 10
617.3357794774234
 20
146.3704755626775
 30
0.0
  0
VERTEX
  5
364
  8
1
  6
CONTINUOUS
 62
     7
 10
617.3535533905932
 20
146.3535533905932
 30
0.0
  0
VERTEX
  5
365
  8
1
  6
CONTINUOUS
 62
     7
 10
617.3704755626774
 20
146.3357794774235
 30
0.0
  0
VERTEX
  5
366
  8
1
  6
CONTINUOUS
 62
     7
 10
617.3865052266814
 20
146.3171966420818
 30
0.0
  0
VERTEX
  5
367
  8
1
  6
CONTINUOUS
 62
     7
 10
617.4016037657402
 20
146.2978496522462
 30
0.0
  0
VERTEX
  5
368
  8
1
  6
CONTINUOUS
 62
     7
 10
617.4157348061512
 20
146.2777851165098
 30
0.0
  0
VERTEX
  5
369
  8
1
  6
CONTINUOUS
 62
     7
 10
617.428864305
 20
146.2570513720966
 30
0.0
  0
VERTEX
  5
36A
  8
1
  6
CONTINUOUS
 62
     7
 10
617.4409606321741
 20
146.235698368413
 30
0.0
  0
VERTEX
  5
36B
  8
1
  6
CONTINUOUS
 62
     7
 10
617.4519946465617
 20
146.2137775467151
 30
0.0
  0
VERTEX
  5
36C
  8
1
  6
CONTINUOUS
 62
     7
 10
617.4619397662556
 20
146.1913417161825
 30
0.0
  0
VERTEX
  5
36D
  8
1
  6
CONTINUOUS
 62
     7
 10
617.4707720325915
 20
146.1684449266961
 30
0.0
  0
VERTEX
  5
36E
  8
1
  6
CONTINUOUS
 62
     7
 10
617.478470167866
 20
146.1451423386272
 30
0.0
  0
VERTEX
  5
36F
  8
1
  6
CONTINUOUS
 62
     7
 10
617.4850156265973
 20
146.1214900899516
 30
0.0
  0
VERTEX
  5
370
  8
1
  6
CONTINUOUS
 62
     7
 10
617.4903926402015
 20
146.0975451610081
 30
0.0
  0
VERTEX
  5
371
  8
1
  6
CONTINUOUS
 62
     7
 10
617.4945882549823
 20
146.0733652372276
 30
0.0
  0
VERTEX
  5
372
  8
1
  6
CONTINUOUS
 62
     7
 10
617.4975923633361
 20
146.0490085701648
 30
0.0
  0
VERTEX
  5
373
  8
1
  6
CONTINUOUS
 62
     7
 10
617.4993977281026
 20
146.0245338371637
 30
0.0
  0
VERTEX
  5
374
  8
1
  6
CONTINUOUS
 62
     7
 10
617.4999999999999
 20
146.0
 30
0.0
  0
SEQEND
  5
55E
  8
1
  6
CONTINUOUS
 62
     7
  0
POLYLINE
  5
B5
  8
1
  6
CONTINUOUS
 62
     7
 66
     1
 10
0.0
 20
0.0
 30
0.0
  0
VERTEX
  5
375
  8
1
  6
CONTINUOUS
 62
     7
 10
603.0
 20
146.5
 30
0.0
  0
VERTEX
  5
376
  8
1
  6
CONTINUOUS
 62
     7
 10
602.9754661628363
 20
146.4993977281026
 30
0.0
  0
VERTEX
  5
377
  8
1
  6
CONTINUOUS
 62
     7
 10
602.9509914298352
 20
146.4975923633361
 30
0.0
  0
VERTEX
  5
378
  8
1
  6
CONTINUOUS
 62
     7
 10
602.9266347627723
 20
146.4945882549824
 30
0.0
  0
VERTEX
  5
379
  8
1
  6
CONTINUOUS
 62
     7
 10
602.902454838992
 20
146.4903926402016
 30
0.0
  0
VERTEX
  5
37A
  8
1
  6
CONTINUOUS
 62
     7
 10
602.8785099100484
 20
146.4850156265973
 30
0.0
  0
VERTEX
  5
37B
  8
1
  6
CONTINUOUS
 62
     7
 10
602.8548576613728
 20
146.4784701678661
 30
0.0
  0
VERTEX
  5
37C
  8
1
  6
CONTINUOUS
 62
     7
 10
602.8315550733039
 20
146.4707720325915
 30
0.0
  0
VERTEX
  5
37D
  8
1
  6
CONTINUOUS
 62
     7
 10
602.8086582838174
 20
146.4619397662556
 30
0.0
  0
VERTEX
  5
37E
  8
1
  6
CONTINUOUS
 62
     7
 10
602.7862224532848
 20
146.4519946465617
 30
0.0
  0
VERTEX
  5
37F
  8
1
  6
CONTINUOUS
 62
     7
 10
602.764301631587
 20
146.4409606321742
 30
0.0
  0
VERTEX
  5
380
  8
1
  6
CONTINUOUS
 62
     7
 10
602.7429486279033
 20
146.4288643050001
 30
0.0
  0
VERTEX
  5
381
  8
1
  6
CONTINUOUS
 62
     7
 10
602.7222148834902
 20
146.4157348061513
 30
0.0
  0
VERTEX
  5
382
  8
1
  6
CONTINUOUS
 62
     7
 10
602.7021503477538
 20
146.4016037657403
 30
0.0
  0
VERTEX
  5
383
  8
1
  6
CONTINUOUS
 62
     7
 10
602.6828033579181
 20
146.3865052266814
 30
0.0
  0
VERTEX
  5
384
  8
1
  6
CONTINUOUS
 62
     7
 10
602.6642205225764
 20
146.3704755626775
 30
0.0
  0
VERTEX
  5
385
  8
1
  6
CONTINUOUS
 62
     7
 10
602.6464466094067
 20
146.3535533905932
 30
0.0
  0
VERTEX
  5
386
  8
1
  6
CONTINUOUS
 62
     7
 10
602.6295244373225
 20
146.3357794774235
 30
0.0
  0
VERTEX
  5
387
  8
1
  6
CONTINUOUS
 62
     7
 10
602.6134947733186
 20
146.3171966420818
 30
0.0
  0
VERTEX
  5
388
  8
1
  6
CONTINUOUS
 62
     7
 10
602.5983962342597
 20
146.2978496522462
 30
0.0
  0
VERTEX
  5
389
  8
1
  6
CONTINUOUS
 62
     7
 10
602.5842651938486
 20
146.2777851165098
 30
0.0
  0
VERTEX
  5
38A
  8
1
  6
CONTINUOUS
 62
     7
 10
602.5711356949998
 20
146.2570513720966
 30
0.0
  0
VERTEX
  5
38B
  8
1
  6
CONTINUOUS
 62
     7
 10
602.5590393678258
 20
146.235698368413
 30
0.0
  0
VERTEX
  5
38C
  8
1
  6
CONTINUOUS
 62
     7
 10
602.5480053534382
 20
146.2137775467151
 30
0.0
  0
VERTEX
  5
38D
  8
1
  6
CONTINUOUS
 62
     7
 10
602.5380602337443
 20
146.1913417161825
 30
0.0
  0
VERTEX
  5
38E
  8
1
  6
CONTINUOUS
 62
     7
 10
602.5292279674085
 20
146.1684449266961
 30
0.0
  0
VERTEX
  5
38F
  8
1
  6
CONTINUOUS
 62
     7
 10
602.5215298321339
 20
146.1451423386272
 30
0.0
  0
VERTEX
  5
390
  8
1
  6
CONTINUOUS
 62
     7
 10
602.5149843734026
 20
146.1214900899516
 30
0.0
  0
VERTEX
  5
391
  8
1
  6
CONTINUOUS
 62
     7
 10
602.5096073597985
 20
146.0975451610081
 30
0.0
  0
VERTEX
  5
392
  8
1
  6
CONTINUOUS
 62
     7
 10
602.5054117450176
 20
146.0733652372276
 30
0.0
  0
VERTEX
  5
393
  8
1
  6
CONTINUOUS
 62
     7
 10
602.5024076366639
 20
146.0490085701648
 30
0.0
  0
VERTEX
  5
394
  8
1
  6
CONTINUOUS
 62
     7
 10
602.5006022718974
 20
146.0245338371637
 30
0.0
  0
VERTEX
  5
395
  8
1
  6
CONTINUOUS
 62
     7
 10
602.5
 20
146.0
 30
0.0
  0
SEQEND
  5
55F
  8
1
  6
CONTINUOUS
 62
     7
  0
LINE
  5
B6
  8
1
  6
CONTINUOUS
 62
     7
 10
602.5
 20
145.1108145786645
 30
0.0
 11
602.5
 21
146.0
 31
0.0
  0
LINE
  5
B7
  8
1
  6
CONTINUOUS
 62
     7
 10
618.7763932022501
 20
177.4654994724605
 30
0.0
 11
618.1617834407456
 21
177.5
 31
0.0
  0
LINE
  5
B8
  8
1
  6
CONTINUOUS
 62
     7
 10
600.7763932022502
 20
177.4654994724605
 30
0.0
 11
600.1617834407456
 21
177.5
 31
0.0
  0
LINE
  5
B9
  8
1
  6
CONTINUOUS
 62
     7
 10
619.22360679775
 20
177.4654994724605
 30
0.0
 11
618.77639320225
 21
177.4654994724605
 31
0.0
  0
LINE
  5
BA
  8
1
  6
CONTINUOUS
 62
     7
 10
619.8382165592545
 20
177.5
 30
0.0
 11
619.2236067977499
 21
177.4654994724605
 31
0.0
  0
LINE
  5
BB
  8
1
  6
CONTINUOUS
 62
     7
 10
601.22360679775
 20
177.4654994724605
 30
0.0
 11
600.77639320225
 21
177.4654994724605
 31
0.0
  0
LINE
  5
BC
  8
1
  6
CONTINUOUS
 62
     7
 10
601.8382165592544
 20
177.5
 30
0.0
 11
601.2236067977499
 21
177.4654994724605
 31
0.0
  0
ARC
  5
BD
  8
1
  6
CONTINUOUS
 62
     7
 10
599.0
 20
162.5
 30
0.0
 40
1.999999999999987
 50
225.4710554572763
 51
314.1011335330016
  0
ARC
  5
BE
  8
1
  6
CONTINUOUS
 62
     7
 10
610.0
 20
156.4999999999999
 30
0.0
 40
3.199999999999981
 50
179.999999999998
 51
0.0
  0
ARC
  5
BF
  8
1
  6
CONTINUOUS
 62
     7
 10
621.0
 20
162.5
 30
0.0
 40
2.000000000000028
 50
225.8988664669985
 51
314.5289445427173
  0
LINE
  5
C0
  8
1
  6
CONTINUOUS
 62
     7
 10
620.8
 20
72.49999999999999
 30
0.0
 11
621.8
 21
72.49999999999999
 31
0.0
  0
ARC
  5
C1
  8
1
  6
CONTINUOUS
 62
     7
 10
599.1999999999999
 20
72.8
 30
0.0
 40
0.2999999999999947
 50
269.9999999999997
 51
359.9999999999986
  0
ARC
  5
C2
  8
1
  6
CONTINUOUS
 62
     7
 10
620.8
 20
72.8
 30
0.0
 40
0.300000000000078
 50
180.0000000000014
 51
270.0000000000003
  0
ARC
  5
C3
  8
1
  6
CONTINUOUS
 62
     7
 10
621.8
 20
72.8
 30
0.0
 40
0.2999999999999947
 50
270.0000000000007
 51
0.0
  0
ARC
  5
C4
  8
1
  6
CONTINUOUS
 62
     7
 10
598.1999999999999
 20
72.8
 30
0.0
 40
0.299999999999967
 50
180.0
 51
269.9999999999993
  0
LINE
  5
C5
  8
1
  6
CONTINUOUS
 62
     7
 10
598.1999999999999
 20
72.49999999999999
 30
0.0
 11
599.1999999999999
 21
72.49999999999999
 31
0.0
  0
LINE
  5
C6
  8
1
  6
CONTINUOUS
 62
     7
 10
599.4999999999999
 20
72.99999999999999
 30
0.0
 11
600.0
 21
72.99999999999999
 31
0.0
  0
LINE
  5
C7
  8
1
  6
CONTINUOUS
 62
     7
 10
620.0
 20
72.99999999999999
 30
0.0
 11
620.5
 21
72.99999999999999
 31
0.0
  0
LINE
  5
C8
  8
1
  6
CONTINUOUS
 62
     7
 10
620.0
 20
144.2084532461626
 30
0.0
 11
600.0
 21
144.2084532461626
 31
0.0
  0
LINE
  5
C9
  8
1
  6
CONTINUOUS
 62
     7
 10
603.0
 20
172.2366204959387
 30
0.0
 11
603.0
 21
171.8535982743792
 31
0.0
  0
LINE
  5
CA
  8
1
  6
CONTINUOUS
 62
     7
 10
617.0
 20
171.8535982743792
 30
0.0
 11
617.0
 21
172.2366204959387
 31
0.0
  0
LINE
  5
CB
  8
1
  6
CONTINUOUS
 62
     7
 10
600.1617834407456
 20
177.5
 30
0.0
 11
593.0
 21
177.5
 31
0.0
  0
LINE
  5
CC
  8
1
  6
CONTINUOUS
 62
     7
 10
618.1617834407456
 20
177.5
 30
0.0
 11
601.8382165592544
 21
177.5
 31
0.0
  0
LINE
  5
CD
  8
1
  6
CONTINUOUS
 62
     7
 10
627.0
 20
177.5
 30
0.0
 11
619.8382165592544
 21
177.5
 31
0.0
  0
ENDBLK
  8
0
  0
BLOCK
  8
0
  2
D_FRAME_VIEW_1933
 70
     0
 10
0.0
 20
0.0
 30
0.0
  0
LINE
  5
D2
  8
1
  6
CONTINUOUS
 62
     7
 10
733.8794600215766
 20
313.2
 30
0.0
 11
733.8794600215766
 21
306.8000000000001
 31
0.0
  0
LINE
  5
D3
  8
1
  6
CONTINUOUS
 62
     7
 10
546.8794600215755
 20
320.5000000000002
 30
0.0
 11
546.8794600215755
 21
299.5000000000001
 31
0.0
  0
CIRCLE
  5
D4
  8
1
  6
CONTINUOUS
 62
     7
 10
701.379460021576
 20
310.0000000000001
 30
0.0
 40
3.500000000000059
  0
CIRCLE
  5
D5
  8
1
  6
CONTINUOUS
 62
     7
 10
716.379460021576
 20
310.0000000000001
 30
0.0
 40
3.500000000000059
  0
LINE
  5
D6
  8
1
  6
CONTINUOUS
 62
     7
 10
733.7794600215761
 20
313.2
 30
0.0
 11
733.7794600215761
 21
306.8000000000001
 31
0.0
  0
LINE
  5
D7
  8
1
  6
CONTINUOUS
 62
     7
 10
692.379460021576
 20
315.0000000000001
 30
0.0
 11
692.379460021576
 21
305.0000000000001
 31
0.0
  0
ARC
  5
D8
  8
1
  6
CONTINUOUS
 62
     7
 10
697.379460021576
 20
315.0000000000001
 30
0.0
 40
5.000000000000004
 50
90.0
 51
180.0
  0
ARC
  5
D9
  8
1
  6
CONTINUOUS
 62
     7
 10
697.379460021576
 20
305.0000000000001
 30
0.0
 40
5.000000000000004
 50
180.0
 51
270.0
  0
CIRCLE
  5
DA
  8
1
  6
CONTINUOUS
 62
     7
 10
579.379460021576
 20
310.0000000000001
 30
0.0
 40
3.500000000000059
  0
CIRCLE
  5
DB
  8
1
  6
CONTINUOUS
 62
     7
 10
564.3794600215762
 20
310.0000000000001
 30
0.0
 40
3.499999999999948
  0
LINE
  5
DC
  8
1
  6
CONTINUOUS
 62
     7
 10
546.9794600215761
 20
320.0000000000001
 30
0.0
 11
546.9794600215761
 21
300.0000000000001
 31
0.0
  0
LINE
  5
DD
  8
1
  6
CONTINUOUS
 62
     7
 10
546.9794600215761
 20
320.0000000000001
 30
0.0
 11
547.1848673109083
 21
320.0000000000001
 31
0.0
  0
LINE
  5
DE
  8
1
  6
CONTINUOUS
 62
     7
 10
546.9794600215761
 20
300.0000000000001
 30
0.0
 11
547.1848673109083
 21
300.0000000000001
 31
0.0
  0
LINE
  5
DF
  8
1
  6
CONTINUOUS
 62
     7
 10
588.379460021576
 20
315.0000000000001
 30
0.0
 11
588.379460021576
 21
305.0000000000001
 31
0.0
  0
ARC
  5
E0
  8
1
  6
CONTINUOUS
 62
     7
 10
583.379460021576
 20
315.0000000000001
 30
0.0
 40
5.000000000000004
 50
0.0
 51
90.0
  0
ARC
  5
E1
  8
1
  6
CONTINUOUS
 62
     7
 10
583.379460021576
 20
305.0000000000001
 30
0.0
 40
5.000000000000004
 50
270.0
 51
0.0
  0
POLYLINE
  5
E2
  8
1
  6
CONTINUOUS
 62
     7
 66
     1
 10
0.0
 20
0.0
 30
0.0
  0
VERTEX
  5
396
  8
1
  6
CONTINUOUS
 62
     7
 10
757.9098568748116
 20
303.0000000000001
 30
0.0
  0
VERTEX
  5
397
  8
1
  6
CONTINUOUS
 62
     7
 10
758.1469964271015
 20
303.1345030371774
 30
0.0
  0
VERTEX
  5
398
  8
1
  6
CONTINUOUS
 62
     7
 10
758.3750228393862
 20
303.532843272421
 30
0.0
  0
VERTEX
  5
399
  8
1
  6
CONTINUOUS
 62
     7
 10
758.5851731845205
 20
304.1797127138822
 30
0.0
  0
VERTEX
  5
39A
  8
1
  6
CONTINUOUS
 62
     7
 10
758.7693715025944
 20
305.0502525316942
 30
0.0
  0
VERTEX
  5
39B
  8
1
  6
CONTINUOUS
 62
     7
 10
758.9205391555439
 20
306.1110083688628
 30
0.0
  0
VERTEX
  5
39C
  8
1
  6
CONTINUOUS
 62
     7
 10
759.0328668552421
 20
307.3212159734445
 30
0.0
  0
VERTEX
  5
39D
  8
1
  6
CONTINUOUS
 62
     7
 10
759.1020379111835
 20
308.6343677458872
 30
0.0
  0
VERTEX
  5
39E
  8
1
  6
CONTINUOUS
 62
     7
 10
759.1253941184801
 20
310.0000000000001
 30
0.0
  0
VERTEX
  5
39F
  8
1
  6
CONTINUOUS
 62
     7
 10
759.1020379111835
 20
311.3656322541129
 30
0.0
  0
VERTEX
  5
3A0
  8
1
  6
CONTINUOUS
 62
     7
 10
759.0328668552421
 20
312.6787840265557
 30
0.0
  0
VERTEX
  5
3A1
  8
1
  6
CONTINUOUS
 62
     7
 10
758.9205391555439
 20
313.8889916311373
 30
0.0
  0
VERTEX
  5
3A2
  8
1
  6
CONTINUOUS
 62
     7
 10
758.7693715025944
 20
314.9497474683059
 30
0.0
  0
VERTEX
  5
3A3
  8
1
  6
CONTINUOUS
 62
     7
 10
758.5851731845205
 20
315.8202872861179
 30
0.0
  0
VERTEX
  5
3A4
  8
1
  6
CONTINUOUS
 62
     7
 10
758.3750228393862
 20
316.4671567275791
 30
0.0
  0
VERTEX
  5
3A5
  8
1
  6
CONTINUOUS
 62
     7
 10
758.1469964271015
 20
316.8654969628226
 30
0.0
  0
VERTEX
  5
3A6
  8
1
  6
CONTINUOUS
 62
     7
 10
757.9098568748116
 20
317.0000000000001
 30
0.0
  0
SEQEND
  5
560
  8
1
  6
CONTINUOUS
 62
     7
  0
POLYLINE
  5
E3
  8
1
  6
CONTINUOUS
 62
     7
 66
     1
 10
0.0
 20
0.0
 30
0.0
  0
VERTEX
  5
3A7
  8
1
  6
CONTINUOUS
 62
     7
 10
757.9098568748116
 20
317.0000000000001
 30
0.0
  0
VERTEX
  5
3A8
  8
1
  6
CONTINUOUS
 62
     7
 10
757.6827024682144
 20
316.8766849326442
 30
0.0
  0
VERTEX
  5
3A9
  8
1
  6
CONTINUOUS
 62
     7
 10
757.4635513647457
 20
316.5110844751015
 30
0.0
  0
VERTEX
  5
3AA
  8
1
  6
CONTINUOUS
 62
     7
 10
757.2601248881442
 20
315.9160797830997
 30
0.0
  0
VERTEX
  5
3AB
  8
1
  6
CONTINUOUS
 62
     7
 10
757.079590338314
 20
315.112634583402
 30
0.0
  0
VERTEX
  5
3AC
  8
1
  6
CONTINUOUS
 62
     7
 10
756.9283084667327
 20
314.1290565614135
 30
0.0
  0
VERTEX
  5
3AD
  8
1
  6
CONTINUOUS
 62
     7
 10
756.8116093688814
 20
313.0000000000002
 30
0.0
  0
SEQEND
  5
561
  8
1
  6
CONTINUOUS
 62
     7
  0
POLYLINE
  5
E4
  8
1
  6
CONTINUOUS
 62
     7
 66
     1
 10
0.0
 20
0.0
 30
0.0
  0
VERTEX
  5
3AE
  8
1
  6
CONTINUOUS
 62
     7
 10
756.8116093688814
 20
306.9999999999999
 30
0.0
  0
VERTEX
  5
3AF
  8
1
  6
CONTINUOUS
 62
     7
 10
756.9283084667327
 20
305.8709434385866
 30
0.0
  0
VERTEX
  5
3B0
  8
1
  6
CONTINUOUS
 62
     7
 10
757.079590338314
 20
304.8873654165981
 30
0.0
  0
VERTEX
  5
3B1
  8
1
  6
CONTINUOUS
 62
     7
 10
757.2601248881442
 20
304.0839202169004
 30
0.0
  0
VERTEX
  5
3B2
  8
1
  6
CONTINUOUS
 62
     7
 10
757.4635513647457
 20
303.4889155248986
 30
0.0
  0
VERTEX
  5
3B3
  8
1
  6
CONTINUOUS
 62
     7
 10
757.6827024682144
 20
303.1233150673559
 30
0.0
  0
VERTEX
  5
3B4
  8
1
  6
CONTINUOUS
 62
     7
 10
757.9098568748116
 20
303.0000000000001
 30
0.0
  0
SEQEND
  5
562
  8
1
  6
CONTINUOUS
 62
     7
  0
POLYLINE
  5
E5
  8
1
  6
CONTINUOUS
 62
     7
 66
     1
 10
0.0
 20
0.0
 30
0.0
  0
VERTEX
  5
3B5
  8
1
  6
CONTINUOUS
 62
     7
 10
759.1901069537274
 20
303.0000000000001
 30
0.0
  0
VERTEX
  5
3B6
  8
1
  6
CONTINUOUS
 62
     7
 10
759.4272465060174
 20
303.1345030371774
 30
0.0
  0
VERTEX
  5
3B7
  8
1
  6
CONTINUOUS
 62
     7
 10
759.6552729183021
 20
303.532843272421
 30
0.0
  0
VERTEX
  5
3B8
  8
1
  6
CONTINUOUS
 62
     7
 10
759.8654232634364
 20
304.1797127138822
 30
0.0
  0
VERTEX
  5
3B9
  8
1
  6
CONTINUOUS
 62
     7
 10
760.0496215815102
 20
305.0502525316942
 30
0.0
  0
VERTEX
  5
3BA
  8
1
  6
CONTINUOUS
 62
     7
 10
760.2007892344598
 20
306.1110083688628
 30
0.0
  0
VERTEX
  5
3BB
  8
1
  6
CONTINUOUS
 62
     7
 10
760.313116934158
 20
307.3212159734445
 30
0.0
  0
VERTEX
  5
3BC
  8
1
  6
CONTINUOUS
 62
     7
 10
760.3822879900994
 20
308.6343677458872
 30
0.0
  0
VERTEX
  5
3BD
  8
1
  6
CONTINUOUS
 62
     7
 10
760.405644197396
 20
310.0000000000001
 30
0.0
  0
VERTEX
  5
3BE
  8
1
  6
CONTINUOUS
 62
     7
 10
760.3822879900994
 20
311.3656322541129
 30
0.0
  0
VERTEX
  5
3BF
  8
1
  6
CONTINUOUS
 62
     7
 10
760.313116934158
 20
312.6787840265557
 30
0.0
  0
VERTEX
  5
3C0
  8
1
  6
CONTINUOUS
 62
     7
 10
760.2007892344598
 20
313.8889916311373
 30
0.0
  0
VERTEX
  5
3C1
  8
1
  6
CONTINUOUS
 62
     7
 10
760.0496215815102
 20
314.9497474683059
 30
0.0
  0
VERTEX
  5
3C2
  8
1
  6
CONTINUOUS
 62
     7
 10
759.8654232634364
 20
315.8202872861179
 30
0.0
  0
VERTEX
  5
3C3
  8
1
  6
CONTINUOUS
 62
     7
 10
759.6552729183021
 20
316.4671567275791
 30
0.0
  0
VERTEX
  5
3C4
  8
1
  6
CONTINUOUS
 62
     7
 10
759.4272465060174
 20
316.8654969628226
 30
0.0
  0
VERTEX
  5
3C5
  8
1
  6
CONTINUOUS
 62
     7
 10
759.1901069537274
 20
317.0000000000001
 30
0.0
  0
SEQEND
  5
563
  8
1
  6
CONTINUOUS
 62
     7
  0
LINE
  5
E6
  8
1
  6
CONTINUOUS
 62
     7
 10
764.6769065364589
 20
310.0000000000001
 30
0.0
 11
760.405644197396
 21
310.0000000000001
 31
0.0
  0
ARC
  5
E7
  8
1
  6
CONTINUOUS
 62
     7
 10
757.3549234259854
 20
308.1888396337038
 30
0.0
 40
7.542661237421552
 50
354.7601155497055
 51
13.89375247157489
  0
ARC
  5
E8
  8
1
  6
CONTINUOUS
 62
     7
 10
756.4541129608372
 20
308.477828224751
 30
0.0
 40
8.468593436598018
 50
335.7528401783524
 51
353.3695395535141
  0
ARC
  5
E9
  8
1
  6
CONTINUOUS
 62
     7
 10
756.619321317334
 20
311.5677981573425
 30
0.0
 40
8.299263310345713
 50
6.449269371743369
 51
24.42835089639034
  0
ARC
  5
EA
  8
1
  6
CONTINUOUS
 62
     7
 10
757.2415002797575
 20
311.8197423176084
 30
0.0
 40
7.654849985773069
 50
346.2477463090103
 51
5.098385669709159
  0
POLYLINE
  5
EB
  8
1
  6
CONTINUOUS
 62
     7
 66
     1
 10
0.0
 20
0.0
 30
0.0
  0
VERTEX
  5
3C6
  8
1
  6
CONTINUOUS
 62
     7
 10
764.8660643846907
 20
307.5000000000001
 30
0.0
  0
VERTEX
  5
3C7
  8
1
  6
CONTINUOUS
 62
     7
 10
764.9398918733532
 20
308.4549150281253
 30
0.0
  0
VERTEX
  5
3C8
  8
1
  6
CONTINUOUS
 62
     7
 10
764.9776302926914
 20
309.4773576836618
 30
0.0
  0
VERTEX
  5
3C9
  8
1
  6
CONTINUOUS
 62
     7
 10
764.9776302926914
 20
310.5226423163383
 30
0.0
  0
VERTEX
  5
3CA
  8
1
  6
CONTINUOUS
 62
     7
 10
764.9398918733532
 20
311.5450849718748
 30
0.0
  0
VERTEX
  5
3CB
  8
1
  6
CONTINUOUS
 62
     7
 10
764.8660643846907
 20
312.5000000000001
 30
0.0
  0
SEQEND
  5
564
  8
1
  6
CONTINUOUS
 62
     7
  0
POLYLINE
  5
EC
  8
1
  6
CONTINUOUS
 62
     7
 66
     1
 10
0.0
 20
0.0
 30
0.0
  0
VERTEX
  5
3CC
  8
1
  6
CONTINUOUS
 62
     7
 10
764.8660643846907
 20
312.5000000000001
 30
0.0
  0
VERTEX
  5
3CD
  8
1
  6
CONTINUOUS
 62
     7
 10
764.7738262566365
 20
313.2508441890618
 30
0.0
  0
VERTEX
  5
3CE
  8
1
  6
CONTINUOUS
 62
     7
 10
764.659266721768
 20
313.8916905663476
 30
0.0
  0
VERTEX
  5
3CF
  8
1
  6
CONTINUOUS
 62
     7
 10
764.5262620957188
 20
314.4008550107228
 30
0.0
  0
VERTEX
  5
3D0
  8
1
  6
CONTINUOUS
 62
     7
 10
764.3793128149823
 20
314.7611090819859
 30
0.0
  0
SEQEND
  5
565
  8
1
  6
CONTINUOUS
 62
     7
  0
POLYLINE
  5
ED
  8
1
  6
CONTINUOUS
 62
     7
 66
     1
 10
0.0
 20
0.0
 30
0.0
  0
VERTEX
  5
3D1
  8
1
  6
CONTINUOUS
 62
     7
 10
764.3793128149823
 20
305.2388909180142
 30
0.0
  0
VERTEX
  5
3D2
  8
1
  6
CONTINUOUS
 62
     7
 10
764.5262620957188
 20
305.5991449892773
 30
0.0
  0
VERTEX
  5
3D3
  8
1
  6
CONTINUOUS
 62
     7
 10
764.659266721768
 20
306.1083094336525
 30
0.0
  0
VERTEX
  5
3D4
  8
1
  6
CONTINUOUS
 62
     7
 10
764.7738262566365
 20
306.7491558109383
 30
0.0
  0
VERTEX
  5
3D5
  8
1
  6
CONTINUOUS
 62
     7
 10
764.8660643846907
 20
307.5000000000001
 30
0.0
  0
SEQEND
  5
566
  8
1
  6
CONTINUOUS
 62
     7
  0
POLYLINE
  5
EE
  8
1
  6
CONTINUOUS
 62
     7
 66
     1
 10
0.0
 20
0.0
 30
0.0
  0
VERTEX
  5
3D6
  8
1
  6
CONTINUOUS
 62
     7
 10
734.664184191663
 20
310.0000000000001
 30
0.0
  0
VERTEX
  5
3D7
  8
1
  6
CONTINUOUS
 62
     7
 10
734.7806672387447
 20
308.6343677458872
 30
0.0
  0
VERTEX
  5
3D8
  8
1
  6
CONTINUOUS
 62
     7
 10
735.1256400018152
 20
307.3212159734445
 30
0.0
  0
VERTEX
  5
3D9
  8
1
  6
CONTINUOUS
 62
     7
 10
735.6858453710524
 20
306.1110083688628
 30
0.0
  0
VERTEX
  5
3DA
  8
1
  6
CONTINUOUS
 62
     7
 10
736.4397549682835
 20
305.0502525316942
 30
0.0
  0
VERTEX
  5
3DB
  8
1
  6
CONTINUOUS
 62
     7
 10
737.3583964704842
 20
304.1797127138822
 30
0.0
  0
VERTEX
  5
3DC
  8
1
  6
CONTINUOUS
 62
     7
 10
738.406466999905
 20
303.532843272421
 30
0.0
  0
VERTEX
  5
3DD
  8
1
  6
CONTINUOUS
 62
     7
 10
739.5436897938649
 20
303.1345030371774
 30
0.0
  0
VERTEX
  5
3DE
  8
1
  6
CONTINUOUS
 62
     7
 10
740.7263620181541
 20
303.0000000000001
 30
0.0
  0
SEQEND
  5
567
  8
1
  6
CONTINUOUS
 62
     7
  0
POLYLINE
  5
EF
  8
1
  6
CONTINUOUS
 62
     7
 66
     1
 10
0.0
 20
0.0
 30
0.0
  0
VERTEX
  5
3DF
  8
1
  6
CONTINUOUS
 62
     7
 10
740.7263620181541
 20
317.0000000000001
 30
0.0
  0
VERTEX
  5
3E0
  8
1
  6
CONTINUOUS
 62
     7
 10
739.5436897938649
 20
316.8654969628227
 30
0.0
  0
VERTEX
  5
3E1
  8
1
  6
CONTINUOUS
 62
     7
 10
738.406466999905
 20
316.4671567275791
 30
0.0
  0
VERTEX
  5
3E2
  8
1
  6
CONTINUOUS
 62
     7
 10
737.3583964704842
 20
315.8202872861179
 30
0.0
  0
VERTEX
  5
3E3
  8
1
  6
CONTINUOUS
 62
     7
 10
736.4397549682835
 20
314.9497474683059
 30
0.0
  0
VERTEX
  5
3E4
  8
1
  6
CONTINUOUS
 62
     7
 10
735.6858453710524
 20
313.8889916311373
 30
0.0
  0
VERTEX
  5
3E5
  8
1
  6
CONTINUOUS
 62
     7
 10
735.1256400018152
 20
312.6787840265557
 30
0.0
  0
VERTEX
  5
3E6
  8
1
  6
CONTINUOUS
 62
     7
 10
734.7806672387447
 20
311.3656322541129
 30
0.0
  0
VERTEX
  5
3E7
  8
1
  6
CONTINUOUS
 62
     7
 10
734.664184191663
 20
310.0000000000001
 30
0.0
  0
SEQEND
  5
568
  8
1
  6
CONTINUOUS
 62
     7
  0
POLYLINE
  5
F0
  8
1
  6
CONTINUOUS
 62
     7
 66
     1
 10
0.0
 20
0.0
 30
0.0
  0
VERTEX
  5
3E8
  8
1
  6
CONTINUOUS
 62
     7
 10
740.7263620181541
 20
303.0000000000001
 30
0.0
  0
VERTEX
  5
3E9
  8
1
  6
CONTINUOUS
 62
     7
 10
741.9090342424432
 20
303.1345030371774
 30
0.0
  0
VERTEX
  5
3EA
  8
1
  6
CONTINUOUS
 62
     7
 10
743.0462570364032
 20
303.532843272421
 30
0.0
  0
VERTEX
  5
3EB
  8
1
  6
CONTINUOUS
 62
     7
 10
744.094327565824
 20
304.1797127138822
 30
0.0
  0
VERTEX
  5
3EC
  8
1
  6
CONTINUOUS
 62
     7
 10
745.0129690680246
 20
305.0502525316942
 30
0.0
  0
VERTEX
  5
3ED
  8
1
  6
CONTINUOUS
 62
     7
 10
745.7668786652557
 20
306.1110083688628
 30
0.0
  0
VERTEX
  5
3EE
  8
1
  6
CONTINUOUS
 62
     7
 10
746.3270840344929
 20
307.3212159734445
 30
0.0
  0
VERTEX
  5
3EF
  8
1
  6
CONTINUOUS
 62
     7
 10
746.6720567975634
 20
308.6343677458872
 30
0.0
  0
VERTEX
  5
3F0
  8
1
  6
CONTINUOUS
 62
     7
 10
746.7885398446451
 20
310.0000000000001
 30
0.0
  0
VERTEX
  5
3F1
  8
1
  6
CONTINUOUS
 62
     7
 10
746.6720567975634
 20
311.3656322541129
 30
0.0
  0
VERTEX
  5
3F2
  8
1
  6
CONTINUOUS
 62
     7
 10
746.3270840344929
 20
312.6787840265557
 30
0.0
  0
VERTEX
  5
3F3
  8
1
  6
CONTINUOUS
 62
     7
 10
745.7668786652557
 20
313.8889916311373
 30
0.0
  0
VERTEX
  5
3F4
  8
1
  6
CONTINUOUS
 62
     7
 10
745.0129690680246
 20
314.9497474683059
 30
0.0
  0
VERTEX
  5
3F5
  8
1
  6
CONTINUOUS
 62
     7
 10
744.094327565824
 20
315.8202872861179
 30
0.0
  0
VERTEX
  5
3F6
  8
1
  6
CONTINUOUS
 62
     7
 10
743.0462570364032
 20
316.4671567275791
 30
0.0
  0
VERTEX
  5
3F7
  8
1
  6
CONTINUOUS
 62
     7
 10
741.9090342424432
 20
316.8654969628227
 30
0.0
  0
VERTEX
  5
3F8
  8
1
  6
CONTINUOUS
 62
     7
 10
740.7263620181541
 20
317.0000000000001
 30
0.0
  0
SEQEND
  5
569
  8
1
  6
CONTINUOUS
 62
     7
  0
POLYLINE
  5
F1
  8
1
  6
CONTINUOUS
 62
     7
 66
     1
 10
0.0
 20
0.0
 30
0.0
  0
VERTEX
  5
3F9
  8
1
  6
CONTINUOUS
 62
     7
 10
740.9763620181542
 20
303.0000000000001
 30
0.0
  0
VERTEX
  5
3FA
  8
1
  6
CONTINUOUS
 62
     7
 10
742.1590342424433
 20
303.1345030371774
 30
0.0
  0
VERTEX
  5
3FB
  8
1
  6
CONTINUOUS
 62
     7
 10
743.2962570364033
 20
303.532843272421
 30
0.0
  0
VERTEX
  5
3FC
  8
1
  6
CONTINUOUS
 62
     7
 10
744.3443275658241
 20
304.1797127138822
 30
0.0
  0
VERTEX
  5
3FD
  8
1
  6
CONTINUOUS
 62
     7
 10
745.2629690680247
 20
305.0502525316942
 30
0.0
  0
VERTEX
  5
3FE
  8
1
  6
CONTINUOUS
 62
     7
 10
746.0168786652558
 20
306.1110083688628
 30
0.0
  0
VERTEX
  5
3FF
  8
1
  6
CONTINUOUS
 62
     7
 10
746.577084034493
 20
307.3212159734445
 30
0.0
  0
VERTEX
  5
400
  8
1
  6
CONTINUOUS
 62
     7
 10
746.9220567975635
 20
308.6343677458872
 30
0.0
  0
VERTEX
  5
401
  8
1
  6
CONTINUOUS
 62
     7
 10
747.0385398446452
 20
310.0000000000001
 30
0.0
  0
VERTEX
  5
402
  8
1
  6
CONTINUOUS
 62
     7
 10
746.9220567975635
 20
311.3656322541129
 30
0.0
  0
VERTEX
  5
403
  8
1
  6
CONTINUOUS
 62
     7
 10
746.577084034493
 20
312.6787840265557
 30
0.0
  0
VERTEX
  5
404
  8
1
  6
CONTINUOUS
 62
     7
 10
746.0168786652558
 20
313.8889916311373
 30
0.0
  0
VERTEX
  5
405
  8
1
  6
CONTINUOUS
 62
     7
 10
745.2629690680247
 20
314.9497474683059
 30
0.0
  0
VERTEX
  5
406
  8
1
  6
CONTINUOUS
 62
     7
 10
744.3443275658241
 20
315.8202872861179
 30
0.0
  0
VERTEX
  5
407
  8
1
  6
CONTINUOUS
 62
     7
 10
743.2962570364033
 20
316.4671567275791
 30
0.0
  0
VERTEX
  5
408
  8
1
  6
CONTINUOUS
 62
     7
 10
742.1590342424433
 20
316.8654969628227
 30
0.0
  0
VERTEX
  5
409
  8
1
  6
CONTINUOUS
 62
     7
 10
740.9763620181542
 20
317.0000000000001
 30
0.0
  0
SEQEND
  5
56A
  8
1
  6
CONTINUOUS
 62
     7
  0
POLYLINE
  5
F2
  8
1
  6
CONTINUOUS
 62
     7
 66
     1
 10
0.0
 20
0.0
 30
0.0
  0
VERTEX
  5
40A
  8
1
  6
CONTINUOUS
 62
     7
 10
786.4154905622382
 20
310.0000000000001
 30
0.0
  0
VERTEX
  5
40B
  8
1
  6
CONTINUOUS
 62
     7
 10
786.4054807591111
 20
310.5852709660484
 30
0.0
  0
VERTEX
  5
40C
  8
1
  6
CONTINUOUS
 62
     7
 10
786.3758360208506
 20
311.1480502970953
 30
0.0
  0
VERTEX
  5
40D
  8
1
  6
CONTINUOUS
 62
     7
 10
786.3276955781228
 20
311.6667106990589
 30
0.0
  0
VERTEX
  5
40E
  8
1
  6
CONTINUOUS
 62
     7
 10
786.2629094411443
 20
312.1213203435597
 30
0.0
  0
VERTEX
  5
40F
  8
1
  6
CONTINUOUS
 62
     7
 10
786.183967304827
 20
312.4944088369077
 30
0.0
  0
VERTEX
  5
410
  8
1
  6
CONTINUOUS
 62
     7
 10
786.093902871198
 20
312.7716385975339
 30
0.0
  0
VERTEX
  5
411
  8
1
  6
CONTINUOUS
 62
     7
 10
785.996177265933
 20
312.9423558412097
 30
0.0
  0
VERTEX
  5
412
  8
1
  6
CONTINUOUS
 62
     7
 10
785.8945460292374
 20
313.0000000000001
 30
0.0
  0
SEQEND
  5
56B
  8
1
  6
CONTINUOUS
 62
     7
  0
POLYLINE
  5
F3
  8
1
  6
CONTINUOUS
 62
     7
 66
     1
 10
0.0
 20
0.0
 30
0.0
  0
VERTEX
  5
413
  8
1
  6
CONTINUOUS
 62
     7
 10
785.8945460292374
 20
307.0000000000001
 30
0.0
  0
VERTEX
  5
414
  8
1
  6
CONTINUOUS
 62
     7
 10
785.996177265933
 20
307.0576441587904
 30
0.0
  0
VERTEX
  5
415
  8
1
  6
CONTINUOUS
 62
     7
 10
786.093902871198
 20
307.2283614024662
 30
0.0
  0
VERTEX
  5
416
  8
1
  6
CONTINUOUS
 62
     7
 10
786.183967304827
 20
307.5055911630924
 30
0.0
  0
VERTEX
  5
417
  8
1
  6
CONTINUOUS
 62
     7
 10
786.2629094411443
 20
307.8786796564404
 30
0.0
  0
VERTEX
  5
418
  8
1
  6
CONTINUOUS
 62
     7
 10
786.3276955781228
 20
308.3332893009413
 30
0.0
  0
VERTEX
  5
419
  8
1
  6
CONTINUOUS
 62
     7
 10
786.3758360208506
 20
308.8519497029048
 30
0.0
  0
VERTEX
  5
41A
  8
1
  6
CONTINUOUS
 62
     7
 10
786.4054807591111
 20
309.4147290339517
 30
0.0
  0
VERTEX
  5
41B
  8
1
  6
CONTINUOUS
 62
     7
 10
786.4154905622382
 20
310.0000000000001
 30
0.0
  0
SEQEND
  5
56C
  8
1
  6
CONTINUOUS
 62
     7
  0
POLYLINE
  5
F4
  8
1
  6
CONTINUOUS
 62
     7
 66
     1
 10
0.0
 20
0.0
 30
0.0
  0
VERTEX
  5
41C
  8
1
  6
CONTINUOUS
 62
     7
 10
523.5845094377618
 20
296.0000000000001
 30
0.0
  0
VERTEX
  5
41D
  8
1
  6
CONTINUOUS
 62
     7
 10
523.5945192408889
 20
295.4147290339517
 30
0.0
  0
VERTEX
  5
41E
  8
1
  6
CONTINUOUS
 62
     7
 10
523.6241639791496
 20
294.8519497029048
 30
0.0
  0
VERTEX
  5
41F
  8
1
  6
CONTINUOUS
 62
     7
 10
523.6723044218772
 20
294.3332893009413
 30
0.0
  0
VERTEX
  5
420
  8
1
  6
CONTINUOUS
 62
     7
 10
523.7370905588557
 20
293.8786796564404
 30
0.0
  0
VERTEX
  5
421
  8
1
  6
CONTINUOUS
 62
     7
 10
523.816032695173
 20
293.5055911630924
 30
0.0
  0
VERTEX
  5
422
  8
1
  6
CONTINUOUS
 62
     7
 10
523.906097128802
 20
293.2283614024662
 30
0.0
  0
VERTEX
  5
423
  8
1
  6
CONTINUOUS
 62
     7
 10
524.003822734067
 20
293.0576441587904
 30
0.0
  0
VERTEX
  5
424
  8
1
  6
CONTINUOUS
 62
     7
 10
524.1054539707626
 20
293.0000000000001
 30
0.0
  0
SEQEND
  5
56D
  8
1
  6
CONTINUOUS
 62
     7
  0
POLYLINE
  5
F5
  8
1
  6
CONTINUOUS
 62
     7
 66
     1
 10
0.0
 20
0.0
 30
0.0
  0
VERTEX
  5
425
  8
1
  6
CONTINUOUS
 62
     7
 10
526.7358942474008
 20
296.0000000000001
 30
0.0
  0
VERTEX
  5
426
  8
1
  6
CONTINUOUS
 62
     7
 10
526.7459040505279
 20
295.4147290339517
 30
0.0
  0
VERTEX
  5
427
  8
1
  6
CONTINUOUS
 62
     7
 10
526.7755487887885
 20
294.8519497029048
 30
0.0
  0
VERTEX
  5
428
  8
1
  6
CONTINUOUS
 62
     7
 10
526.8236892315163
 20
294.3332893009413
 30
0.0
  0
VERTEX
  5
429
  8
1
  6
CONTINUOUS
 62
     7
 10
526.8884753684947
 20
293.8786796564404
 30
0.0
  0
VERTEX
  5
42A
  8
1
  6
CONTINUOUS
 62
     7
 10
526.967417504812
 20
293.5055911630924
 30
0.0
  0
VERTEX
  5
42B
  8
1
  6
CONTINUOUS
 62
     7
 10
527.057481938441
 20
293.2283614024662
 30
0.0
  0
VERTEX
  5
42C
  8
1
  6
CONTINUOUS
 62
     7
 10
527.155207543706
 20
293.0576441587904
 30
0.0
  0
VERTEX
  5
42D
  8
1
  6
CONTINUOUS
 62
     7
 10
527.2568387804016
 20
293.0000000000001
 30
0.0
  0
SEQEND
  5
56E
  8
1
  6
CONTINUOUS
 62
     7
  0
POLYLINE
  5
F6
  8
1
  6
CONTINUOUS
 62
     7
 66
     1
 10
0.0
 20
0.0
 30
0.0
  0
VERTEX
  5
42E
  8
1
  6
CONTINUOUS
 62
     7
 10
528.9064964682375
 20
323.7500000000001
 30
0.0
  0
VERTEX
  5
42F
  8
1
  6
CONTINUOUS
 62
     7
 10
528.8133345012665
 20
323.697159521109
 30
0.0
  0
VERTEX
  5
430
  8
1
  6
CONTINUOUS
 62
     7
 10
528.7237526964403
 20
323.5406687144061
 30
0.0
  0
VERTEX
  5
431
  8
1
  6
CONTINUOUS
 62
     7
 10
528.6411936322804
 20
323.2865414338321
 30
0.0
  0
VERTEX
  5
432
  8
1
  6
CONTINUOUS
 62
     7
 10
528.5688300073228
 20
322.9445436482631
 30
0.0
  0
VERTEX
  5
433
  8
1
  6
CONTINUOUS
 62
     7
 10
528.5094427150926
 20
322.527818140804
 30
0.0
  0
VERTEX
  5
434
  8
1
  6
CONTINUOUS
 62
     7
 10
528.4653139759255
 20
322.0523794390041
 30
0.0
  0
VERTEX
  5
435
  8
1
  6
CONTINUOUS
 62
     7
 10
528.4381396325199
 20
321.5364983855444
 30
0.0
  0
VERTEX
  5
436
  8
1
  6
CONTINUOUS
 62
     7
 10
528.4289639796534
 20
321.0000000000001
 30
0.0
  0
SEQEND
  5
56F
  8
1
  6
CONTINUOUS
 62
     7
  0
POLYLINE
  5
F7
  8
1
  6
CONTINUOUS
 62
     7
 66
     1
 10
0.0
 20
0.0
 30
0.0
  0
VERTEX
  5
437
  8
1
  6
CONTINUOUS
 62
     7
 10
530.5302351792352
 20
302.6689011017642
 30
0.0
  0
VERTEX
  5
438
  8
1
  6
CONTINUOUS
 62
     7
 10
530.5437728904263
 20
302.5975490669421
 30
0.0
  0
VERTEX
  5
439
  8
1
  6
CONTINUOUS
 62
     7
 10
530.5596123956293
 20
302.5441768714085
 30
0.0
  0
VERTEX
  5
43A
  8
1
  6
CONTINUOUS
 62
     7
 10
530.5770460514159
 20
302.5111689636001
 30
0.0
  0
VERTEX
  5
43B
  8
1
  6
CONTINUOUS
 62
     7
 10
530.5952949943186
 20
302.5000000000001
 30
0.0
  0
SEQEND
  5
570
  8
1
  6
CONTINUOUS
 62
     7
  0
LINE
  5
F8
  8
1
  6
CONTINUOUS
 62
     7
 10
530.5952949943186
 20
302.5000000000001
 30
0.0
 11
531.6848673109083
 21
302.5000000000001
 31
0.0
  0
LINE
  5
F9
  8
1
  6
CONTINUOUS
 62
     7
 10
531.6848673109083
 20
293.0000000000001
 30
0.0
 11
531.6848673109083
 21
302.5000000000001
 31
0.0
  0
LINE
  5
FA
  8
1
  6
CONTINUOUS
 62
     7
 10
526.7358942474009
 20
296.0000000000001
 30
0.0
 11
526.7358942474009
 21
324.0000000000001
 31
0.0
  0
POLYLINE
  5
FB
  8
1
  6
CONTINUOUS
 62
     7
 66
     1
 10
0.0
 20
0.0
 30
0.0
  0
VERTEX
  5
43C
  8
1
  6
CONTINUOUS
 62
     7
 10
527.2568387804016
 20
327.0000000000001
 30
0.0
  0
VERTEX
  5
43D
  8
1
  6
CONTINUOUS
 62
     7
 10
527.155207543706
 20
326.9423558412097
 30
0.0
  0
VERTEX
  5
43E
  8
1
  6
CONTINUOUS
 62
     7
 10
527.057481938441
 20
326.7716385975339
 30
0.0
  0
VERTEX
  5
43F
  8
1
  6
CONTINUOUS
 62
     7
 10
526.967417504812
 20
326.4944088369077
 30
0.0
  0
VERTEX
  5
440
  8
1
  6
CONTINUOUS
 62
     7
 10
526.8884753684947
 20
326.1213203435597
 30
0.0
  0
VERTEX
  5
441
  8
1
  6
CONTINUOUS
 62
     7
 10
526.8236892315163
 20
325.6667106990589
 30
0.0
  0
VERTEX
  5
442
  8
1
  6
CONTINUOUS
 62
     7
 10
526.7755487887885
 20
325.1480502970953
 30
0.0
  0
VERTEX
  5
443
  8
1
  6
CONTINUOUS
 62
     7
 10
526.7459040505279
 20
324.5852709660484
 30
0.0
  0
VERTEX
  5
444
  8
1
  6
CONTINUOUS
 62
     7
 10
526.7358942474008
 20
324.0000000000001
 30
0.0
  0
SEQEND
  5
571
  8
1
  6
CONTINUOUS
 62
     7
  0
LINE
  5
FC
  8
1
  6
CONTINUOUS
 62
     7
 10
531.6848673109083
 20
327.0000000000001
 30
0.0
 11
531.6848673109083
 21
317.5000000000001
 31
0.0
  0
LINE
  5
FD
  8
1
  6
CONTINUOUS
 62
     7
 10
530.5952949943186
 20
317.5000000000001
 30
0.0
 11
531.6848673109083
 21
317.5000000000001
 31
0.0
  0
POLYLINE
  5
FE
  8
1
  6
CONTINUOUS
 62
     7
 66
     1
 10
0.0
 20
0.0
 30
0.0
  0
VERTEX
  5
445
  8
1
  6
CONTINUOUS
 62
     7
 10
530.5952949943186
 20
317.5000000000001
 30
0.0
  0
VERTEX
  5
446
  8
1
  6
CONTINUOUS
 62
     7
 10
530.5770460514159
 20
317.4888310364
 30
0.0
  0
VERTEX
  5
447
  8
1
  6
CONTINUOUS
 62
     7
 10
530.5596123956293
 20
317.4558231285916
 30
0.0
  0
VERTEX
  5
448
  8
1
  6
CONTINUOUS
 62
     7
 10
530.5437728904263
 20
317.402450933058
 30
0.0
  0
VERTEX
  5
449
  8
1
  6
CONTINUOUS
 62
     7
 10
530.5302351792352
 20
317.3310988982359
 30
0.0
  0
SEQEND
  5
572
  8
1
  6
CONTINUOUS
 62
     7
  0
LINE
  5
FF
  8
1
  6
CONTINUOUS
 62
     7
 10
529.9222100577771
 20
313.3689011017642
 30
0.0
 11
530.5302351792352
 21
317.3310988982359
 31
0.0
  0
POLYLINE
  5
100
  8
1
  6
CONTINUOUS
 62
     7
 66
     1
 10
0.0
 20
0.0
 30
0.0
  0
VERTEX
  5
44A
  8
1
  6
CONTINUOUS
 62
     7
 10
529.8571502426937
 20
313.2
 30
0.0
  0
VERTEX
  5
44B
  8
1
  6
CONTINUOUS
 62
     7
 10
529.8753991855964
 20
313.2111689636001
 30
0.0
  0
VERTEX
  5
44C
  8
1
  6
CONTINUOUS
 62
     7
 10
529.892832841383
 20
313.2441768714085
 30
0.0
  0
VERTEX
  5
44D
  8
1
  6
CONTINUOUS
 62
     7
 10
529.908672346586
 20
313.2975490669421
 30
0.0
  0
VERTEX
  5
44E
  8
1
  6
CONTINUOUS
 62
     7
 10
529.9222100577771
 20
313.3689011017642
 30
0.0
  0
SEQEND
  5
573
  8
1
  6
CONTINUOUS
 62
     7
  0
LINE
  5
101
  8
1
  6
CONTINUOUS
 62
     7
 10
528.1077148509696
 20
313.2
 30
0.0
 11
529.8571502426937
 21
313.2
 31
0.0
  0
POLYLINE
  5
102
  8
1
  6
CONTINUOUS
 62
     7
 66
     1
 10
0.0
 20
0.0
 30
0.0
  0
VERTEX
  5
44F
  8
1
  6
CONTINUOUS
 62
     7
 10
528.1077148509696
 20
313.2
 30
0.0
  0
VERTEX
  5
450
  8
1
  6
CONTINUOUS
 62
     7
 10
527.9993081984942
 20
313.1385128972904
 30
0.0
  0
VERTEX
  5
451
  8
1
  6
CONTINUOUS
 62
     7
 10
527.8950675528783
 20
312.9564145040362
 30
0.0
  0
VERTEX
  5
452
  8
1
  6
CONTINUOUS
 62
     7
 10
527.7989988236741
 20
312.6607027593682
 30
0.0
  0
VERTEX
  5
453
  8
1
  6
CONTINUOUS
 62
     7
 10
527.7147938782689
 20
312.262741699797
 30
0.0
  0
VERTEX
  5
454
  8
1
  6
CONTINUOUS
 62
     7
 10
527.645688665492
 20
311.7778247456628
 30
0.0
  0
VERTEX
  5
455
  8
1
  6
CONTINUOUS
 62
     7
 10
527.5943388599156
 20
311.2245869835683
 30
0.0
  0
VERTEX
  5
456
  8
1
  6
CONTINUOUS
 62
     7
 10
527.562717805771
 20
310.6242890304517
 30
0.0
  0
VERTEX
  5
457
  8
1
  6
CONTINUOUS
 62
     7
 10
527.5520406824354
 20
310.0000000000001
 30
0.0
  0
VERTEX
  5
458
  8
1
  6
CONTINUOUS
 62
     7
 10
527.562717805771
 20
309.3757109695484
 30
0.0
  0
VERTEX
  5
459
  8
1
  6
CONTINUOUS
 62
     7
 10
527.5943388599156
 20
308.7754130164318
 30
0.0
  0
VERTEX
  5
45A
  8
1
  6
CONTINUOUS
 62
     7
 10
527.645688665492
 20
308.2221752543373
 30
0.0
  0
VERTEX
  5
45B
  8
1
  6
CONTINUOUS
 62
     7
 10
527.7147938782689
 20
307.7372583002031
 30
0.0
  0
VERTEX
  5
45C
  8
1
  6
CONTINUOUS
 62
     7
 10
527.7989988236741
 20
307.3392972406319
 30
0.0
  0
VERTEX
  5
45D
  8
1
  6
CONTINUOUS
 62
     7
 10
527.8950675528783
 20
307.043585495964
 30
0.0
  0
VERTEX
  5
45E
  8
1
  6
CONTINUOUS
 62
     7
 10
527.9993081984942
 20
306.8614871027098
 30
0.0
  0
VERTEX
  5
45F
  8
1
  6
CONTINUOUS
 62
     7
 10
528.1077148509696
 20
306.8000000000001
 30
0.0
  0
SEQEND
  5
574
  8
1
  6
CONTINUOUS
 62
     7
  0
LINE
  5
103
  8
1
  6
CONTINUOUS
 62
     7
 10
528.1077148509696
 20
306.8000000000001
 30
0.0
 11
529.8571502426937
 21
306.8000000000001
 31
0.0
  0
POLYLINE
  5
104
  8
1
  6
CONTINUOUS
 62
     7
 66
     1
 10
0.0
 20
0.0
 30
0.0
  0
VERTEX
  5
460
  8
1
  6
CONTINUOUS
 62
     7
 10
529.9222100577771
 20
306.6310988982359
 30
0.0
  0
VERTEX
  5
461
  8
1
  6
CONTINUOUS
 62
     7
 10
529.908672346586
 20
306.702450933058
 30
0.0
  0
VERTEX
  5
462
  8
1
  6
CONTINUOUS
 62
     7
 10
529.892832841383
 20
306.7558231285916
 30
0.0
  0
VERTEX
  5
463
  8
1
  6
CONTINUOUS
 62
     7
 10
529.8753991855964
 20
306.7888310364
 30
0.0
  0
VERTEX
  5
464
  8
1
  6
CONTINUOUS
 62
     7
 10
529.8571502426937
 20
306.8000000000001
 30
0.0
  0
SEQEND
  5
575
  8
1
  6
CONTINUOUS
 62
     7
  0
LINE
  5
105
  8
1
  6
CONTINUOUS
 62
     7
 10
529.9222100577771
 20
306.6310988982359
 30
0.0
 11
530.5302351792352
 21
302.6689011017642
 31
0.0
  0
POLYLINE
  5
106
  8
1
  6
CONTINUOUS
 62
     7
 66
     1
 10
0.0
 20
0.0
 30
0.0
  0
VERTEX
  5
465
  8
1
  6
CONTINUOUS
 62
     7
 10
528.4289639796534
 20
299.0000000000001
 30
0.0
  0
VERTEX
  5
466
  8
1
  6
CONTINUOUS
 62
     7
 10
528.4381396325199
 20
298.4635016144557
 30
0.0
  0
VERTEX
  5
467
  8
1
  6
CONTINUOUS
 62
     7
 10
528.4653139759255
 20
297.947620560996
 30
0.0
  0
VERTEX
  5
468
  8
1
  6
CONTINUOUS
 62
     7
 10
528.5094427150926
 20
297.4721818591962
 30
0.0
  0
VERTEX
  5
469
  8
1
  6
CONTINUOUS
 62
     7
 10
528.5688300073228
 20
297.055456351737
 30
0.0
  0
VERTEX
  5
46A
  8
1
  6
CONTINUOUS
 62
     7
 10
528.6411936322804
 20
296.713458566168
 30
0.0
  0
VERTEX
  5
46B
  8
1
  6
CONTINUOUS
 62
     7
 10
528.7237526964403
 20
296.459331285594
 30
0.0
  0
VERTEX
  5
46C
  8
1
  6
CONTINUOUS
 62
     7
 10
528.8133345012665
 20
296.3028404788911
 30
0.0
  0
VERTEX
  5
46D
  8
1
  6
CONTINUOUS
 62
     7
 10
528.9064964682375
 20
296.25
 30
0.0
  0
SEQEND
  5
576
  8
1
  6
CONTINUOUS
 62
     7
  0
POLYLINE
  5
107
  8
1
  6
CONTINUOUS
 62
     7
 66
     1
 10
0.0
 20
0.0
 30
0.0
  0
VERTEX
  5
46E
  8
1
  6
CONTINUOUS
 62
     7
 10
524.1054539707626
 20
327.0000000000001
 30
0.0
  0
VERTEX
  5
46F
  8
1
  6
CONTINUOUS
 62
     7
 10
524.003822734067
 20
326.9423558412097
 30
0.0
  0
VERTEX
  5
470
  8
1
  6
CONTINUOUS
 62
     7
 10
523.906097128802
 20
326.7716385975339
 30
0.0
  0
VERTEX
  5
471
  8
1
  6
CONTINUOUS
 62
     7
 10
523.816032695173
 20
326.4944088369077
 30
0.0
  0
VERTEX
  5
472
  8
1
  6
CONTINUOUS
 62
     7
 10
523.7370905588557
 20
326.1213203435597
 30
0.0
  0
VERTEX
  5
473
  8
1
  6
CONTINUOUS
 62
     7
 10
523.6723044218772
 20
325.6667106990589
 30
0.0
  0
VERTEX
  5
474
  8
1
  6
CONTINUOUS
 62
     7
 10
523.6241639791496
 20
325.1480502970953
 30
0.0
  0
VERTEX
  5
475
  8
1
  6
CONTINUOUS
 62
     7
 10
523.5945192408889
 20
324.5852709660484
 30
0.0
  0
VERTEX
  5
476
  8
1
  6
CONTINUOUS
 62
     7
 10
523.5845094377618
 20
324.0000000000001
 30
0.0
  0
SEQEND
  5
577
  8
1
  6
CONTINUOUS
 62
     7
  0
LINE
  5
108
  8
1
  6
CONTINUOUS
 62
     7
 10
523.5845094377618
 20
296.0000000000001
 30
0.0
 11
523.5845094377618
 21
324.0000000000001
 31
0.0
  0
POLYLINE
  5
109
  8
1
  6
CONTINUOUS
 62
     7
 66
     1
 10
0.0
 20
0.0
 30
0.0
  0
VERTEX
  5
477
  8
1
  6
CONTINUOUS
 62
     7
 10
528.9064964682375
 20
301.7500000000001
 30
0.0
  0
VERTEX
  5
478
  8
1
  6
CONTINUOUS
 62
     7
 10
528.8133345012665
 20
301.697159521109
 30
0.0
  0
VERTEX
  5
479
  8
1
  6
CONTINUOUS
 62
     7
 10
528.7237526964403
 20
301.5406687144061
 30
0.0
  0
VERTEX
  5
47A
  8
1
  6
CONTINUOUS
 62
     7
 10
528.6411936322804
 20
301.2865414338321
 30
0.0
  0
VERTEX
  5
47B
  8
1
  6
CONTINUOUS
 62
     7
 10
528.5688300073228
 20
300.9445436482631
 30
0.0
  0
VERTEX
  5
47C
  8
1
  6
CONTINUOUS
 62
     7
 10
528.5094427150926
 20
300.527818140804
 30
0.0
  0
VERTEX
  5
47D
  8
1
  6
CONTINUOUS
 62
     7
 10
528.4653139759255
 20
300.0523794390041
 30
0.0
  0
VERTEX
  5
47E
  8
1
  6
CONTINUOUS
 62
     7
 10
528.4381396325199
 20
299.5364983855444
 30
0.0
  0
VERTEX
  5
47F
  8
1
  6
CONTINUOUS
 62
     7
 10
528.4289639796534
 20
299.0000000000001
 30
0.0
  0
SEQEND
  5
578
  8
1
  6
CONTINUOUS
 62
     7
  0
POLYLINE
  5
10A
  8
1
  6
CONTINUOUS
 62
     7
 66
     1
 10
0.0
 20
0.0
 30
0.0
  0
VERTEX
  5
480
  8
1
  6
CONTINUOUS
 62
     7
 10
528.9064964682375
 20
296.25
 30
0.0
  0
VERTEX
  5
481
  8
1
  6
CONTINUOUS
 62
     7
 10
528.9996584352085
 20
296.3028404788911
 30
0.0
  0
VERTEX
  5
482
  8
1
  6
CONTINUOUS
 62
     7
 10
529.0892402400347
 20
296.459331285594
 30
0.0
  0
VERTEX
  5
483
  8
1
  6
CONTINUOUS
 62
     7
 10
529.1717993041946
 20
296.713458566168
 30
0.0
  0
VERTEX
  5
484
  8
1
  6
CONTINUOUS
 62
     7
 10
529.2441629291521
 20
297.055456351737
 30
0.0
  0
VERTEX
  5
485
  8
1
  6
CONTINUOUS
 62
     7
 10
529.3035502213824
 20
297.4721818591962
 30
0.0
  0
VERTEX
  5
486
  8
1
  6
CONTINUOUS
 62
     7
 10
529.3476789605495
 20
297.947620560996
 30
0.0
  0
VERTEX
  5
487
  8
1
  6
CONTINUOUS
 62
     7
 10
529.3748533039551
 20
298.4635016144557
 30
0.0
  0
VERTEX
  5
488
  8
1
  6
CONTINUOUS
 62
     7
 10
529.3840289568216
 20
299.0000000000001
 30
0.0
  0
VERTEX
  5
489
  8
1
  6
CONTINUOUS
 62
     7
 10
529.3748533039551
 20
299.5364983855444
 30
0.0
  0
VERTEX
  5
48A
  8
1
  6
CONTINUOUS
 62
     7
 10
529.3476789605495
 20
300.0523794390041
 30
0.0
  0
VERTEX
  5
48B
  8
1
  6
CONTINUOUS
 62
     7
 10
529.3035502213824
 20
300.527818140804
 30
0.0
  0
VERTEX
  5
48C
  8
1
  6
CONTINUOUS
 62
     7
 10
529.2441629291521
 20
300.9445436482631
 30
0.0
  0
VERTEX
  5
48D
  8
1
  6
CONTINUOUS
 62
     7
 10
529.1717993041946
 20
301.2865414338321
 30
0.0
  0
VERTEX
  5
48E
  8
1
  6
CONTINUOUS
 62
     7
 10
529.0892402400347
 20
301.5406687144061
 30
0.0
  0
VERTEX
  5
48F
  8
1
  6
CONTINUOUS
 62
     7
 10
528.9996584352085
 20
301.697159521109
 30
0.0
  0
VERTEX
  5
490
  8
1
  6
CONTINUOUS
 62
     7
 10
528.9064964682375
 20
301.7500000000001
 30
0.0
  0
SEQEND
  5
579
  8
1
  6
CONTINUOUS
 62
     7
  0
POLYLINE
  5
10B
  8
1
  6
CONTINUOUS
 62
     7
 66
     1
 10
0.0
 20
0.0
 30
0.0
  0
VERTEX
  5
491
  8
1
  6
CONTINUOUS
 62
     7
 10
528.4289639796534
 20
321.0000000000001
 30
0.0
  0
VERTEX
  5
492
  8
1
  6
CONTINUOUS
 62
     7
 10
528.4381396325199
 20
320.4635016144557
 30
0.0
  0
VERTEX
  5
493
  8
1
  6
CONTINUOUS
 62
     7
 10
528.4653139759255
 20
319.947620560996
 30
0.0
  0
VERTEX
  5
494
  8
1
  6
CONTINUOUS
 62
     7
 10
528.5094427150926
 20
319.4721818591962
 30
0.0
  0
VERTEX
  5
495
  8
1
  6
CONTINUOUS
 62
     7
 10
528.5688300073228
 20
319.055456351737
 30
0.0
  0
VERTEX
  5
496
  8
1
  6
CONTINUOUS
 62
     7
 10
528.6411936322804
 20
318.713458566168
 30
0.0
  0
VERTEX
  5
497
  8
1
  6
CONTINUOUS
 62
     7
 10
528.7237526964403
 20
318.459331285594
 30
0.0
  0
VERTEX
  5
498
  8
1
  6
CONTINUOUS
 62
     7
 10
528.8133345012665
 20
318.3028404788911
 30
0.0
  0
VERTEX
  5
499
  8
1
  6
CONTINUOUS
 62
     7
 10
528.9064964682375
 20
318.25
 30
0.0
  0
SEQEND
  5
57A
  8
1
  6
CONTINUOUS
 62
     7
  0
POLYLINE
  5
10C
  8
1
  6
CONTINUOUS
 62
     7
 66
     1
 10
0.0
 20
0.0
 30
0.0
  0
VERTEX
  5
49A
  8
1
  6
CONTINUOUS
 62
     7
 10
528.9064964682375
 20
318.25
 30
0.0
  0
VERTEX
  5
49B
  8
1
  6
CONTINUOUS
 62
     7
 10
528.9996584352085
 20
318.3028404788911
 30
0.0
  0
VERTEX
  5
49C
  8
1
  6
CONTINUOUS
 62
     7
 10
529.0892402400347
 20
318.459331285594
 30
0.0
  0
VERTEX
  5
49D
  8
1
  6
CONTINUOUS
 62
     7
 10
529.1717993041946
 20
318.713458566168
 30
0.0
  0
VERTEX
  5
49E
  8
1
  6
CONTINUOUS
 62
     7
 10
529.2441629291521
 20
319.055456351737
 30
0.0
  0
VERTEX
  5
49F
  8
1
  6
CONTINUOUS
 62
     7
 10
529.3035502213824
 20
319.4721818591962
 30
0.0
  0
VERTEX
  5
4A0
  8
1
  6
CONTINUOUS
 62
     7
 10
529.3476789605495
 20
319.947620560996
 30
0.0
  0
VERTEX
  5
4A1
  8
1
  6
CONTINUOUS
 62
     7
 10
529.3748533039551
 20
320.4635016144557
 30
0.0
  0
VERTEX
  5
4A2
  8
1
  6
CONTINUOUS
 62
     7
 10
529.3840289568216
 20
321.0000000000001
 30
0.0
  0
VERTEX
  5
4A3
  8
1
  6
CONTINUOUS
 62
     7
 10
529.3748533039551
 20
321.5364983855444
 30
0.0
  0
VERTEX
  5
4A4
  8
1
  6
CONTINUOUS
 62
     7
 10
529.3476789605495
 20
322.0523794390041
 30
0.0
  0
VERTEX
  5
4A5
  8
1
  6
CONTINUOUS
 62
     7
 10
529.3035502213824
 20
322.527818140804
 30
0.0
  0
VERTEX
  5
4A6
  8
1
  6
CONTINUOUS
 62
     7
 10
529.2441629291521
 20
322.9445436482631
 30
0.0
  0
VERTEX
  5
4A7
  8
1
  6
CONTINUOUS
 62
     7
 10
529.1717993041946
 20
323.2865414338321
 30
0.0
  0
VERTEX
  5
4A8
  8
1
  6
CONTINUOUS
 62
     7
 10
529.0892402400347
 20
323.5406687144061
 30
0.0
  0
VERTEX
  5
4A9
  8
1
  6
CONTINUOUS
 62
     7
 10
528.9996584352085
 20
323.697159521109
 30
0.0
  0
VERTEX
  5
4AA
  8
1
  6
CONTINUOUS
 62
     7
 10
528.9064964682375
 20
323.7500000000001
 30
0.0
  0
SEQEND
  5
57B
  8
1
  6
CONTINUOUS
 62
     7
  0
LINE
  5
10D
  8
1
  6
CONTINUOUS
 62
     7
 10
547.1848673109083
 20
299.5000000000001
 30
0.0
 11
544.1848673109085
 21
299.5000000000001
 31
0.0
  0
LINE
  5
10E
  8
1
  6
CONTINUOUS
 62
     7
 10
547.1848673109083
 20
320.5000000000001
 30
0.0
 11
547.1848673109083
 21
299.5000000000001
 31
0.0
  0
LINE
  5
10F
  8
1
  6
CONTINUOUS
 62
     7
 10
547.1848673109083
 20
320.5000000000001
 30
0.0
 11
544.1848673109085
 21
320.5000000000001
 31
0.0
  0
LINE
  5
110
  8
1
  6
CONTINUOUS
 62
     7
 10
544.1848673109085
 20
320.5000000000001
 30
0.0
 11
544.1848673109085
 21
299.5000000000001
 31
0.0
  0
LINE
  5
111
  8
1
  6
CONTINUOUS
 62
     7
 10
539.0093055901142
 20
320.2466643547022
 30
0.0
 11
531.6848673109083
 21
317.5000000000001
 31
0.0
  0
ARC
  5
112
  8
1
  6
CONTINUOUS
 62
     7
 10
548.6848673109083
 20
324.0000000000001
 30
0.0
 40
3.000000000000003
 50
0.0
 51
90.0
  0
LINE
  5
113
  8
1
  6
CONTINUOUS
 62
     7
 10
551.6848673109083
 20
296.0000000000001
 30
0.0
 11
551.6848673109083
 21
300.0000000000001
 31
0.0
  0
LINE
  5
114
  8
1
  6
CONTINUOUS
 62
     7
 10
551.6848673109083
 20
320.0000000000001
 30
0.0
 11
551.6848673109083
 21
324.0000000000001
 31
0.0
  0
ARC
  5
115
  8
1
  6
CONTINUOUS
 62
     7
 10
548.6848673109083
 20
296.0000000000001
 30
0.0
 40
3.000000000000003
 50
270.0
 51
0.0
  0
LINE
  5
116
  8
1
  6
CONTINUOUS
 62
     7
 10
539.0093055901142
 20
299.7533356452979
 30
0.0
 11
531.6848673109083
 21
302.5000000000001
 31
0.0
  0
ARC
  5
117
  8
1
  6
CONTINUOUS
 62
     7
 10
539.1848673109083
 20
300.2215002340824
 30
0.0
 40
0.500000000000056
 50
249.4439547804168
 51
0.0000000000003979
  0
LINE
  5
118
  8
1
  6
CONTINUOUS
 62
     7
 10
539.6848673109083
 20
319.7784997659177
 30
0.0
 11
539.6848673109083
 21
300.2215002340824
 31
0.0
  0
ARC
  5
119
  8
1
  6
CONTINUOUS
 62
     7
 10
539.1848673109083
 20
319.7784997659177
 30
0.0
 40
0.500000000000056
 50
359.9999999999996
 51
110.5560452195833
  0
LINE
  5
11A
  8
1
  6
CONTINUOUS
 62
     7
 10
756.0921627871558
 20
301.2236067977501
 30
0.0
 11
756.0921627871558
 21
300.7763932022501
 31
0.0
  0
POLYLINE
  5
11B
  8
1
  6
CONTINUOUS
 62
     7
 66
     1
 10
0.0
 20
0.0
 30
0.0
  0
VERTEX
  5
4AB
  8
1
  6
CONTINUOUS
 62
     7
 10
756.0921627871556
 20
301.22360679775
 30
0.0
  0
VERTEX
  5
4AC
  8
1
  6
CONTINUOUS
 62
     7
 10
755.5478009592034
 20
302.1996474140368
 30
0.0
  0
VERTEX
  5
4AD
  8
1
  6
CONTINUOUS
 62
     7
 10
754.8367947686471
 20
302.7982709416962
 30
0.0
  0
VERTEX
  5
4AE
  8
1
  6
CONTINUOUS
 62
     7
 10
753.9822781847234
 20
303.0000000000001
 30
0.0
  0
VERTEX
  5
4AF
  8
1
  6
CONTINUOUS
 62
     7
 10
753.0120545664296
 20
302.7982709416963
 30
0.0
  0
VERTEX
  5
4B0
  8
1
  6
CONTINUOUS
 62
     7
 10
751.9576920261625
 20
302.1996474140369
 30
0.0
  0
VERTEX
  5
4B1
  8
1
  6
CONTINUOUS
 62
     7
 10
750.8534962997865
 20
301.2236067977501
 30
0.0
  0
SEQEND
  5
57C
  8
1
  6
CONTINUOUS
 62
     7
  0
POLYLINE
  5
11C
  8
1
  6
CONTINUOUS
 62
     7
 66
     1
 10
0.0
 20
0.0
 30
0.0
  0
VERTEX
  5
4B2
  8
1
  6
CONTINUOUS
 62
     7
 10
750.8534962997865
 20
300.7763932022501
 30
0.0
  0
VERTEX
  5
4B3
  8
1
  6
CONTINUOUS
 62
     7
 10
750.841159320021
 20
300.7896586576827
 30
0.0
  0
VERTEX
  5
4B4
  8
1
  6
CONTINUOUS
 62
     7
 10
750.8293403862949
 20
300.8034459703381
 30
0.0
  0
VERTEX
  5
4B5
  8
1
  6
CONTINUOUS
 62
     7
 10
750.8181114980592
 20
300.817737967056
 30
0.0
  0
VERTEX
  5
4B6
  8
1
  6
CONTINUOUS
 62
     7
 10
750.8075446547648
 20
300.8325174746755
 30
0.0
  0
VERTEX
  5
4B7
  8
1
  6
CONTINUOUS
 62
     7
 10
750.7977118558628
 20
300.8477673200362
 30
0.0
  0
VERTEX
  5
4B8
  8
1
  6
CONTINUOUS
 62
     7
 10
750.7886851008037
 20
300.8634703299774
 30
0.0
  0
VERTEX
  5
4B9
  8
1
  6
CONTINUOUS
 62
     7
 10
750.7825048659748
 20
300.8754942901268
 30
0.0
  0
VERTEX
  5
4BA
  8
1
  6
CONTINUOUS
 62
     7
 10
750.7768245788396
 20
300.8877769346084
 30
0.0
  0
VERTEX
  5
4BB
  8
1
  6
CONTINUOUS
 62
     7
 10
750.7716780252065
 20
300.9002917220104
 30
0.0
  0
VERTEX
  5
4BC
  8
1
  6
CONTINUOUS
 62
     7
 10
750.7670989908837
 20
300.913012110921
 30
0.0
  0
VERTEX
  5
4BD
  8
1
  6
CONTINUOUS
 62
     7
 10
750.7629863917487
 20
300.9263845250221
 30
0.0
  0
VERTEX
  5
4BE
  8
1
  6
CONTINUOUS
 62
     7
 10
750.7595290738121
 20
300.9399596824511
 30
0.0
  0
VERTEX
  5
4BF
  8
1
  6
CONTINUOUS
 62
     7
 10
750.7567537385488
 20
300.9536895330366
 30
0.0
  0
VERTEX
  5
4C0
  8
1
  6
CONTINUOUS
 62
     7
 10
750.754687087433
 20
300.9675260266072
 30
0.0
  0
VERTEX
  5
4C1
  8
1
  6
CONTINUOUS
 62
     7
 10
750.7534726038332
 20
300.9797413541354
 30
0.0
  0
VERTEX
  5
4C2
  8
1
  6
CONTINUOUS
 62
     7
 10
750.7528204259409
 20
300.992012813851
 30
0.0
  0
VERTEX
  5
4C3
  8
1
  6
CONTINUOUS
 62
     7
 10
750.7527332640657
 20
301.0043012004466
 30
0.0
  0
VERTEX
  5
4C4
  8
1
  6
CONTINUOUS
 62
     7
 10
750.7532138285175
 20
301.0165673086153
 30
0.0
  0
VERTEX
  5
4C5
  8
1
  6
CONTINUOUS
 62
     7
 10
750.7543117669759
 20
301.0292356809451
 30
0.0
  0
VERTEX
  5
4C6
  8
1
  6
CONTINUOUS
 62
     7
 10
750.7560100473627
 20
301.0418516334813
 30
0.0
  0
VERTEX
  5
4C7
  8
1
  6
CONTINUOUS
 62
     7
 10
750.7582937707518
 20
301.0543753218136
 30
0.0
  0
VERTEX
  5
4C8
  8
1
  6
CONTINUOUS
 62
     7
 10
750.7611480382178
 20
301.0667669015317
 30
0.0
  0
VERTEX
  5
4C9
  8
1
  6
CONTINUOUS
 62
     7
 10
750.7652421444943
 20
301.0812137603518
 30
0.0
  0
VERTEX
  5
4CA
  8
1
  6
CONTINUOUS
 62
     7
 10
750.7700930142415
 20
301.0954584339611
 30
0.0
  0
VERTEX
  5
4CB
  8
1
  6
CONTINUOUS
 62
     7
 10
750.775655124329
 20
301.109463077735
 30
0.0
  0
VERTEX
  5
4CC
  8
1
  6
CONTINUOUS
 62
     7
 10
750.7818829516261
 20
301.1231898470489
 30
0.0
  0
VERTEX
  5
4CD
  8
1
  6
CONTINUOUS
 62
     7
 10
750.7887309730029
 20
301.1366008972783
 30
0.0
  0
VERTEX
  5
4CE
  8
1
  6
CONTINUOUS
 62
     7
 10
750.7961536653287
 20
301.1496583837986
 30
0.0
  0
VERTEX
  5
4CF
  8
1
  6
CONTINUOUS
 62
     7
 10
750.806185449751
 20
301.1654805756765
 30
0.0
  0
VERTEX
  5
4D0
  8
1
  6
CONTINUOUS
 62
     7
 10
750.8170130961514
 20
301.1808019197448
 30
0.0
  0
VERTEX
  5
4D1
  8
1
  6
CONTINUOUS
 62
     7
 10
750.8285591137866
 20
301.1956070092693
 30
0.0
  0
VERTEX
  5
4D2
  8
1
  6
CONTINUOUS
 62
     7
 10
750.8407460119129
 20
301.2098804375158
 30
0.0
  0
VERTEX
  5
4D3
  8
1
  6
CONTINUOUS
 62
     7
 10
750.8534962997865
 20
301.2236067977501
 30
0.0
  0
SEQEND
  5
57D
  8
1
  6
CONTINUOUS
 62
     7
  0
POLYLINE
  5
11D
  8
1
  6
CONTINUOUS
 62
     7
 66
     1
 10
0.0
 20
0.0
 30
0.0
  0
VERTEX
  5
4D4
  8
1
  6
CONTINUOUS
 62
     7
 10
750.8534962997865
 20
300.77639320225
 30
0.0
  0
VERTEX
  5
4D5
  8
1
  6
CONTINUOUS
 62
     7
 10
751.9576920261625
 20
299.8003525859632
 30
0.0
  0
VERTEX
  5
4D6
  8
1
  6
CONTINUOUS
 62
     7
 10
753.0120545664296
 20
299.2017290583039
 30
0.0
  0
VERTEX
  5
4D7
  8
1
  6
CONTINUOUS
 62
     7
 10
753.9822781847234
 20
299.0000000000001
 30
0.0
  0
VERTEX
  5
4D8
  8
1
  6
CONTINUOUS
 62
     7
 10
754.8367947686471
 20
299.201729058304
 30
0.0
  0
VERTEX
  5
4D9
  8
1
  6
CONTINUOUS
 62
     7
 10
755.5478009592034
 20
299.8003525859633
 30
0.0
  0
VERTEX
  5
4DA
  8
1
  6
CONTINUOUS
 62
     7
 10
756.0921627871556
 20
300.7763932022501
 30
0.0
  0
SEQEND
  5
57E
  8
1
  6
CONTINUOUS
 62
     7
  0
LINE
  5
11E
  8
1
  6
CONTINUOUS
 62
     7
 10
747.3261042793471
 20
312.7
 30
0.0
 11
747.3261042793471
 21
307.3000000000001
 31
0.0
  0
LINE
  5
11F
  8
1
  6
CONTINUOUS
 62
     7
 10
756.0921627871558
 20
319.22360679775
 30
0.0
 11
756.0921627871558
 21
318.7763932022501
 31
0.0
  0
POLYLINE
  5
120
  8
1
  6
CONTINUOUS
 62
     7
 66
     1
 10
0.0
 20
0.0
 30
0.0
  0
VERTEX
  5
4DB
  8
1
  6
CONTINUOUS
 62
     7
 10
756.0921627871556
 20
319.2236067977499
 30
0.0
  0
VERTEX
  5
4DC
  8
1
  6
CONTINUOUS
 62
     7
 10
755.5478009592034
 20
320.1996474140367
 30
0.0
  0
VERTEX
  5
4DD
  8
1
  6
CONTINUOUS
 62
     7
 10
754.836794768647
 20
320.7982709416961
 30
0.0
  0
VERTEX
  5
4DE
  8
1
  6
CONTINUOUS
 62
     7
 10
753.9822781847234
 20
321.0
 30
0.0
  0
VERTEX
  5
4DF
  8
1
  6
CONTINUOUS
 62
     7
 10
753.0120545664296
 20
320.7982709416962
 30
0.0
  0
VERTEX
  5
4E0
  8
1
  6
CONTINUOUS
 62
     7
 10
751.9576920261625
 20
320.1996474140368
 30
0.0
  0
VERTEX
  5
4E1
  8
1
  6
CONTINUOUS
 62
     7
 10
750.8534962997865
 20
319.22360679775
 30
0.0
  0
SEQEND
  5
57F
  8
1
  6
CONTINUOUS
 62
     7
  0
POLYLINE
  5
121
  8
1
  6
CONTINUOUS
 62
     7
 66
     1
 10
0.0
 20
0.0
 30
0.0
  0
VERTEX
  5
4E2
  8
1
  6
CONTINUOUS
 62
     7
 10
750.8534962997865
 20
318.7763932022501
 30
0.0
  0
VERTEX
  5
4E3
  8
1
  6
CONTINUOUS
 62
     7
 10
750.841159320021
 20
318.7896586576827
 30
0.0
  0
VERTEX
  5
4E4
  8
1
  6
CONTINUOUS
 62
     7
 10
750.8293403862949
 20
318.8034459703381
 30
0.0
  0
VERTEX
  5
4E5
  8
1
  6
CONTINUOUS
 62
     7
 10
750.8181114980592
 20
318.817737967056
 30
0.0
  0
VERTEX
  5
4E6
  8
1
  6
CONTINUOUS
 62
     7
 10
750.8075446547648
 20
318.8325174746756
 30
0.0
  0
VERTEX
  5
4E7
  8
1
  6
CONTINUOUS
 62
     7
 10
750.7977118558628
 20
318.8477673200362
 30
0.0
  0
VERTEX
  5
4E8
  8
1
  6
CONTINUOUS
 62
     7
 10
750.7886851008037
 20
318.8634703299774
 30
0.0
  0
VERTEX
  5
4E9
  8
1
  6
CONTINUOUS
 62
     7
 10
750.7825048659748
 20
318.8754942901268
 30
0.0
  0
VERTEX
  5
4EA
  8
1
  6
CONTINUOUS
 62
     7
 10
750.7768245788396
 20
318.8877769346084
 30
0.0
  0
VERTEX
  5
4EB
  8
1
  6
CONTINUOUS
 62
     7
 10
750.7716780252065
 20
318.9002917220104
 30
0.0
  0
VERTEX
  5
4EC
  8
1
  6
CONTINUOUS
 62
     7
 10
750.7670989908837
 20
318.9130121109209
 30
0.0
  0
VERTEX
  5
4ED
  8
1
  6
CONTINUOUS
 62
     7
 10
750.7629863917487
 20
318.926384525022
 30
0.0
  0
VERTEX
  5
4EE
  8
1
  6
CONTINUOUS
 62
     7
 10
750.7595290738121
 20
318.9399596824511
 30
0.0
  0
VERTEX
  5
4EF
  8
1
  6
CONTINUOUS
 62
     7
 10
750.7567537385488
 20
318.9536895330366
 30
0.0
  0
VERTEX
  5
4F0
  8
1
  6
CONTINUOUS
 62
     7
 10
750.7546870874331
 20
318.9675260266072
 30
0.0
  0
VERTEX
  5
4F1
  8
1
  6
CONTINUOUS
 62
     7
 10
750.7534726038332
 20
318.9797413541354
 30
0.0
  0
VERTEX
  5
4F2
  8
1
  6
CONTINUOUS
 62
     7
 10
750.7528204259409
 20
318.9920128138509
 30
0.0
  0
VERTEX
  5
4F3
  8
1
  6
CONTINUOUS
 62
     7
 10
750.7527332640656
 20
319.0043012004466
 30
0.0
  0
VERTEX
  5
4F4
  8
1
  6
CONTINUOUS
 62
     7
 10
750.7532138285173
 20
319.0165673086153
 30
0.0
  0
VERTEX
  5
4F5
  8
1
  6
CONTINUOUS
 62
     7
 10
750.7543117669758
 20
319.0292356809451
 30
0.0
  0
VERTEX
  5
4F6
  8
1
  6
CONTINUOUS
 62
     7
 10
750.7560100473627
 20
319.0418516334813
 30
0.0
  0
VERTEX
  5
4F7
  8
1
  6
CONTINUOUS
 62
     7
 10
750.7582937707518
 20
319.0543753218136
 30
0.0
  0
VERTEX
  5
4F8
  8
1
  6
CONTINUOUS
 62
     7
 10
750.7611480382178
 20
319.0667669015317
 30
0.0
  0
VERTEX
  5
4F9
  8
1
  6
CONTINUOUS
 62
     7
 10
750.7652421444943
 20
319.0812137603519
 30
0.0
  0
VERTEX
  5
4FA
  8
1
  6
CONTINUOUS
 62
     7
 10
750.7700930142415
 20
319.0954584339611
 30
0.0
  0
VERTEX
  5
4FB
  8
1
  6
CONTINUOUS
 62
     7
 10
750.775655124329
 20
319.109463077735
 30
0.0
  0
VERTEX
  5
4FC
  8
1
  6
CONTINUOUS
 62
     7
 10
750.7818829516261
 20
319.1231898470488
 30
0.0
  0
VERTEX
  5
4FD
  8
1
  6
CONTINUOUS
 62
     7
 10
750.7887309730029
 20
319.1366008972782
 30
0.0
  0
VERTEX
  5
4FE
  8
1
  6
CONTINUOUS
 62
     7
 10
750.7961536653287
 20
319.1496583837987
 30
0.0
  0
VERTEX
  5
4FF
  8
1
  6
CONTINUOUS
 62
     7
 10
750.806185449751
 20
319.1654805756764
 30
0.0
  0
VERTEX
  5
500
  8
1
  6
CONTINUOUS
 62
     7
 10
750.8170130961514
 20
319.1808019197447
 30
0.0
  0
VERTEX
  5
501
  8
1
  6
CONTINUOUS
 62
     7
 10
750.8285591137866
 20
319.1956070092692
 30
0.0
  0
VERTEX
  5
502
  8
1
  6
CONTINUOUS
 62
     7
 10
750.8407460119129
 20
319.2098804375157
 30
0.0
  0
VERTEX
  5
503
  8
1
  6
CONTINUOUS
 62
     7
 10
750.8534962997865
 20
319.22360679775
 30
0.0
  0
SEQEND
  5
580
  8
1
  6
CONTINUOUS
 62
     7
  0
POLYLINE
  5
122
  8
1
  6
CONTINUOUS
 62
     7
 66
     1
 10
0.0
 20
0.0
 30
0.0
  0
VERTEX
  5
504
  8
1
  6
CONTINUOUS
 62
     7
 10
750.8534962997865
 20
318.7763932022501
 30
0.0
  0
VERTEX
  5
505
  8
1
  6
CONTINUOUS
 62
     7
 10
751.9576920261625
 20
317.8003525859633
 30
0.0
  0
VERTEX
  5
506
  8
1
  6
CONTINUOUS
 62
     7
 10
753.0120545664296
 20
317.201729058304
 30
0.0
  0
VERTEX
  5
507
  8
1
  6
CONTINUOUS
 62
     7
 10
753.9822781847234
 20
317.0000000000001
 30
0.0
  0
VERTEX
  5
508
  8
1
  6
CONTINUOUS
 62
     7
 10
754.8367947686471
 20
317.201729058304
 30
0.0
  0
VERTEX
  5
509
  8
1
  6
CONTINUOUS
 62
     7
 10
755.5478009592034
 20
317.8003525859634
 30
0.0
  0
VERTEX
  5
50A
  8
1
  6
CONTINUOUS
 62
     7
 10
756.0921627871556
 20
318.7763932022502
 30
0.0
  0
SEQEND
  5
581
  8
1
  6
CONTINUOUS
 62
     7
  0
POLYLINE
  5
123
  8
1
  6
CONTINUOUS
 62
     7
 66
     1
 10
0.0
 20
0.0
 30
0.0
  0
VERTEX
  5
50B
  8
1
  6
CONTINUOUS
 62
     7
 10
747.326104279347
 20
312.7
 30
0.0
  0
VERTEX
  5
50C
  8
1
  6
CONTINUOUS
 62
     7
 10
747.3177840616983
 20
312.7975451610081
 30
0.0
  0
VERTEX
  5
50D
  8
1
  6
CONTINUOUS
 62
     7
 10
747.2931431500504
 20
312.8913417161826
 30
0.0
  0
VERTEX
  5
50E
  8
1
  6
CONTINUOUS
 62
     7
 10
747.2531284808191
 20
312.9777851165098
 30
0.0
  0
VERTEX
  5
50F
  8
1
  6
CONTINUOUS
 62
     7
 10
747.1992777953026
 20
313.0535533905933
 30
0.0
  0
VERTEX
  5
510
  8
1
  6
CONTINUOUS
 62
     7
 10
747.1336605451454
 20
313.1157348061513
 30
0.0
  0
VERTEX
  5
511
  8
1
  6
CONTINUOUS
 62
     7
 10
747.0587983644725
 20
313.1619397662557
 30
0.0
  0
VERTEX
  5
512
  8
1
  6
CONTINUOUS
 62
     7
 10
746.977568164904
 20
313.1903926402017
 30
0.0
  0
VERTEX
  5
513
  8
1
  6
CONTINUOUS
 62
     7
 10
746.8930915774548
 20
313.2
 30
0.0
  0
SEQEND
  5
582
  8
1
  6
CONTINUOUS
 62
     7
  0
LINE
  5
124
  8
1
  6
CONTINUOUS
 62
     7
 10
746.8930915774548
 20
306.8000000000001
 30
0.0
 11
746.3680222448377
 21
306.8000000000001
 31
0.0
  0
LINE
  5
125
  8
1
  6
CONTINUOUS
 62
     7
 10
735.3347017914707
 20
306.8000000000001
 30
0.0
 11
731.304634309335
 21
306.8000000000001
 31
0.0
  0
POLYLINE
  5
126
  8
1
  6
CONTINUOUS
 62
     7
 66
     1
 10
0.0
 20
0.0
 30
0.0
  0
VERTEX
  5
514
  8
1
  6
CONTINUOUS
 62
     7
 10
746.8930915774548
 20
306.8000000000001
 30
0.0
  0
VERTEX
  5
515
  8
1
  6
CONTINUOUS
 62
     7
 10
746.977568164904
 20
306.8096073597985
 30
0.0
  0
VERTEX
  5
516
  8
1
  6
CONTINUOUS
 62
     7
 10
747.0587983644725
 20
306.8380602337444
 30
0.0
  0
VERTEX
  5
517
  8
1
  6
CONTINUOUS
 62
     7
 10
747.1336605451454
 20
306.8842651938488
 30
0.0
  0
VERTEX
  5
518
  8
1
  6
CONTINUOUS
 62
     7
 10
747.1992777953026
 20
306.9464466094068
 30
0.0
  0
VERTEX
  5
519
  8
1
  6
CONTINUOUS
 62
     7
 10
747.2531284808191
 20
307.0222148834903
 30
0.0
  0
VERTEX
  5
51A
  8
1
  6
CONTINUOUS
 62
     7
 10
747.2931431500504
 20
307.1086582838175
 30
0.0
  0
VERTEX
  5
51B
  8
1
  6
CONTINUOUS
 62
     7
 10
747.3177840616983
 20
307.202454838992
 30
0.0
  0
VERTEX
  5
51C
  8
1
  6
CONTINUOUS
 62
     7
 10
747.326104279347
 20
307.3000000000001
 30
0.0
  0
SEQEND
  5
583
  8
1
  6
CONTINUOUS
 62
     7
  0
POLYLINE
  5
127
  8
1
  6
CONTINUOUS
 62
     7
 66
     1
 10
0.0
 20
0.0
 30
0.0
  0
VERTEX
  5
51D
  8
1
  6
CONTINUOUS
 62
     7
 10
730.4386089055505
 20
298.0000000000001
 30
0.0
  0
VERTEX
  5
51E
  8
1
  6
CONTINUOUS
 62
     7
 10
730.5218110820375
 20
297.0245483899194
 30
0.0
  0
VERTEX
  5
51F
  8
1
  6
CONTINUOUS
 62
     7
 10
730.7682201985164
 20
296.0865828381746
 30
0.0
  0
VERTEX
  5
520
  8
1
  6
CONTINUOUS
 62
     7
 10
731.1683668908287
 20
295.222148834902
 30
0.0
  0
VERTEX
  5
521
  8
1
  6
CONTINUOUS
 62
     7
 10
731.7068737459937
 20
294.4644660940673
 30
0.0
  0
VERTEX
  5
522
  8
1
  6
CONTINUOUS
 62
     7
 10
732.3630462475656
 20
293.8426519384873
 30
0.0
  0
VERTEX
  5
523
  8
1
  6
CONTINUOUS
 62
     7
 10
733.1116680542948
 20
293.3806023374436
 30
0.0
  0
VERTEX
  5
524
  8
1
  6
CONTINUOUS
 62
     7
 10
733.9239700499804
 20
293.0960735979839
 30
0.0
  0
VERTEX
  5
525
  8
1
  6
CONTINUOUS
 62
     7
 10
734.7687359244727
 20
293.0000000000001
 30
0.0
  0
SEQEND
  5
584
  8
1
  6
CONTINUOUS
 62
     7
  0
LINE
  5
128
  8
1
  6
CONTINUOUS
 62
     7
 10
730.4386089055506
 20
298.0000000000001
 30
0.0
 11
730.4386089055506
 21
305.8000000000001
 31
0.0
  0
POLYLINE
  5
129
  8
1
  6
CONTINUOUS
 62
     7
 66
     1
 10
0.0
 20
0.0
 30
0.0
  0
VERTEX
  5
526
  8
1
  6
CONTINUOUS
 62
     7
 10
731.3046343093347
 20
306.8000000000001
 30
0.0
  0
VERTEX
  5
527
  8
1
  6
CONTINUOUS
 62
     7
 10
731.1356811344363
 20
306.7807852804032
 30
0.0
  0
VERTEX
  5
528
  8
1
  6
CONTINUOUS
 62
     7
 10
730.9732207352992
 20
306.7238795325113
 30
0.0
  0
VERTEX
  5
529
  8
1
  6
CONTINUOUS
 62
     7
 10
730.8234963739534
 20
306.6314696123025
 30
0.0
  0
VERTEX
  5
52A
  8
1
  6
CONTINUOUS
 62
     7
 10
730.692261873639
 20
306.5071067811864
 30
0.0
  0
VERTEX
  5
52B
  8
1
  6
CONTINUOUS
 62
     7
 10
730.5845605026061
 20
306.3555702330195
 30
0.0
  0
VERTEX
  5
52C
  8
1
  6
CONTINUOUS
 62
     7
 10
730.5045311641437
 20
306.1826834323649
 30
0.0
  0
VERTEX
  5
52D
  8
1
  6
CONTINUOUS
 62
     7
 10
730.4552493408479
 20
305.995090322016
 30
0.0
  0
VERTEX
  5
52E
  8
1
  6
CONTINUOUS
 62
     7
 10
730.4386089055506
 20
305.7999999999998
 30
0.0
  0
SEQEND
  5
585
  8
1
  6
CONTINUOUS
 62
     7
  0
LINE
  5
12A
  8
1
  6
CONTINUOUS
 62
     7
 10
730.4386089055506
 20
322.0000000000001
 30
0.0
 11
730.4386089055506
 21
314.2
 31
0.0
  0
POLYLINE
  5
12B
  8
1
  6
CONTINUOUS
 62
     7
 66
     1
 10
0.0
 20
0.0
 30
0.0
  0
VERTEX
  5
52F
  8
1
  6
CONTINUOUS
 62
     7
 10
734.7687359244727
 20
327.0000000000001
 30
0.0
  0
VERTEX
  5
530
  8
1
  6
CONTINUOUS
 62
     7
 10
733.9239700499804
 20
326.9039264020162
 30
0.0
  0
VERTEX
  5
531
  8
1
  6
CONTINUOUS
 62
     7
 10
733.1116680542948
 20
326.6193976625565
 30
0.0
  0
VERTEX
  5
532
  8
1
  6
CONTINUOUS
 62
     7
 10
732.3630462475656
 20
326.1573480615128
 30
0.0
  0
VERTEX
  5
533
  8
1
  6
CONTINUOUS
 62
     7
 10
731.7068737459937
 20
325.5355339059328
 30
0.0
  0
VERTEX
  5
534
  8
1
  6
CONTINUOUS
 62
     7
 10
731.1683668908287
 20
324.7778511650981
 30
0.0
  0
VERTEX
  5
535
  8
1
  6
CONTINUOUS
 62
     7
 10
730.7682201985164
 20
323.9134171618255
 30
0.0
  0
VERTEX
  5
536
  8
1
  6
CONTINUOUS
 62
     7
 10
730.5218110820375
 20
322.9754516100807
 30
0.0
  0
VERTEX
  5
537
  8
1
  6
CONTINUOUS
 62
     7
 10
730.4386089055505
 20
322.0000000000001
 30
0.0
  0
SEQEND
  5
586
  8
1
  6
CONTINUOUS
 62
     7
  0
LINE
  5
12C
  8
1
  6
CONTINUOUS
 62
     7
 10
746.8930915774548
 20
313.2
 30
0.0
 11
746.3680222448377
 21
313.2
 31
0.0
  0
LINE
  5
12D
  8
1
  6
CONTINUOUS
 62
     7
 10
735.3347017914707
 20
313.2
 30
0.0
 11
731.304634309335
 21
313.2
 31
0.0
  0
POLYLINE
  5
12E
  8
1
  6
CONTINUOUS
 62
     7
 66
     1
 10
0.0
 20
0.0
 30
0.0
  0
VERTEX
  5
538
  8
1
  6
CONTINUOUS
 62
     7
 10
730.4386089055506
 20
314.2000000000003
 30
0.0
  0
VERTEX
  5
539
  8
1
  6
CONTINUOUS
 62
     7
 10
730.4552493408479
 20
314.0049096779841
 30
0.0
  0
VERTEX
  5
53A
  8
1
  6
CONTINUOUS
 62
     7
 10
730.5045311641437
 20
313.8173165676352
 30
0.0
  0
VERTEX
  5
53B
  8
1
  6
CONTINUOUS
 62
     7
 10
730.5845605026061
 20
313.6444297669806
 30
0.0
  0
VERTEX
  5
53C
  8
1
  6
CONTINUOUS
 62
     7
 10
730.692261873639
 20
313.4928932188137
 30
0.0
  0
VERTEX
  5
53D
  8
1
  6
CONTINUOUS
 62
     7
 10
730.8234963739534
 20
313.3685303876977
 30
0.0
  0
VERTEX
  5
53E
  8
1
  6
CONTINUOUS
 62
     7
 10
730.9732207352992
 20
313.2761204674889
 30
0.0
  0
VERTEX
  5
53F
  8
1
  6
CONTINUOUS
 62
     7
 10
731.1356811344363
 20
313.2192147195969
 30
0.0
  0
VERTEX
  5
540
  8
1
  6
CONTINUOUS
 62
     7
 10
731.3046343093347
 20
313.2
 30
0.0
  0
SEQEND
  5
587
  8
1
  6
CONTINUOUS
 62
     7
  0
LINE
  5
12F
  8
1
  6
CONTINUOUS
 62
     7
 10
733.5740527322438
 20
313.2
 30
0.0
 11
733.5740527322438
 21
306.8000000000001
 31
0.0
  0
ARC
  5
130
  8
1
  6
CONTINUOUS
 62
     7
 10
732.0740527322438
 20
324.0000000000001
 30
0.0
 40
3.000000000000003
 50
90.0
 51
180.0
  0
LINE
  5
131
  8
1
  6
CONTINUOUS
 62
     7
 10
729.0740527322438
 20
296.0000000000001
 30
0.0
 11
729.0740527322438
 21
300.0000000000001
 31
0.0
  0
LINE
  5
132
  8
1
  6
CONTINUOUS
 62
     7
 10
729.0740527322438
 20
320.0000000000001
 30
0.0
 11
729.0740527322438
 21
324.0000000000001
 31
0.0
  0
ARC
  5
133
  8
1
  6
CONTINUOUS
 62
     7
 10
732.0740527322438
 20
296.0000000000001
 30
0.0
 40
3.000000000000003
 50
180.0
 51
270.0
  0
LINE
  5
134
  8
1
  6
CONTINUOUS
 62
     7
 10
757.9098568748116
 20
303.0000000000001
 30
0.0
 11
759.1901069537274
 21
303.0000000000001
 31
0.0
  0
LINE
  5
135
  8
1
  6
CONTINUOUS
 62
     7
 10
759.1901069537274
 20
317.0000000000001
 30
0.0
 11
757.9098568748116
 21
317.0000000000001
 31
0.0
  0
LINE
  5
136
  8
1
  6
CONTINUOUS
 62
     7
 10
764.3793128149823
 20
314.7611090819858
 30
0.0
 11
764.2499740831508
 21
315.0000000000001
 31
0.0
  0
LINE
  5
137
  8
1
  6
CONTINUOUS
 62
     7
 10
764.2499740831508
 20
305.0000000000001
 30
0.0
 11
764.3793128149823
 21
305.2388909180144
 31
0.0
  0
LINE
  5
138
  8
1
  6
CONTINUOUS
 62
     7
 10
740.7263620181541
 20
303.0000000000001
 30
0.0
 11
740.9763620181542
 21
303.0000000000001
 31
0.0
  0
LINE
  5
139
  8
1
  6
CONTINUOUS
 62
     7
 10
740.9763620181542
 20
317.0000000000001
 30
0.0
 11
740.7263620181541
 21
317.0000000000001
 31
0.0
  0
LINE
  5
13A
  8
1
  6
CONTINUOUS
 62
     7
 10
747.3261042793471
 20
307.4
 30
0.0
 11
746.6048609299423
 21
307.4
 31
0.0
  0
LINE
  5
13B
  8
1
  6
CONTINUOUS
 62
     7
 10
746.6048609299423
 20
312.6
 30
0.0
 11
747.3261042793471
 21
312.6
 31
0.0
  0
LINE
  5
13C
  8
1
  6
CONTINUOUS
 62
     7
 10
785.8945460292374
 20
313.0000000000001
 30
0.0
 11
764.8087384294563
 21
313.0000000000001
 31
0.0
  0
LINE
  5
13D
  8
1
  6
CONTINUOUS
 62
     7
 10
764.8087384294563
 20
307.0000000000001
 30
0.0
 11
785.8945460292374
 21
307.0000000000001
 31
0.0
  0
LINE
  5
13E
  8
1
  6
CONTINUOUS
 62
     7
 10
756.6261042793469
 20
293.0000000000001
 30
0.0
 11
756.6261042793469
 21
327.0000000000001
 31
0.0
  0
LINE
  5
13F
  8
1
  6
CONTINUOUS
 62
     7
 10
756.6263177617747
 20
319.6631663845679
 30
0.0
 11
756.7490884040664
 21
321.0000000000001
 31
0.0
  0
LINE
  5
140
  8
1
  6
CONTINUOUS
 62
     7
 10
756.7490884040664
 20
321.0000000000001
 30
0.0
 11
756.6262287268025
 21
322.3372010392093
 31
0.0
  0
LINE
  5
141
  8
1
  6
CONTINUOUS
 62
     7
 10
756.6263177617747
 20
297.6631663845679
 30
0.0
 11
756.7490884040664
 21
299.0000000000001
 31
0.0
  0
LINE
  5
142
  8
1
  6
CONTINUOUS
 62
     7
 10
756.7490884040664
 20
299.0000000000001
 30
0.0
 11
756.6262287268025
 21
300.3372010392093
 31
0.0
  0
ENDBLK
  8
0
  0
BLOCK
  8
0
  2
D_FRAME_VIEW_1474
 70
     0
 10
0.0
 20
0.0
 30
0.0
  0
LINE
  5
18E
  8
1
  6
CONTINUOUS
 62
     7
 10
725.3794600215764
 20
230.8082960901238
 30
0.0
 11
725.3794600215764
 21
231.2082960901238
 31
0.0
  0
LINE
  5
18F
  8
1
  6
CONTINUOUS
 62
     7
 10
555.3794600215759
 20
230.8082960901238
 30
0.0
 11
555.3794600215759
 21
231.2082960901238
 31
0.0
  0
LINE
  5
190
  8
1
  6
CONTINUOUS
 62
     7
 10
727.4862012763236
 20
229.5832757606033
 30
0.0
 11
725.2613000223456
 21
229.9755858810912
 31
0.0
  0
ARC
  5
191
  8
1
  6
CONTINUOUS
 62
     7
 10
730.6292332920945
 20
247.4082960901238
 30
0.0
 40
18.10000000000009
 50
260.0000000000016
 51
269.9999999999998
  0
ARC
  5
192
  8
1
  6
CONTINUOUS
 62
     7
 10
721.4584049314399
 20
208.4082960901239
 30
0.0
 40
21.89999999999999
 50
80.00000000000004
 51
89.99999999999973
  0
ARC
  5
193
  8
1
  6
CONTINUOUS
 62
     7
 10
684.9584049314399
 20
209.4082960901239
 30
0.0
 40
21.89999999999997
 50
79.99999999999997
 51
90.00000000000001
  0
ARC
  5
194
  8
1
  6
CONTINUOUS
 62
     7
 10
694.1292332920946
 20
248.4082960901238
 30
0.0
 40
18.1
 50
260.0000000000003
 51
270.0
  0
LINE
  5
195
  8
1
  6
CONTINUOUS
 62
     7
 10
690.9862012763232
 20
230.583275760603
 30
0.0
 11
688.7613000223456
 21
230.9755858810912
 31
0.0
  0
LINE
  5
196
  8
1
  6
CONTINUOUS
 62
     7
 10
721.45840493144
 20
230.3082960901239
 30
0.0
 11
694.1292332920946
 21
230.3082960901238
 31
0.0
  0
LINE
  5
197
  8
1
  6
CONTINUOUS
 62
     7
 10
733.8794600215766
 20
229.3082960901242
 30
0.0
 11
730.6292332920945
 21
229.3082960901237
 31
0.0
  0
ARC
  5
198
  8
1
  6
CONTINUOUS
 62
     7
 10
550.1296867510575
 20
247.4082960901238
 30
0.0
 40
18.10000000000009
 50
270.0000000000002
 51
279.9999999999986
  0
ARC
  5
199
  8
1
  6
CONTINUOUS
 62
     7
 10
559.3005151117123
 20
208.4082960901239
 30
0.0
 40
21.89999999999999
 50
90.00000000000034
 51
99.99999999999994
  0
LINE
  5
19A
  8
1
  6
CONTINUOUS
 62
     7
 10
553.2727187668285
 20
229.5832757606033
 30
0.0
 11
555.4976200208065
 21
229.9755858810912
 31
0.0
  0
ARC
  5
19B
  8
1
  6
CONTINUOUS
 62
     7
 10
595.8005151117122
 20
209.4082960901239
 30
0.0
 40
21.89999999999999
 50
90.0
 51
100.0
  0
LINE
  5
19C
  8
1
  6
CONTINUOUS
 62
     7
 10
589.7727187668289
 20
230.583275760603
 30
0.0
 11
591.9976200208065
 21
230.9755858810912
 31
0.0
  0
ARC
  5
19D
  8
1
  6
CONTINUOUS
 62
     7
 10
586.6296867510576
 20
248.4082960901238
 30
0.0
 40
18.1
 50
270.0
 51
279.9999999999998
  0
LINE
  5
19E
  8
1
  6
CONTINUOUS
 62
     7
 10
559.3005151117121
 20
230.3082960901239
 30
0.0
 11
586.6296867510576
 21
230.3082960901238
 31
0.0
  0
LINE
  5
19F
  8
1
  6
CONTINUOUS
 62
     7
 10
546.8794600215755
 20
229.3082960901242
 30
0.0
 11
550.1296867510576
 21
229.3082960901237
 31
0.0
  0
LINE
  5
1A0
  8
1
  6
CONTINUOUS
 62
     7
 10
697.879460021576
 20
232.1082960901238
 30
0.0
 11
704.879460021576
 21
232.1082960901238
 31
0.0
  0
LINE
  5
1A1
  8
1
  6
CONTINUOUS
 62
     7
 10
712.879460021576
 20
232.1082960901238
 30
0.0
 11
719.879460021576
 21
232.1082960901238
 31
0.0
  0
LINE
  5
1A2
  8
1
  6
CONTINUOUS
 62
     7
 10
692.379460021576
 20
230.4082960901238
 30
0.0
 11
692.379460021576
 21
230.8082960901238
 31
0.0
  0
LINE
  5
1A3
  8
1
  6
CONTINUOUS
 62
     7
 10
692.379460021576
 20
231.6082960901238
 30
0.0
 11
692.379460021576
 21
231.2082960901238
 31
0.0
  0
ARC
  5
1A4
  8
1
  6
CONTINUOUS
 62
     7
 10
728.879460021576
 20
232.3082960901238
 30
0.0
 40
1.400000000000012
 50
90.0
 51
135.572995999194
  0
LINE
  5
1A5
  8
1
  6
CONTINUOUS
 62
     7
 10
732.379460021576
 20
233.7082960901238
 30
0.0
 11
728.879460021576
 21
233.7082960901238
 31
0.0
  0
ARC
  5
1A6
  8
1
  6
CONTINUOUS
 62
     7
 10
732.379460021576
 20
229.7082960901238
 30
0.0
 40
1.400000000000068
 50
343.3984504009966
 51
0.0
  0
LINE
  5
1A7
  8
1
  6
CONTINUOUS
 62
     7
 10
728.879460021576
 20
233.3082960901238
 30
0.0
 11
732.379460021576
 21
233.3082960901238
 31
0.0
  0
ARC
  5
1A8
  8
1
  6
CONTINUOUS
 62
     7
 10
723.8804601215961
 20
224.8082960901238
 30
0.0
 40
5.599999999999991
 50
62.08797745975804
 51
90.0
  0
ARC
  5
1A9
  8
1
  6
CONTINUOUS
 62
     7
 10
723.8804601215961
 20
237.2082960901238
 30
0.0
 40
5.599999999999998
 50
270.0
 51
315.5729959991943
  0
ARC
  5
1AA
  8
1
  6
CONTINUOUS
 62
     7
 10
723.8804601215961
 20
224.8082960901238
 30
0.0
 40
6.000000000000005
 50
52.63552651263824
 51
90.0
  0
ARC
  5
1AB
  8
1
  6
CONTINUOUS
 62
     7
 10
732.379460021576
 20
232.3082960901238
 30
0.0
 40
1.000000000000001
 50
47.66595073467431
 51
90.0
  0
ARC
  5
1AC
  8
1
  6
CONTINUOUS
 62
     7
 10
732.379460021576
 20
232.3082960901238
 30
0.0
 40
1.40000000000005
 50
31.8719167216169
 51
90.00000000000001
  0
LINE
  5
1AD
  8
1
  6
CONTINUOUS
 62
     7
 10
733.7794600215761
 20
229.7082960901238
 30
0.0
 11
733.7794600215761
 21
229.8475271021726
 31
0.0
  0
LINE
  5
1AE
  8
1
  6
CONTINUOUS
 62
     7
 10
733.379460021576
 20
229.8475271021726
 30
0.0
 11
733.379460021576
 21
229.7082960901238
 31
0.0
  0
ARC
  5
1AF
  8
1
  6
CONTINUOUS
 62
     7
 10
728.879460021576
 20
232.3082960901238
 30
0.0
 40
1.000000000000006
 50
90.0
 51
135.5729959991953
  0
ARC
  5
1B0
  8
1
  6
CONTINUOUS
 62
     7
 10
732.379460021576
 20
229.7082960901238
 30
0.0
 40
1.000000000000044
 50
336.4218215218226
 51
0.0
  0
ARC
  5
1B1
  8
1
  6
CONTINUOUS
 62
     7
 10
723.8804601215961
 20
237.2082960901238
 30
0.0
 40
6.000000000000005
 50
270.0
 51
315.5729959991941
  0
LINE
  5
1B2
  8
1
  6
CONTINUOUS
 62
     7
 10
582.879460021576
 20
232.1082960901238
 30
0.0
 11
575.879460021576
 21
232.1082960901238
 31
0.0
  0
LINE
  5
1B3
  8
1
  6
CONTINUOUS
 62
     7
 10
567.879460021576
 20
232.1082960901238
 30
0.0
 11
560.879460021576
 21
232.1082960901238
 31
0.0
  0
LINE
  5
1B4
  8
1
  6
CONTINUOUS
 62
     7
 10
588.379460021576
 20
231.6082960901238
 30
0.0
 11
588.379460021576
 21
231.2082960901238
 31
0.0
  0
ARC
  5
1B5
  8
1
  6
CONTINUOUS
 62
     7
 10
556.878459921556
 20
237.2082960901238
 30
0.0
 40
6.000000000000005
 50
224.4270040008057
 51
270.0
  0
ARC
  5
1B6
  8
1
  6
CONTINUOUS
 62
     7
 10
551.879460021576
 20
232.3082960901238
 30
0.0
 40
1.000000000000026
 50
44.42700400080587
 51
90.00000000000001
  0
LINE
  5
1B7
  8
1
  6
CONTINUOUS
 62
     7
 10
551.879460021576
 20
233.3082960901238
 30
0.0
 11
548.379460021576
 21
233.3082960901238
 31
0.0
  0
ARC
  5
1B8
  8
1
  6
CONTINUOUS
 62
     7
 10
548.379460021576
 20
232.3082960901238
 30
0.0
 40
1.000000000000001
 50
90.0
 51
132.3340492653249
  0
LINE
  5
1B9
  8
1
  6
CONTINUOUS
 62
     7
 10
547.3794600215759
 20
229.8475271021727
 30
0.0
 11
547.3794600215759
 21
229.7082960901238
 31
0.0
  0
ARC
  5
1BA
  8
1
  6
CONTINUOUS
 62
     7
 10
548.379460021576
 20
229.7082960901238
 30
0.0
 40
1.000000000000044
 50
180.0
 51
203.5781784781777
  0
ARC
  5
1BB
  8
1
  6
CONTINUOUS
 62
     7
 10
556.878459921556
 20
224.8082960901238
 30
0.0
 40
5.599999999999991
 50
90.0
 51
117.9120225402422
  0
LINE
  5
1BC
  8
1
  6
CONTINUOUS
 62
     7
 10
546.9794600215761
 20
229.7082960901238
 30
0.0
 11
546.9794600215761
 21
229.8475271021727
 31
0.0
  0
ARC
  5
1BD
  8
1
  6
CONTINUOUS
 62
     7
 10
548.379460021576
 20
232.3082960901238
 30
0.0
 40
1.40000000000005
 50
90.0
 51
148.1280832783822
  0
ARC
  5
1BE
  8
1
  6
CONTINUOUS
 62
     7
 10
556.878459921556
 20
237.2082960901238
 30
0.0
 40
5.599999999999998
 50
224.4270040008057
 51
270.0
  0
LINE
  5
1BF
  8
1
  6
CONTINUOUS
 62
     7
 10
548.379460021576
 20
233.7082960901238
 30
0.0
 11
551.879460021576
 21
233.7082960901238
 31
0.0
  0
ARC
  5
1C0
  8
1
  6
CONTINUOUS
 62
     7
 10
551.879460021576
 20
232.3082960901238
 30
0.0
 40
1.400000000000012
 50
44.42700400080599
 51
90.0
  0
ARC
  5
1C1
  8
1
  6
CONTINUOUS
 62
     7
 10
556.878459921556
 20
224.8082960901238
 30
0.0
 40
6.000000000000005
 50
90.0
 51
127.3644734872805
  0
ARC
  5
1C2
  8
1
  6
CONTINUOUS
 62
     7
 10
548.379460021576
 20
229.7082960901238
 30
0.0
 40
1.400000000000068
 50
180.0
 51
196.6015495990034
  0
LINE
  5
1C3
  8
1
  6
CONTINUOUS
 62
     7
 10
588.379460021576
 20
230.4082960901238
 30
0.0
 11
588.379460021576
 21
230.8082960901238
 31
0.0
  0
LINE
  5
1C4
  8
1
  6
CONTINUOUS
 62
     7
 10
764.6769065364589
 20
253.9710862475042
 30
0.0
 11
760.1926651749303
 21
254.7617789875505
 31
0.0
  0
ARC
  5
1C5
  8
1
  6
CONTINUOUS
 62
     7
 10
762.1110000101663
 20
252.8858624820199
 30
0.0
 40
2.785962476926599
 50
351.4588154626409
 51
22.92543200540109
  0
ARC
  5
1C6
  8
1
  6
CONTINUOUS
 62
     7
 10
762.0415527739851
 20
253.0738936283215
 30
0.0
 40
2.887911492575323
 50
317.6435929533586
 51
347.972159578597
  0
LINE
  5
1C7
  8
1
  6
CONTINUOUS
 62
     7
 10
764.1756274258574
 20
251.1281911409961
 30
0.0
 11
759.691386064329
 21
251.9188838810424
 31
0.0
  0
ARC
  5
1C8
  8
1
  6
CONTINUOUS
 62
     7
 10
760.6071626783616
 20
244.3571771624954
 30
0.0
 40
2.785962476926823
 50
351.4588154626409
 51
22.92543200539984
  0
ARC
  5
1C9
  8
1
  6
CONTINUOUS
 62
     7
 10
753.8761420755613
 20
250.1490451118179
 30
0.0
 40
10.42042962247372
 50
333.1488196457549
 51
349.2632265802515
  0
ARC
  5
1CA
  8
1
  6
CONTINUOUS
 62
     7
 10
754.1574412819157
 20
249.8782270437528
 30
0.0
 40
10.09586370049954
 50
350.4759411721641
 51
7.112012601830713
  0
LINE
  5
1CB
  8
1
  6
CONTINUOUS
 62
     7
 10
763.1730692046546
 20
245.4424009279798
 30
0.0
 11
758.6888278431261
 21
246.2330936680261
 31
0.0
  0
ARC
  5
1CC
  8
1
  6
CONTINUOUS
 62
     7
 10
760.5377154421809
 20
244.545208308797
 30
0.0
 40
2.887911492575065
 50
317.6435929533577
 51
347.9721595785983
  0
LINE
  5
1CD
  8
1
  6
CONTINUOUS
 62
     7
 10
762.671790094053
 20
242.5995058214716
 30
0.0
 11
758.1875487325245
 21
243.3901985615179
 31
0.0
  0
LINE
  5
1CE
  8
1
  6
CONTINUOUS
 62
     7
 10
734.6641841916631
 20
256.7979216925254
 30
0.0
 11
746.7885398446452
 21
263.7979216925254
 31
0.0
  0
LINE
  5
1CF
  8
1
  6
CONTINUOUS
 62
     7
 10
734.9141841916631
 20
256.3649089906331
 30
0.0
 11
747.0385398446452
 21
263.3649089906331
 31
0.0
  0
LINE
  5
1D0
  8
1
  6
CONTINUOUS
 62
     7
 10
786.4154905622382
 20
247.4227624736466
 30
0.0
 11
785.3736014962367
 21
241.5139159555734
 31
0.0
  0
LINE
  5
1D1
  8
1
  6
CONTINUOUS
 62
     7
 10
738.4518429653159
 20
258.2375042548246
 30
0.0
 11
738.3782858068008
 21
258.3649089906331
 31
0.0
  0
LINE
  5
1D2
  8
1
  6
CONTINUOUS
 62
     7
 10
743.5744382295076
 20
261.3649089906331
 30
0.0
 11
743.6479953880227
 21
261.2375042548247
 31
0.0
  0
ARC
  5
1D3
  8
1
  6
CONTINUOUS
 62
     7
 10
531.6848673109083
 20
233.0475271021727
 30
0.0
 40
3.199999999999989
 50
189.9999999999998
 51
269.9999999999999
  0
LINE
  5
1D4
  8
1
  6
CONTINUOUS
 62
     7
 10
523.5845094377618
 20
260.5588738944864
 30
0.0
 11
526.7358942474009
 21
261.1145480630206
 31
0.0
  0
LINE
  5
1D5
  8
1
  6
CONTINUOUS
 62
     7
 10
551.6848673109083
 20
233.0475271021727
 30
0.0
 11
551.6848673109083
 21
229.8475271021727
 31
0.0
  0
LINE
  5
1D6
  8
1
  6
CONTINUOUS
 62
     7
 10
732.0386089055505
 20
250.8397801212295
 30
0.0
 11
730.4386089055506
 21
253.6110614133398
 31
0.0
  0
LINE
  5
1D7
  8
1
  6
CONTINUOUS
 62
     7
 10
753.3805275383837
 20
257.4707593768754
 30
0.0
 11
749.0740527322438
 21
233.0475271021727
 31
0.0
  0
ARC
  5
1D8
  8
1
  6
CONTINUOUS
 62
     7
 10
750.426104279347
 20
257.9917039098763
 30
0.0
 40
2.999999999999984
 50
350.0000000000011
 51
119.999999999999
  0
ARC
  5
1D9
  8
1
  6
CONTINUOUS
 62
     7
 10
750.426104279347
 20
257.9917039098763
 30
0.0
 40
6.200000000000086
 50
350.0000000000001
 51
119.9999999999994
  0
LINE
  5
1DA
  8
1
  6
CONTINUOUS
 62
     7
 10
752.2254375418828
 20
232.4918529336385
 30
0.0
 11
756.5319123480227
 21
256.9150852083413
 31
0.0
  0
ARC
  5
1DB
  8
1
  6
CONTINUOUS
 62
     7
 10
749.0740527322438
 20
233.0475271021727
 30
0.0
 40
3.200000000000008
 50
270.0
 51
349.9999999999999
  0
LINE
  5
1DC
  8
1
  6
CONTINUOUS
 62
     7
 10
729.0740527322438
 20
229.8475271021727
 30
0.0
 11
729.0740527322438
 21
233.0475271021727
 31
0.0
  0
LINE
  5
1DD
  8
1
  6
CONTINUOUS
 62
     7
 10
756.7414922805724
 20
249.4655163448517
 30
0.0
 11
756.2205477475716
 21
246.5110930858151
 31
0.0
  0
LINE
  5
1DE
  8
1
  6
CONTINUOUS
 62
     7
 10
724.6535314005121
 20
226.5287587455488
 30
0.0
 11
726.878432654489
 21
226.1364486250606
 31
0.0
  0
ARC
  5
1DF
  8
1
  6
CONTINUOUS
 62
     7
 10
730.6292332920945
 20
247.4082960901238
 30
0.0
 40
21.60000000000008
 50
260.0000000000013
 51
269.9999999999999
  0
LINE
  5
1E0
  8
1
  6
CONTINUOUS
 62
     7
 10
730.6292332920951
 20
225.8082960901242
 30
0.0
 11
733.8794600215766
 21
225.8082960901242
 31
0.0
  0
ARC
  5
1E1
  8
1
  6
CONTINUOUS
 62
     7
 10
721.4584049314399
 20
208.4082960901239
 30
0.0
 40
18.39999999999997
 50
80.00000000000004
 51
89.99999999999962
  0
LINE
  5
1E2
  8
1
  6
CONTINUOUS
 62
     7
 10
694.1292332920947
 20
226.8082960901239
 30
0.0
 11
721.4584049314399
 21
226.8082960901239
 31
0.0
  0
ARC
  5
1E3
  8
1
  6
CONTINUOUS
 62
     7
 10
694.1292332920946
 20
248.4082960901238
 30
0.0
 40
21.6
 50
260.0000000000003
 51
270.0000000000001
  0
LINE
  5
1E4
  8
1
  6
CONTINUOUS
 62
     7
 10
688.1535314005115
 20
227.5287587455486
 30
0.0
 11
690.3784326544888
 21
227.1364486250603
 31
0.0
  0
ARC
  5
1E5
  8
1
  6
CONTINUOUS
 62
     7
 10
684.9584049314399
 20
209.4082960901239
 30
0.0
 40
18.39999999999997
 50
80.00000000000004
 51
90.0
  0
LINE
  5
1E6
  8
1
  6
CONTINUOUS
 62
     7
 10
553.8804873886633
 20
226.1364486250606
 30
0.0
 11
556.1053886426402
 21
226.5287587455488
 31
0.0
  0
ARC
  5
1E7
  8
1
  6
CONTINUOUS
 62
     7
 10
550.1296867510575
 20
247.4082960901238
 30
0.0
 40
21.60000000000006
 50
270.0000000000001
 51
279.9999999999987
  0
LINE
  5
1E8
  8
1
  6
CONTINUOUS
 62
     7
 10
546.8794600215754
 20
225.8082960901242
 30
0.0
 11
550.1296867510569
 21
225.8082960901242
 31
0.0
  0
LINE
  5
1E9
  8
1
  6
CONTINUOUS
 62
     7
 10
559.3005151117123
 20
226.8082960901239
 30
0.0
 11
586.6296867510574
 21
226.8082960901239
 31
0.0
  0
ARC
  5
1EA
  8
1
  6
CONTINUOUS
 62
     7
 10
559.3005151117123
 20
208.4082960901239
 30
0.0
 40
18.39999999999999
 50
90.0000000000004
 51
100.0000000000001
  0
ARC
  5
1EB
  8
1
  6
CONTINUOUS
 62
     7
 10
586.6296867510576
 20
248.4082960901238
 30
0.0
 40
21.60000000000001
 50
270.0
 51
279.9999999999997
  0
LINE
  5
1EC
  8
1
  6
CONTINUOUS
 62
     7
 10
590.3804873886634
 20
227.1364486250603
 30
0.0
 11
592.6053886426406
 21
227.5287587455486
 31
0.0
  0
ARC
  5
1ED
  8
1
  6
CONTINUOUS
 62
     7
 10
595.8005151117122
 20
209.4082960901239
 30
0.0
 40
18.39999999999997
 50
90.0
 51
100.0
  0
ARC
  5
1EE
  8
1
  6
CONTINUOUS
 62
     7
 10
701.379460021576
 20
228.7749627567904
 30
0.0
 40
4.833333333333409
 50
43.60281897270405
 51
136.3971810272959
  0
LINE
  5
1EF
  8
1
  6
CONTINUOUS
 62
     7
 10
704.879460021576
 20
231.6082960901238
 30
0.0
 11
704.879460021576
 21
232.1082960901238
 31
0.0
  0
LINE
  5
1F0
  8
1
  6
CONTINUOUS
 62
     7
 10
697.879460021576
 20
232.1082960901238
 30
0.0
 11
697.879460021576
 21
231.6082960901238
 31
0.0
  0
LINE
  5
1F1
  8
1
  6
CONTINUOUS
 62
     7
 10
704.379460021576
 20
230.3082960901239
 30
0.0
 11
704.379460021576
 21
230.4082960901238
 31
0.0
  0
LINE
  5
1F2
  8
1
  6
CONTINUOUS
 62
     7
 10
698.379460021576
 20
230.4082960901238
 30
0.0
 11
698.379460021576
 21
230.3082960901239
 31
0.0
  0
ARC
  5
1F3
  8
1
  6
CONTINUOUS
 62
     7
 10
716.379460021576
 20
228.7749627567904
 30
0.0
 40
4.833333333333409
 50
43.60281897270405
 51
136.3971810272959
  0
LINE
  5
1F4
  8
1
  6
CONTINUOUS
 62
     7
 10
719.879460021576
 20
231.6082960901238
 30
0.0
 11
719.879460021576
 21
232.1082960901238
 31
0.0
  0
LINE
  5
1F5
  8
1
  6
CONTINUOUS
 62
     7
 10
712.879460021576
 20
232.1082960901238
 30
0.0
 11
712.879460021576
 21
231.6082960901238
 31
0.0
  0
LINE
  5
1F6
  8
1
  6
CONTINUOUS
 62
     7
 10
719.379460021576
 20
230.3082960901238
 30
0.0
 11
719.379460021576
 21
230.4082960901238
 31
0.0
  0
LINE
  5
1F7
  8
1
  6
CONTINUOUS
 62
     7
 10
713.379460021576
 20
230.4082960901238
 30
0.0
 11
713.379460021576
 21
230.3082960901238
 31
0.0
  0
ARC
  5
1F8
  8
1
  6
CONTINUOUS
 62
     7
 10
579.379460021576
 20
228.7749627567904
 30
0.0
 40
4.833333333333409
 50
43.60281897270414
 51
136.3971810272959
  0
LINE
  5
1F9
  8
1
  6
CONTINUOUS
 62
     7
 10
582.879460021576
 20
231.6082960901238
 30
0.0
 11
582.879460021576
 21
232.1082960901238
 31
0.0
  0
LINE
  5
1FA
  8
1
  6
CONTINUOUS
 62
     7
 10
575.879460021576
 20
232.1082960901238
 30
0.0
 11
575.879460021576
 21
231.6082960901238
 31
0.0
  0
LINE
  5
1FB
  8
1
  6
CONTINUOUS
 62
     7
 10
582.379460021576
 20
230.3082960901239
 30
0.0
 11
582.379460021576
 21
230.4082960901238
 31
0.0
  0
LINE
  5
1FC
  8
1
  6
CONTINUOUS
 62
     7
 10
576.379460021576
 20
230.4082960901238
 30
0.0
 11
576.379460021576
 21
230.3082960901239
 31
0.0
  0
ARC
  5
1FD
  8
1
  6
CONTINUOUS
 62
     7
 10
564.3794600215762
 20
228.7749627567904
 30
0.0
 40
4.833333333333329
 50
43.60281897270401
 51
136.397181027296
  0
LINE
  5
1FE
  8
1
  6
CONTINUOUS
 62
     7
 10
567.879460021576
 20
231.6082960901238
 30
0.0
 11
567.879460021576
 21
232.1082960901238
 31
0.0
  0
LINE
  5
1FF
  8
1
  6
CONTINUOUS
 62
     7
 10
560.879460021576
 20
232.1082960901238
 30
0.0
 11
560.879460021576
 21
231.6082960901238
 31
0.0
  0
LINE
  5
200
  8
1
  6
CONTINUOUS
 62
     7
 10
567.379460021576
 20
230.3082960901238
 30
0.0
 11
567.379460021576
 21
230.4082960901238
 31
0.0
  0
LINE
  5
201
  8
1
  6
CONTINUOUS
 62
     7
 10
561.379460021576
 20
230.4082960901238
 30
0.0
 11
561.379460021576
 21
230.3082960901238
 31
0.0
  0
LINE
  5
202
  8
1
  6
CONTINUOUS
 62
     7
 10
756.6943196311431
 20
242.4080771344158
 30
0.0
 11
757.974569710059
 21
242.1823345034488
 31
0.0
  0
LINE
  5
203
  8
1
  6
CONTINUOUS
 62
     7
 10
760.405644197396
 20
255.9696430456197
 30
0.0
 11
759.1253941184801
 21
256.1953856765867
 31
0.0
  0
LINE
  5
204
  8
1
  6
CONTINUOUS
 62
     7
 10
762.671790094053
 20
242.5995058214716
 30
0.0
 11
763.2459048304539
 21
243.2837091211386
 31
0.0
  0
LINE
  5
205
  8
1
  6
CONTINUOUS
 62
     7
 10
764.9823866071232
 20
253.1317866512605
 30
0.0
 11
764.6769065364589
 21
253.9710862475042
 31
0.0
  0
ARC
  5
206
  8
1
  6
CONTINUOUS
 62
     7
 10
745.0013620181542
 20
252.8934044901683
 30
0.0
 40
11.05000000000005
 50
80.69235188389395
 51
159.3076481161059
  0
LINE
  5
207
  8
1
  6
CONTINUOUS
 62
     7
 10
734.6641841916631
 20
256.7979216925254
 30
0.0
 11
734.9141841916631
 21
256.3649089906331
 31
0.0
  0
LINE
  5
208
  8
1
  6
CONTINUOUS
 62
     7
 10
747.0385398446452
 20
263.3649089906331
 30
0.0
 11
746.7885398446452
 21
263.7979216925254
 31
0.0
  0
LINE
  5
209
  8
1
  6
CONTINUOUS
 62
     7
 10
786.4154905622382
 20
247.4227624736466
 30
0.0
 11
764.6523731373627
 21
251.2601872599789
 31
0.0
  0
LINE
  5
20A
  8
1
  6
CONTINUOUS
 62
     7
 10
758.4480842933858
 20
252.3541707792807
 30
0.0
 11
755.8097296987353
 21
252.8193838789937
 31
0.0
  0
LINE
  5
20B
  8
1
  6
CONTINUOUS
 62
     7
 10
756.2450522622519
 20
246.6500650944201
 30
0.0
 11
757.4061952273843
 21
246.4453242612074
 31
0.0
  0
LINE
  5
20C
  8
1
  6
CONTINUOUS
 62
     7
 10
763.6104840713612
 20
245.3513407419057
 30
0.0
 11
785.3736014962367
 21
241.5139159555734
 31
0.0
  0
LINE
  5
20D
  8
1
  6
CONTINUOUS
 62
     7
 10
747.9021892224782
 20
248.5273075894419
 30
0.0
 11
751.6859150941614
 21
247.8601346306595
 31
0.0
  0
LINE
  5
20E
  8
1
  6
CONTINUOUS
 62
     7
 10
752.5888856180295
 20
252.981134946323
 30
0.0
 11
748.8051597463461
 21
253.6483079051054
 31
0.0
  0
ARC
  5
20F
  8
1
  6
CONTINUOUS
 62
     7
 10
749.326104279347
 20
256.602731164142
 30
0.0
 40
2.999999999999983
 50
210.0
 51
259.9999999999995
  0
ARC
  5
210
  8
1
  6
CONTINUOUS
 62
     7
 10
749.326104279347
 20
256.602731164142
 30
0.0
 40
8.199999999999921
 50
209.9999999999998
 51
259.9999999999995
  0
LINE
  5
211
  8
1
  6
CONTINUOUS
 62
     7
 10
740.3982531268297
 20
255.6662229627145
 30
0.0
 11
742.2246959683147
 21
252.5027311641421
 31
0.0
  0
LINE
  5
212
  8
1
  6
CONTINUOUS
 62
     7
 10
746.7280280679937
 20
255.1027311641421
 30
0.0
 11
744.9015852265088
 21
258.2662229627144
 31
0.0
  0
ARC
  5
213
  8
1
  6
CONTINUOUS
 62
     7
 10
756.2490884040665
 20
249.5523404336852
 30
0.0
 40
0.4999999999999591
 50
349.9999999999998
 51
80.00000000000136
  0
ARC
  5
214
  8
1
  6
CONTINUOUS
 62
     7
 10
755.7281438710655
 20
246.5979171746486
 30
0.0
 40
0.5000000000000089
 50
260.0000000000014
 51
349.9999999999998
  0
LINE
  5
215
  8
1
  6
CONTINUOUS
 62
     7
 10
756.3359124928999
 20
250.0447443101913
 30
0.0
 11
755.3511047398877
 21
250.2183924878583
 31
0.0
  0
LINE
  5
216
  8
1
  6
CONTINUOUS
 62
     7
 10
754.6565120292199
 20
246.2791614758094
 30
0.0
 11
755.6413197822321
 21
246.1055132981425
 31
0.0
  0
LINE
  5
217
  8
1
  6
CONTINUOUS
 62
     7
 10
749.8199012517717
 20
260.9297674640308
 30
0.0
 11
753.394314566962
 21
258.4269363160576
 31
0.0
  0
ENDBLK
  8
0
  0
BLOCK
  8
0
  2
D_FRAME_VIEW_1935
 70
     0
 10
0.0
 20
0.0
 30
0.0
  0
LINE
  5
21C
  8
1
  6
CONTINUOUS
 62
     7
 10
740.2640549908647
 20
111.234815098097
 30
0.0
 11
740.3509815844144
 21
111.3118024299312
 31
0.0
  0
LINE
  5
21D
  8
1
  6
CONTINUOUS
 62
     7
 10
740.3509815844144
 20
111.3118024299312
 30
0.0
 11
740.2287822735328
 21
112.4142744437042
 31
0.0
  0
ARC
  5
21E
  8
1
  6
CONTINUOUS
 62
     7
 10
704.7096069059352
 20
107.9190725407347
 30
0.0
 40
35.80249514967659
 50
7.212839106981932
 51
14.82266471413921
  0
LINE
  5
21F
  8
1
  6
CONTINUOUS
 62
     7
 10
732.8900995732301
 20
129.7527110064473
 30
0.0
 11
729.7786460085463
 21
136.7905336490792
 31
0.0
  0
ARC
  5
220
  8
1
  6
CONTINUOUS
 62
     7
 10
725.2056257623595
 20
134.7687804920477
 30
0.0
 40
5.000000000000027
 50
23.85044076494616
 51
79.9999999999998
  0
LINE
  5
221
  8
1
  6
CONTINUOUS
 62
     7
 10
726.0738666506943
 20
139.6928192571087
 30
0.0
 11
722.8393867320883
 21
140.2631453353186
 31
0.0
  0
ARC
  5
222
  8
1
  6
CONTINUOUS
 62
     7
 10
722.9088460031551
 20
140.6570684365235
 30
0.0
 40
0.4000000000000033
 50
169.9999999999998
 51
260.0000000000044
  0
ARC
  5
223
  8
1
  6
CONTINUOUS
 62
     7
 10
723.4645201716893
 20
143.8084532461626
 30
0.0
 40
0.4000000000000178
 50
79.99999999999977
 51
169.9999999999978
  0
LINE
  5
224
  8
1
  6
CONTINUOUS
 62
     7
 10
723.533979442756
 20
144.2023763473674
 30
0.0
 11
727.965614331311
 21
143.4209595478663
 31
0.0
  0
ARC
  5
225
  8
1
  6
CONTINUOUS
 62
     7
 10
727.8961550602443
 20
143.0270364466614
 30
0.0
 40
0.4000000000000033
 50
23.85044076494603
 51
79.99999999999807
  0
LINE
  5
226
  8
1
  6
CONTINUOUS
 62
     7
 10
728.2619966799392
 20
143.1887766992239
 30
0.0
 11
737.4548864385391
 21
122.3953030544177
 31
0.0
  0
ARC
  5
227
  8
1
  6
CONTINUOUS
 62
     7
 10
725.2056257623595
 20
134.7687804920477
 30
0.0
 40
5.399999999999978
 50
23.85044076494603
 51
79.99999999999977
  0
ARC
  5
228
  8
1
  6
CONTINUOUS
 62
     7
 10
704.7120614758428
 20
107.9195504500716
 30
0.0
 40
35.8
 50
14.82293029540142
 51
23.85044076494603
  0
LINE
  5
229
  8
1
  6
CONTINUOUS
 62
     7
 10
669.7359450091354
 20
111.234815098097
 30
0.0
 11
669.6490184155857
 21
111.3118024299312
 31
0.0
  0
LINE
  5
22A
  8
1
  6
CONTINUOUS
 62
     7
 10
669.6490184155857
 20
111.3118024299312
 30
0.0
 11
669.8299215213921
 21
112.8560502456367
 31
0.0
  0
ARC
  5
22B
  8
1
  6
CONTINUOUS
 62
     7
 10
705.2909427299794
 20
107.9189460937696
 30
0.0
 40
35.80305884365554
 50
165.1773646886687
 51
172.0738759616851
  0
ARC
  5
22C
  8
1
  6
CONTINUOUS
 62
     7
 10
684.7943742376406
 20
134.7687804920477
 30
0.0
 40
5.399999999999978
 50
100.0000000000002
 51
156.1495592350539
  0
LINE
  5
22D
  8
1
  6
CONTINUOUS
 62
     7
 10
681.7380033200609
 20
143.1887766992239
 30
0.0
 11
672.545113561461
 21
122.3953030544177
 31
0.0
  0
ARC
  5
22E
  8
1
  6
CONTINUOUS
 62
     7
 10
682.1038449397558
 20
143.0270364466614
 30
0.0
 40
0.4000000000000033
 50
100.0000000000019
 51
156.149559235054
  0
ARC
  5
22F
  8
1
  6
CONTINUOUS
 62
     7
 10
686.5354798283108
 20
143.8084532461626
 30
0.0
 40
0.4000000000000178
 50
10.00000000000214
 51
100.0000000000003
  0
ARC
  5
230
  8
1
  6
CONTINUOUS
 62
     7
 10
687.091153996845
 20
140.6570684365235
 30
0.0
 40
0.4000000000000033
 50
279.9999999999956
 51
10.00000000000028
  0
LINE
  5
231
  8
1
  6
CONTINUOUS
 62
     7
 10
683.9261333493058
 20
139.6928192571087
 30
0.0
 11
687.1606132679118
 21
140.2631453353186
 31
0.0
  0
ARC
  5
232
  8
1
  6
CONTINUOUS
 62
     7
 10
684.7943742376406
 20
134.7687804920477
 30
0.0
 40
5.000000000000027
 50
100.0000000000002
 51
156.1495592350539
  0
LINE
  5
233
  8
1
  6
CONTINUOUS
 62
     7
 10
686.4660205572441
 20
144.2023763473674
 30
0.0
 11
682.0343856686891
 21
143.4209595478663
 31
0.0
  0
LINE
  5
234
  8
1
  6
CONTINUOUS
 62
     7
 10
677.10990042677
 20
129.7527110064473
 30
0.0
 11
680.2213539914538
 21
136.7905336490792
 31
0.0
  0
ARC
  5
235
  8
1
  6
CONTINUOUS
 62
     7
 10
705.2879385241573
 20
107.9195504500716
 30
0.0
 40
35.8
 50
156.149559235054
 51
165.1770697045986
  0
LINE
  5
236
  8
1
  6
CONTINUOUS
 62
     7
 10
729.1693396042847
 20
140.1472097592248
 30
0.0
 11
728.8550523115106
 21
139.8688583467054
 31
0.0
  0
LINE
  5
237
  8
1
  6
CONTINUOUS
 62
     7
 10
680.8306603957154
 20
140.1472097592248
 30
0.0
 11
681.1449476884895
 21
139.8688583467054
 31
0.0
  0
ARC
  5
238
  8
1
  6
CONTINUOUS
 62
     7
 10
704.4044846145774
 20
165.0033016900775
 30
0.0
 40
10.09586370049887
 50
0.4759411721613331
 51
17.11201260182903
  0
ARC
  5
239
  8
1
  6
CONTINUOUS
 62
     7
 10
711.6138970587383
 20
169.5194805117229
 30
0.0
 40
2.887911492574963
 50
327.6435929533619
 51
357.9721595786035
  0
ARC
  5
23A
  8
1
  6
CONTINUOUS
 62
     7
 10
711.7149405012544
 20
160.6861113292001
 30
0.0
 40
2.785962476926517
 50
1.458815462637221
 51
32.92543200539855
  0
ARC
  5
23B
  8
1
  6
CONTINUOUS
 62
     7
 10
704.0804319112417
 20
165.2211583286009
 30
0.0
 40
10.42042962247613
 50
343.1488196457584
 51
359.2632265802512
  0
LINE
  5
23C
  8
1
  6
CONTINUOUS
 62
     7
 10
714.0534180126149
 20
162.2004130995565
 30
0.0
 11
709.5
 21
162.2004130995565
 31
0.0
  0
ARC
  5
23D
  8
1
  6
CONTINUOUS
 62
     7
 10
711.6138970587381
 20
160.8592264738786
 30
0.0
 40
2.887911492575195
 50
327.6435929533628
 51
357.9721595786015
  0
LINE
  5
23E
  8
1
  6
CONTINUOUS
 62
     7
 10
714.0534180126149
 20
159.3136617536083
 30
0.0
 11
709.5
 21
159.3136617536083
 31
0.0
  0
LINE
  5
23F
  8
1
  6
CONTINUOUS
 62
     7
 10
714.0534180126149
 20
170.8606671374008
 30
0.0
 11
709.5
 21
170.8606671374008
 31
0.0
  0
ARC
  5
240
  8
1
  6
CONTINUOUS
 62
     7
 10
711.7149405012545
 20
169.3463653670446
 30
0.0
 40
2.785962476926406
 50
1.458815462637279
 51
32.92543200539885
  0
LINE
  5
241
  8
1
  6
CONTINUOUS
 62
     7
 10
714.0534180126149
 20
167.9739157914527
 30
0.0
 11
709.5
 21
167.9739157914527
 31
0.0
  0
LINE
  5
242
  8
1
  6
CONTINUOUS
 62
     7
 10
683.6978886899203
 20
167.7371072281329
 30
0.0
 11
694.4225108935859
 21
176.7361337637445
 31
0.0
  0
LINE
  5
243
  8
1
  6
CONTINUOUS
 62
     7
 10
684.0192824947636
 20
167.3540850065734
 30
0.0
 11
694.7439046984292
 21
176.353111542185
 31
0.0
  0
LINE
  5
244
  8
1
  6
CONTINUOUS
 62
     7
 10
736.2909557458686
 20
167.4908977867906
 30
0.0
 11
736.2909557458685
 21
161.4908977867906
 31
0.0
  0
LINE
  5
245
  8
1
  6
CONTINUOUS
 62
     7
 10
691.6797269259534
 20
173.7819611034388
 30
0.0
 11
691.8584963296913
 21
173.5689120242882
 31
0.0
  0
LINE
  5
246
  8
1
  6
CONTINUOUS
 62
     7
 10
687.2622296709775
 20
169.7121863661689
 30
0.0
 11
687.0834602672395
 21
169.9252354453195
 31
0.0
  0
LINE
  5
247
  8
1
  6
CONTINUOUS
 62
     7
 10
705.0
 20
175.0
 30
0.0
 11
708.2
 21
175.0
 31
0.0
  0
LINE
  5
248
  8
1
  6
CONTINUOUS
 62
     7
 10
727.8961550602442
 20
143.0270364466614
 30
0.0
 11
727.3404808917101
 21
139.8756516370223
 31
0.0
  0
ARC
  5
249
  8
1
  6
CONTINUOUS
 62
     7
 10
708.2
 20
146.5
 30
0.0
 40
3.199999999999981
 50
180.0
 51
259.9999999999999
  0
LINE
  5
24A
  8
1
  6
CONTINUOUS
 62
     7
 10
701.8000000000001
 20
171.3
 30
0.0
 11
701.8000000000001
 21
146.5
 31
0.0
  0
ARC
  5
24B
  8
1
  6
CONTINUOUS
 62
     7
 10
698.8000000000001
 20
171.3
 30
0.0
 40
3.000000000000002
 50
0.0000000000005684
 51
130.0000000000001
  0
ARC
  5
24C
  8
1
  6
CONTINUOUS
 62
     7
 10
698.8000000000001
 20
171.3
 30
0.0
 40
6.199999999999983
 50
0.0
 51
129.9999999999997
  0
ARC
  5
24D
  8
1
  6
CONTINUOUS
 62
     7
 10
701.8000000000001
 20
146.5
 30
0.0
 40
3.200000000000022
 50
279.9999999999999
 51
0.0
  0
LINE
  5
24E
  8
1
  6
CONTINUOUS
 62
     7
 10
681.9337705301203
 20
161.0637749404694
 30
0.0
 11
679.8768501791235
 21
163.5151171584502
 31
0.0
  0
LINE
  5
24F
  8
1
  6
CONTINUOUS
 62
     7
 10
682.65951910829
 20
139.8756516370223
 30
0.0
 11
682.1038449397558
 21
143.0270364466614
 31
0.0
  0
LINE
  5
250
  8
1
  6
CONTINUOUS
 62
     7
 10
708.2
 20
158.0871644455046
 30
0.0
 11
709.5
 21
158.0871644455046
 31
0.0
  0
LINE
  5
251
  8
1
  6
CONTINUOUS
 62
     7
 10
709.5
 20
172.0871644455046
 30
0.0
 11
708.2
 21
172.0871644455046
 31
0.0
  0
LINE
  5
252
  8
1
  6
CONTINUOUS
 62
     7
 10
714.0534180126149
 20
159.3136617536083
 30
0.0
 11
714.5
 21
160.0871644455046
 31
0.0
  0
LINE
  5
253
  8
1
  6
CONTINUOUS
 62
     7
 10
714.5
 20
170.0871644455046
 30
0.0
 11
714.0534180126149
 21
170.8606671374008
 31
0.0
  0
ARC
  5
254
  8
1
  6
CONTINUOUS
 62
     7
 10
694.5560338545731
 20
165.6869405072714
 30
0.0
 40
11.05000000000001
 50
90.69235188389403
 51
169.3076481161059
  0
LINE
  5
255
  8
1
  6
CONTINUOUS
 62
     7
 10
683.6978886899203
 20
167.7371072281329
 30
0.0
 11
684.0192824947636
 21
167.3540850065734
 31
0.0
  0
LINE
  5
256
  8
1
  6
CONTINUOUS
 62
     7
 10
694.7439046984293
 20
176.3531115421849
 30
0.0
 11
694.4225108935859
 21
176.7361337637445
 31
0.0
  0
LINE
  5
257
  8
1
  6
CONTINUOUS
 62
     7
 10
736.2909557458686
 20
167.4908977867906
 30
0.0
 11
714.5
 21
167.4908977867909
 31
0.0
  0
LINE
  5
258
  8
1
  6
CONTINUOUS
 62
     7
 10
714.5
 20
161.4908977867909
 30
0.0
 11
736.2909557458685
 21
161.4908977867906
 31
0.0
  0
LINE
  5
259
  8
1
  6
CONTINUOUS
 62
     7
 10
698.1709557458685
 20
161.890897786791
 30
0.0
 11
701.8000000000001
 21
161.890897786791
 31
0.0
  0
LINE
  5
25A
  8
1
  6
CONTINUOUS
 62
     7
 10
701.8000000000001
 20
167.0908977867909
 30
0.0
 11
698.1709557458685
 21
167.0908977867909
 31
0.0
  0
ARC
  5
25B
  8
1
  6
CONTINUOUS
 62
     7
 10
698.1709557458685
 20
170.0908977867909
 30
0.0
 40
3.000000000000003
 50
220.0
 51
269.9999999999993
  0
ARC
  5
25C
  8
1
  6
CONTINUOUS
 62
     7
 10
698.1709557458685
 20
170.0908977867909
 30
0.0
 40
8.199999999999925
 50
220.0000000000001
 51
269.9999999999994
  0
LINE
  5
25D
  8
1
  6
CONTINUOUS
 62
     7
 10
689.625567799222
 20
167.5179591920628
 30
0.0
 11
691.8893913122929
 21
164.8200393873613
 31
0.0
  0
LINE
  5
25E
  8
1
  6
CONTINUOUS
 62
     7
 10
695.8728224165116
 20
168.1625349577313
 30
0.0
 11
693.6089989034407
 21
170.8604547624328
 31
0.0
  0
LINE
  5
25F
  8
1
  6
CONTINUOUS
 62
     7
 10
697.6928171764959
 20
174.0881617159395
 30
0.0
 11
701.6475391896189
 21
172.2440445553461
 31
0.0
  0
ENDBLK
  8
0
  0
ENDSEC
  0
SECTION
  2
ENTITIES
  0
INSERT
  5
CE
  8
1
  6
CONTINUOUS
 62
     7
  2
D_FRAME_VIEW_2185
 10
0.0
 20
0.0
 30
0.0
  0
INSERT
  5
143
  8
1
  6
CONTINUOUS
 62
     7
  2
D_FRAME_VIEW_1933
 10
0.0
 20
0.0
 30
0.0
  0
TEXT
  5
144
  8
1
  6
CONTINUOUS
 62
     7
 10
650.345379517319
 20
204.1606352382143
 30
0.0
 40
8.0
  1
YHM-54
  0
LINE
  5
145
  8
1
  6
CONTINUOUS
 62
     7
 10
682.1038449397558
 20
143.0270364466614
 30
0.0
 11
701.8000000000001
 21
146.5
 31
0.0
  0
LINE
  5
146
  8
1
  6
CONTINUOUS
 62
     7
 10
714.5
 20
170.0871644455046
 30
0.0
 11
714.5
 21
160.0871644455046
 31
0.0
  0
LINE
  5
147
  8
1
  6
CONTINUOUS
 62
     7
 10
681.1449476884895
 20
139.8688583467054
 30
0.0
 11
676.0285055345785
 21
128.295935372948
 31
0.0
  0
LINE
  5
148
  8
1
  6
CONTINUOUS
 62
     7
 10
679.8768501791235
 20
163.5151171584501
 30
0.0
 11
694.8147168199437
 21
176.0494755473376
 31
0.0
  0
LINE
  5
149
  8
1
  6
CONTINUOUS
 62
     7
 10
607.4
 20
167.6335955894628
 30
0.0
 11
607.4
 21
164.490897786791
 31
0.0
  0
LINE
  5
14A
  8
1
  6
CONTINUOUS
 62
     7
 10
689.0749308053942
 20
139.5571345113141
 30
0.0
 11
690.6485742162474
 21
136.4308513482788
 31
0.0
  0
LINE
  5
14B
  8
1
  6
CONTINUOUS
 62
     7
 10
548.6848673109083
 20
327.0000000000001
 30
0.0
 11
524.1054539707626
 21
327.0000000000001
 31
0.0
  0
LINE
  5
14C
  8
1
  6
CONTINUOUS
 62
     7
 10
756.6943196311431
 20
242.4080771344158
 30
0.0
 11
759.1253941184801
 21
256.1953856765867
 31
0.0
  0
LINE
  5
14D
  8
1
  6
CONTINUOUS
 62
     7
 10
707.6443258314658
 20
143.348615190361
 30
0.0
 11
727.3404808917101
 21
139.8756516370223
 31
0.0
  0
LINE
  5
14E
  8
1
  6
CONTINUOUS
 62
     7
 10
556.878459921556
 20
230.4082960901238
 30
0.0
 11
588.379460021576
 21
230.4082960901238
 31
0.0
  0
LINE
  5
14F
  8
1
  6
CONTINUOUS
 62
     7
 10
696.8716371709404
 20
173.598133329357
 30
0.0
 11
681.9337705301203
 21
161.0637749404694
 31
0.0
  0
LINE
  5
150
  8
1
  6
CONTINUOUS
 62
     7
 10
749.0740527322438
 20
229.8475271021726
 30
0.0
 11
729.0740527322438
 21
229.8475271021726
 31
0.0
  0
LINE
  5
151
  8
1
  6
CONTINUOUS
 62
     7
 10
708.2
 20
146.5
 30
0.0
 11
708.2
 21
175.0
 31
0.0
  0
LINE
  5
152
  8
1
  6
CONTINUOUS
 62
     7
 10
689.7100475724669
 20
230.8082960901238
 30
0.0
 11
725.3794600215764
 21
230.8082960901238
 31
0.0
  0
LINE
  5
153
  8
1
  6
CONTINUOUS
 62
     7
 10
627.0
 20
177.5
 30
0.0
 11
627.0
 21
140.3965961700231
 31
0.0
  0
LINE
  5
154
  8
1
  6
CONTINUOUS
 62
     7
 10
705.0
 20
146.5
 30
0.0
 11
705.0
 21
175.0
 31
0.0
  0
LINE
  5
155
  8
1
  6
CONTINUOUS
 62
     7
 10
733.9714944654215
 20
128.295935372948
 30
0.0
 11
728.8550523115106
 21
139.8688583467054
 31
0.0
  0
LINE
  5
156
  8
1
  6
CONTINUOUS
 62
     7
 10
729.0740527322438
 20
297.9000000000001
 30
0.0
 11
551.6848673109083
 21
297.9000000000001
 31
0.0
  0
LINE
  5
157
  8
1
  6
CONTINUOUS
 62
     7
 10
595.8005151117122
 20
227.8082960901238
 30
0.0
 11
684.9584049314399
 21
227.8082960901238
 31
0.0
  0
LINE
  5
158
  8
1
  6
CONTINUOUS
 62
     7
 10
729.0740527322438
 20
233.0475271021727
 30
0.0
 11
749.0740527322438
 21
233.0475271021727
 31
0.0
  0
LINE
  5
159
  8
1
  6
CONTINUOUS
 62
     7
 10
682.1038449397558
 20
143.0270364466614
 30
0.0
 11
674.6703955854655
 21
126.2132556554971
 31
0.0
  0
LINE
  5
15A
  8
1
  6
CONTINUOUS
 62
     7
 10
747.3261042793471
 20
263.3610614133398
 30
0.0
 11
730.4386089055505
 21
253.6110614133397
 31
0.0
  0
LINE
  5
15B
  8
1
  6
CONTINUOUS
 62
     7
 10
720.925069194606
 20
139.5571345113141
 30
0.0
 11
719.3514257837527
 21
136.4308513482788
 31
0.0
  0
LINE
  5
15C
  8
1
  6
CONTINUOUS
 62
     7
 10
613.1999999999999
 20
156.4999999999999
 30
0.0
 11
613.1999999999999
 21
167.8517614065377
 31
0.0
  0
LINE
  5
15D
  8
1
  6
CONTINUOUS
 62
     7
 10
709.5
 20
158.0871644455046
 30
0.0
 11
709.5
 21
172.0871644455046
 31
0.0
  0
LINE
  5
15E
  8
1
  6
CONTINUOUS
 62
     7
 10
725.3794600215764
 20
231.2082960901238
 30
0.0
 11
687.0488594274764
 21
231.2082960901238
 31
0.0
  0
LINE
  5
15F
  8
1
  6
CONTINUOUS
 62
     7
 10
593.0
 20
177.5
 30
0.0
 11
593.0
 21
140.3965961700231
 31
0.0
  0
LINE
  5
160
  8
1
  6
CONTINUOUS
 62
     7
 10
764.2499703058429
 20
305.0000000000001
 30
0.0
 11
760.0408058138238
 21
305.0000000000001
 31
0.0
  0
LINE
  5
161
  8
1
  6
CONTINUOUS
 62
     7
 10
612.6
 20
164.490897786791
 30
0.0
 11
612.6
 21
167.6335955894628
 31
0.0
  0
LINE
  5
162
  8
1
  6
CONTINUOUS
 62
     7
 10
729.0740527322438
 20
322.1
 30
0.0
 11
551.6848673109083
 21
322.1
 31
0.0
  0
LINE
  5
163
  8
1
  6
CONTINUOUS
 62
     7
 10
756.6261042793469
 20
327.0000000000001
 30
0.0
 11
732.0740527322438
 21
327.0000000000001
 31
0.0
  0
LINE
  5
164
  8
1
  6
CONTINUOUS
 62
     7
 10
760.0408058138238
 20
315.0000000000001
 30
0.0
 11
764.2499702995106
 21
315.0000000000001
 31
0.0
  0
LINE
  5
165
  8
1
  6
CONTINUOUS
 62
     7
 10
732.0386089055505
 20
250.8397801212296
 30
0.0
 11
748.926104279347
 21
260.5897801212296
 31
0.0
  0
LINE
  5
166
  8
1
  6
CONTINUOUS
 62
     7
 10
526.7358942474009
 20
261.1145480630206
 30
0.0
 11
531.6848673109082
 21
233.0475271021727
 31
0.0
  0
LINE
  5
167
  8
1
  6
CONTINUOUS
 62
     7
 10
528.5334825012692
 20
232.4918529336385
 30
0.0
 11
523.5845094377618
 21
260.5588738944864
 31
0.0
  0
LINE
  5
168
  8
1
  6
CONTINUOUS
 62
     7
 10
756.6261042793469
 20
293.0000000000001
 30
0.0
 11
732.0740527322438
 21
293.0000000000001
 31
0.0
  0
LINE
  5
169
  8
1
  6
CONTINUOUS
 62
     7
 10
606.8
 20
156.4999999999999
 30
0.0
 11
606.8
 21
167.8517614065377
 31
0.0
  0
LINE
  5
16A
  8
1
  6
CONTINUOUS
 62
     7
 10
729.0740527322438
 20
320.5000000000001
 30
0.0
 11
551.6848673109083
 21
320.5000000000001
 31
0.0
  0
LINE
  5
16B
  8
1
  6
CONTINUOUS
 62
     7
 10
729.0740527322438
 20
299.5000000000001
 30
0.0
 11
551.6848673109083
 21
299.5000000000001
 31
0.0
  0
LINE
  5
16C
  8
1
  6
CONTINUOUS
 62
     7
 10
551.6848673109083
 20
229.8475271021727
 30
0.0
 11
531.6848673109083
 21
229.8475271021729
 31
0.0
  0
LINE
  5
16D
  8
1
  6
CONTINUOUS
 62
     7
 10
593.0
 20
146.5
 30
0.0
 11
627.0
 21
146.5
 31
0.0
  0
LINE
  5
16E
  8
1
  6
CONTINUOUS
 62
     7
 10
600.0
 20
144.2084532461626
 30
0.0
 11
600.0
 21
116.7810573685768
 31
0.0
  0
LINE
  5
16F
  8
1
  6
CONTINUOUS
 62
     7
 10
600.0
 20
116.6484939450625
 30
0.0
 11
600.0
 21
72.52072149477559
 31
0.0
  0
LINE
  5
170
  8
1
  6
CONTINUOUS
 62
     7
 10
727.8961550602443
 20
143.0270364466614
 30
0.0
 11
735.3296044145346
 21
126.2132556554971
 31
0.0
  0
LINE
  5
171
  8
1
  6
CONTINUOUS
 62
     7
 10
531.6848673109083
 20
233.0475271021727
 30
0.0
 11
551.6848673109083
 21
233.0475271021727
 31
0.0
  0
LINE
  5
172
  8
1
  6
CONTINUOUS
 62
     7
 10
548.6848673109083
 20
293.0000000000001
 30
0.0
 11
524.1054539707626
 21
293.0000000000001
 31
0.0
  0
LINE
  5
173
  8
1
  6
CONTINUOUS
 62
     7
 10
620.0
 20
144.2084532461626
 30
0.0
 11
620.0
 21
116.7810573685768
 31
0.0
  0
LINE
  5
174
  8
1
  6
CONTINUOUS
 62
     7
 10
764.9823866071232
 20
253.1317866512606
 30
0.0
 11
763.2459048304531
 21
243.2837091211387
 31
0.0
  0
LINE
  5
175
  8
1
  6
CONTINUOUS
 62
     7
 10
702.3556741685343
 20
143.348615190361
 30
0.0
 11
682.65951910829
 21
139.8756516370223
 31
0.0
  0
LINE
  5
176
  8
1
  6
CONTINUOUS
 62
     7
 10
757.974569710059
 20
242.1823345034488
 30
0.0
 11
760.405644197396
 21
255.9696430456197
 31
0.0
  0
LINE
  5
177
  8
1
  6
CONTINUOUS
 62
     7
 10
727.8961550602442
 20
143.0270364466614
 30
0.0
 11
708.2
 21
146.5
 31
0.0
  0
LINE
  5
178
  8
1
  6
CONTINUOUS
 62
     7
 10
620.0
 20
116.6523408378257
 30
0.0
 11
620.0
 21
72.52072149477553
 31
0.0
  0
LINE
  5
179
  8
1
  6
CONTINUOUS
 62
     7
 10
730.4386089055506
 20
320.0000000000001
 30
0.0
 11
548.379460021576
 21
320.0000000000001
 31
0.0
  0
LINE
  5
17A
  8
1
  6
CONTINUOUS
 62
     7
 10
591.0488724706853
 20
230.8082960901238
 30
0.0
 11
555.3794600215759
 21
230.8082960901238
 31
0.0
  0
ARC
  5
17B
  8
1
  6
CONTINUOUS
 62
     9
 10
610.0
 20
165.0871644455046
 30
0.0
 40
2.999999999999975
 50
150.0735651333858
 51
185.7033412155735
  0
LINE
  5
17C
  8
1
  6
CONTINUOUS
 62
     7
 10
595.8005151117122
 20
231.3082960901239
 30
0.0
 11
684.9584049314399
 21
231.3082960901238
 31
0.0
  0
LINE
  5
17D
  8
1
  6
CONTINUOUS
 62
     7
 10
733.8794600215766
 20
229.3082960901242
 30
0.0
 11
733.8794600215766
 21
225.8082960901242
 31
0.0
  0
ARC
  5
17E
  8
1
  6
CONTINUOUS
 62
     7
 10
705.0
 20
107.9195504500716
 30
0.0
 40
31.91955045007166
 50
116.7188188561132
 51
63.28118114388682
  0
LINE
  5
17F
  8
1
  6
CONTINUOUS
 62
     7
 10
723.8804601215961
 20
230.4082960901238
 30
0.0
 11
692.379460021576
 21
230.4082960901238
 31
0.0
  0
ARC
  5
180
  8
1
  6
CONTINUOUS
 62
     7
 10
705.0
 20
107.9195504500716
 30
0.0
 40
35.41955045007166
 50
116.7188188561133
 51
63.28118114388673
  0
LINE
  5
181
  8
1
  6
CONTINUOUS
 62
     7
 10
556.878459921556
 20
231.6082960901238
 30
0.0
 11
588.379460021576
 21
231.6082960901238
 31
0.0
  0
LINE
  5
182
  8
1
  6
CONTINUOUS
 62
     7
 10
723.8804601215961
 20
231.6082960901238
 30
0.0
 11
692.379460021576
 21
231.6082960901238
 31
0.0
  0
LINE
  5
183
  8
1
  6
CONTINUOUS
 62
     7
 10
730.4386089055506
 20
300.0000000000001
 30
0.0
 11
548.379460021576
 21
300.0000000000001
 31
0.0
  0
LINE
  5
184
  8
1
  6
CONTINUOUS
 62
     7
 10
593.7100606156757
 20
231.2082960901238
 30
0.0
 11
555.3794600215759
 21
231.2082960901238
 31
0.0
  0
LINE
  5
185
  8
1
  6
CONTINUOUS
 62
     7
 10
546.8794600215755
 20
229.3082960901242
 30
0.0
 11
546.8794600215755
 21
225.8082960901242
 31
0.0
  0
POINT
  5
186
  8
1
 62
     1
 10
655.0
 20
310.0000000000001
 30
0.0
  0
POINT
  5
187
  8
1
 62
     7
 10
610.0
 20
180.0
 30
0.0
  0
POINT
  5
188
  8
1
 62
     1
 10
685.0
 20
180.0
 30
0.0
  0
LINE
  5
189
  8
1
  6
CENTER
 62
     1
 10
671.0804495499284
 20
107.9195504500716
 30
0.0
 11
738.9195504500717
 21
107.9195504500716
 31
0.0
  0
INSERT
  5
218
  8
1
  6
CONTINUOUS
 62
     7
  2
D_FRAME_VIEW_1474
 10
0.0
 20
0.0
 30
0.0
  0
INSERT
  5
260
  8
1
  6
CONTINUOUS
 62
     7
  2
D_FRAME_VIEW_1935
 10
0.0
 20
0.0
 30
0.0
  0
LINE
  5
261
  8
1
  6
CENTER
 62
     1
 10
705.0
 20
73.99999999999996
 30
0.0
 11
705.0
 21
180.0
 31
0.0
  0
LINE
  5
262
  8
1
  6
CENTER
 62
     1
 10
610.0
 20
180.0
 30
0.0
 11
610.0
 21
72.52072149477559
 31
0.0
  0
LINE
  5
263
  8
1
  6
CENTER
 62
     1
 10
520.5845094377618
 20
310.0000000000001
 30
0.0
 11
789.4154905622382
 21
310.0000000000001
 31
0.0
  0
ENDSEC
  0
EOF
