  0
SECTION
  2
HEADER
  9
$ACADVER
  1
AC1006
  9
$DWGCODEPAGE
  3
ansi_932
  9
$INSBASE
 10
0.0
 20
0.0
 30
0.0
  9
$EXTMIN
 10
0.0
 20
0.0
  9
$EXTMAX
 10
813.9154905622382
 20
327.0000000000001
  9
$LIMMIN
 10
0.0
 20
0.0
  9
$LIMMAX
 10
12.0
 20
9.0
  9
$ORTHOMODE
 70
     0
  9
$REGENMODE
 70
     1
  9
$FILLMODE
 70
     1
  9
$QTEXTMODE
 70
     0
  9
$MIRRTEXT
 70
     1
  9
$DRAGMODE
 70
     2
  9
$LTSCALE
 40
1.0
  9
$OSMODE
 70
    37
  9
$ATTMODE
 70
     1
  9
$TEXTSIZE
 40
0.2
  9
$TRACEWID
 40
0.05
  9
$TEXTSTYLE
  7
STANDARD
  9
$CLAYER
  8
0
  9
$CELTYPE
  6
BYLAYER
  9
$CECOLOR
 62
   256
  9
$DIMSCALE
 40
1.0
  9
$DIMASZ
 40
3.0
  9
$DIMEXO
 40
0.0625
  9
$DIMDLI
 40
0.38
  9
$DIMRND
 40
0.0
  9
$DIMDLE
 40
0.0
  9
$DIMEXE
 40
1.5
  9
$DIMTP
 40
0.0
  9
$DIMTM
 40
0.0
  9
$DIMTXT
 40
3.0
  9
$DIMCEN
 40
0.09
  9
$DIMTSZ
 40
0.0
  9
$DIMTOL
 70
     0
  9
$DIMLIM
 70
     0
  9
$DIMTIH
 70
     1
  9
$DIMTOH
 70
     1
  9
$DIMSE1
 70
     0
  9
$DIMSE2
 70
     0
  9
$DIMTAD
 70
     1
  9
$DIMZIN
 70
     0
  9
$DIMBLK
  1

  9
$DIMASO
 70
     1
  9
$DIMSHO
 70
     1
  9
$DIMPOST
  1

  9
$DIMAPOST
  1

  9
$DIMALT
 70
     0
  9
$DIMALTD
 70
     2
  9
$DIMALTF
 40
25.4
  9
$DIMLFAC
 40
1.0
  9
$DIMTOFL
 70
     0
  9
$DIMTVP
 40
0.0
  9
$DIMTIX
 70
     0
  9
$DIMSOXD
 70
     0
  9
$DIMSAH
 70
     0
  9
$DIMBLK1
  1

  9
$DIMBLK2
  1

  9
$LUNITS
 70
     2
  9
$LUPREC
 70
     4
  9
$SKETCHINC
 40
0.1
  9
$FILLETRAD
 40
0.5
  9
$AUNITS
 70
     0
  9
$AUPREC
 70
     0
  9
$MENU
  1
.
  9
$ELEVATION
 40
0.0
  9
$THICKNESS
 40
0.0
  9
$LIMCHECK
 70
     0
  9
$CHAMFERA
 40
0.0
  9
$CHAMFERB
 40
0.0
  9
$SKPOLY
 70
     0
  9
$TDCREATE
 40
2460455.755976782
  9
$TDUPDATE
 40
2460455.755977083
  9
$TDINDWG
 40
0.0000000116
  9
$TDUSRTIMER
 40
0.0000000116
  9
$USRTIMER
 70
     1
  9
$ANGBASE
 50
0.0
  9
$ANGDIR
 70
     0
  9
$PDMODE
 70
     0
  9
$PDSIZE
 40
0.0
  9
$PLINEWID
 40
0.0
  9
$COORDS
 70
     1
  9
$SPLFRAME
 70
     0
  9
$SPLINETYPE
 70
     6
  9
$SPLINESEGS
 70
     8
  9
$ATTDIA
 70
     0
  9
$ATTREQ
 70
     1
  9
$HANDLING
 70
     1
  9
$HANDSEED
  5
55B
  9
$SURFTAB1
 70
     6
  9
$SURFTAB2
 70
     6
  9
$SURFTYPE
 70
     6
  9
$SURFU
 70
     6
  9
$SURFV
 70
     6
  9
$UCSNAME
  2

  9
$UCSORG
 10
0.0
 20
0.0
 30
0.0
  9
$UCSXDIR
 10
1.0
 20
0.0
 30
0.0
  9
$UCSYDIR
 10
0.0
 20
1.0
 30
0.0
  9
$USERI1
 70
     0
  9
$USERI2
 70
     0
  9
$USERI3
 70
     0
  9
$USERI4
 70
     0
  9
$USERI5
 70
     0
  9
$USERR1
 40
0.0
  9
$USERR2
 40
0.0
  9
$USERR3
 40
0.0
  9
$USERR4
 40
0.0
  9
$USERR5
 40
0.0
  9
$WORLDVIEW
 70
     1
  0
ENDSEC
  0
SECTION
  2
TABLES
  0
TABLE
  2
VPORT
 70
     1
  0
VPORT
  2
*ACTIVE
 70
     0
 10
0.0
 20
0.0
 11
1.0
 21
1.0
 12
406.9577452811191
 22
163.5
 13
0.0
 23
0.0
 14
0.5
 24
0.5
 15
0.5
 25
0.5
 16
0.0
 26
0.0
 36
1.0
 17
0.0
 27
0.0
 37
0.0
 40
327.0000000000001
 41
1.6
 42
50.0
 43
0.0
 44
0.0
 50
0.0
 51
0.0
 71
     0
 72
   100
 73
     1
 74
     3
 75
     0
 76
     0
 77
     0
 78
     0
  0
ENDTAB
  0
TABLE
  2
LTYPE
 70
     2
  0
LTYPE
  2
CONTINUOUS
 70
     0
  3
Solid line
 72
    65
 73
     0
 40
0.0
  0
LTYPE
  2
CENTER
 70
     0
  3

 72
    65
 73
     0
 40
0.0
  0
ENDTAB
  0
TABLE
  2
LAYER
 70
     2
  0
LAYER
  2
0
 70
     0
 62
     7
  6
CONTINUOUS
  0
LAYER
  2
1
 70
     0
 62
     7
  6
CONTINUOUS
  0
ENDTAB
  0
TABLE
  2
STYLE
 70
     2
  0
STYLE
  2
STANDARD
 70
     0
 40
0.0
 41
1.0
 50
0.0
 71
     0
 42
0.2
  3
txt
  4

  0
STYLE
  2
ＭＳ_ゴシック
 70
     0
 40
0.0
 41
1.0
 50
0.0
 71
     0
 42
0.2
  3
ＭＳ ゴシック.shx
  4

  0
ENDTAB
  0
TABLE
  2
VIEW
 70
     0
  0
ENDTAB
  0
TABLE
  2
UCS
 70
     0
  0
ENDTAB
  0
ENDSEC
  0
SECTION
  2
BLOCKS
  0
BLOCK
  8
0
  2
D_FRAME_VIEW_2185
 70
     0
 10
0.0
 20
0.0
 30
0.0
  0
ARC
  5
BA
  8
1
  6
CONTINUOUS
 62
     9
 10
610.0
 20
173.6424801712942
 30
0.0
 40
3.000000000000038
 50
354.2966587843929
 51
29.92643486661445
  0
LINE
  5
BB
  8
1
  6
CONTINUOUS
 62
     7
 10
599.5
 20
148.4309673628119
 30
0.0
 11
599.5
 21
64.35531572578962
 31
0.0
  0
LINE
  5
BC
  8
1
  6
CONTINUOUS
 62
     7
 10
620.4999999999999
 20
148.4309673628119
 30
0.0
 11
620.4999999999999
 21
64.35531572578962
 31
0.0
  0
LINE
  5
BD
  8
1
  6
CONTINUOUS
 62
     7
 10
622.1
 20
148.4309673628119
 30
0.0
 11
622.1
 21
64.35531572578962
 31
0.0
  0
LINE
  5
BE
  8
1
  6
CONTINUOUS
 62
     7
 10
597.9
 20
148.4309673628119
 30
0.0
 11
597.9
 21
64.35531572578962
 31
0.0
  0
LINE
  5
BF
  8
1
  6
CONTINUOUS
 62
     7
 10
599.4999999999999
 20
148.2626662902763
 30
0.0
 11
600.0
 21
148.2626662902763
 31
0.0
  0
LINE
  5
C0
  8
1
  6
CONTINUOUS
 62
     7
 10
620.0
 20
148.2626662902763
 30
0.0
 11
620.4999999999999
 21
148.2626662902763
 31
0.0
  0
ARC
  5
C1
  8
1
  6
CONTINUOUS
 62
     7
 10
604.9329493340349
 20
129.274090226662
 30
0.0
 40
4.938811309484976
 50
182.7918454707346
 51
270.777887219616
  0
ARC
  5
C2
  8
1
  6
CONTINUOUS
 62
     7
 10
604.9226620380175
 20
129.5447304475285
 30
0.0
 40
4.928481669344142
 50
182.7846559083717
 51
270.8991249210941
  0
ARC
  5
C3
  8
1
  6
CONTINUOUS
 62
     7
 10
615.0723286199513
 20
129.5500726767409
 30
0.0
 40
4.93374726219205
 50
269.1600151174409
 51
357.1562040530933
  0
LINE
  5
C4
  8
1
  6
CONTINUOUS
 62
     7
 10
605.0
 20
124.6168556109791
 30
0.0
 11
615.0
 21
124.6168556109791
 31
0.0
  0
ARC
  5
C5
  8
1
  6
CONTINUOUS
 62
     7
 10
615.0719160771763
 20
129.2689118316129
 30
0.0
 40
4.933701914268442
 50
269.164798825891
 51
357.265468483758
  0
LINE
  5
C6
  8
1
  6
CONTINUOUS
 62
     7
 10
605.0
 20
124.3357340873288
 30
0.0
 11
615.0
 21
124.3357340873288
 31
0.0
  0
LINE
  5
C7
  8
1
  6
CONTINUOUS
 62
     7
 10
600.0
 20
63.9446842742104
 30
0.0
 11
620.0
 21
63.9446842742104
 31
0.0
  0
ARC
  5
C8
  8
1
  6
CONTINUOUS
 62
     7
 10
610.0
 20
173.6424801712942
 30
0.0
 40
7.00000000000001
 50
242.7971055877856
 51
297.2028944122143
  0
POLYLINE
  5
C9
  8
1
  6
CONTINUOUS
 62
     7
 66
     1
 10
0.0
 20
0.0
 30
0.0
  0
VERTEX
  5
266
  8
1
  6
CONTINUOUS
 62
     7
 10
610.0
 20
176.2924229539226
 30
0.0
  0
VERTEX
  5
267
  8
1
  6
CONTINUOUS
 62
     7
 10
611.3656322541129
 20
176.3788798396854
 30
0.0
  0
VERTEX
  5
268
  8
1
  6
CONTINUOUS
 62
     7
 10
612.6787840265556
 20
176.6349280073396
 30
0.0
  0
VERTEX
  5
269
  8
1
  6
CONTINUOUS
 62
     7
 10
613.8889916311372
 20
177.0507276693957
 30
0.0
  0
VERTEX
  5
26A
  8
1
  6
CONTINUOUS
 62
     7
 10
614.9497474683059
 20
177.6102998780241
 30
0.0
  0
VERTEX
  5
26B
  8
1
  6
CONTINUOUS
 62
     7
 10
615.8202872861178
 20
178.2921405870587
 30
0.0
  0
VERTEX
  5
26C
  8
1
  6
CONTINUOUS
 62
     7
 10
616.467156727579
 20
179.0700470404322
 30
0.0
  0
VERTEX
  5
26D
  8
1
  6
CONTINUOUS
 62
     7
 10
616.8654969628226
 20
179.9141247293963
 30
0.0
  0
VERTEX
  5
26E
  8
1
  6
CONTINUOUS
 62
     7
 10
617.0
 20
180.7919362217283
 30
0.0
  0
SEQEND
  5
51A
  8
1
  6
CONTINUOUS
 62
     7
  0
POLYLINE
  5
CA
  8
1
  6
CONTINUOUS
 62
     7
 66
     1
 10
0.0
 20
0.0
 30
0.0
  0
VERTEX
  5
26F
  8
1
  6
CONTINUOUS
 62
     7
 10
603.0
 20
180.7919362217283
 30
0.0
  0
VERTEX
  5
270
  8
1
  6
CONTINUOUS
 62
     7
 10
603.1345030371774
 20
179.9141247293963
 30
0.0
  0
VERTEX
  5
271
  8
1
  6
CONTINUOUS
 62
     7
 10
603.532843272421
 20
179.0700470404322
 30
0.0
  0
VERTEX
  5
272
  8
1
  6
CONTINUOUS
 62
     7
 10
604.1797127138822
 20
178.2921405870587
 30
0.0
  0
VERTEX
  5
273
  8
1
  6
CONTINUOUS
 62
     7
 10
605.0502525316941
 20
177.6102998780241
 30
0.0
  0
VERTEX
  5
274
  8
1
  6
CONTINUOUS
 62
     7
 10
606.1110083688628
 20
177.0507276693957
 30
0.0
  0
VERTEX
  5
275
  8
1
  6
CONTINUOUS
 62
     7
 10
607.3212159734444
 20
176.6349280073396
 30
0.0
  0
VERTEX
  5
276
  8
1
  6
CONTINUOUS
 62
     7
 10
608.6343677458871
 20
176.3788798396854
 30
0.0
  0
VERTEX
  5
277
  8
1
  6
CONTINUOUS
 62
     7
 10
610.0
 20
176.2924229539226
 30
0.0
  0
SEQEND
  5
51B
  8
1
  6
CONTINUOUS
 62
     7
  0
POLYLINE
  5
CB
  8
1
  6
CONTINUOUS
 62
     7
 66
     1
 10
0.0
 20
0.0
 30
0.0
  0
VERTEX
  5
278
  8
1
  6
CONTINUOUS
 62
     7
 10
617.0
 20
180.7919362217283
 30
0.0
  0
VERTEX
  5
279
  8
1
  6
CONTINUOUS
 62
     7
 10
616.8654969628226
 20
181.6697477140604
 30
0.0
  0
VERTEX
  5
27A
  8
1
  6
CONTINUOUS
 62
     7
 10
616.467156727579
 20
182.5138254030245
 30
0.0
  0
VERTEX
  5
27B
  8
1
  6
CONTINUOUS
 62
     7
 10
615.8202872861178
 20
183.291731856398
 30
0.0
  0
VERTEX
  5
27C
  8
1
  6
CONTINUOUS
 62
     7
 10
614.9497474683059
 20
183.9735725654326
 30
0.0
  0
VERTEX
  5
27D
  8
1
  6
CONTINUOUS
 62
     7
 10
613.8889916311372
 20
184.533144774061
 30
0.0
  0
VERTEX
  5
27E
  8
1
  6
CONTINUOUS
 62
     7
 10
612.6787840265556
 20
184.9489444361171
 30
0.0
  0
VERTEX
  5
27F
  8
1
  6
CONTINUOUS
 62
     7
 10
611.3656322541129
 20
185.2049926037713
 30
0.0
  0
VERTEX
  5
280
  8
1
  6
CONTINUOUS
 62
     7
 10
610.0
 20
185.2914494895341
 30
0.0
  0
VERTEX
  5
281
  8
1
  6
CONTINUOUS
 62
     7
 10
608.6343677458871
 20
185.2049926037713
 30
0.0
  0
VERTEX
  5
282
  8
1
  6
CONTINUOUS
 62
     7
 10
607.3212159734444
 20
184.9489444361171
 30
0.0
  0
VERTEX
  5
283
  8
1
  6
CONTINUOUS
 62
     7
 10
606.1110083688627
 20
184.533144774061
 30
0.0
  0
VERTEX
  5
284
  8
1
  6
CONTINUOUS
 62
     7
 10
605.0502525316941
 20
183.9735725654326
 30
0.0
  0
VERTEX
  5
285
  8
1
  6
CONTINUOUS
 62
     7
 10
604.1797127138822
 20
183.291731856398
 30
0.0
  0
VERTEX
  5
286
  8
1
  6
CONTINUOUS
 62
     7
 10
603.532843272421
 20
182.5138254030245
 30
0.0
  0
VERTEX
  5
287
  8
1
  6
CONTINUOUS
 62
     7
 10
603.1345030371774
 20
181.6697477140604
 30
0.0
  0
VERTEX
  5
288
  8
1
  6
CONTINUOUS
 62
     7
 10
603.0
 20
180.7919362217283
 30
0.0
  0
SEQEND
  5
51C
  8
1
  6
CONTINUOUS
 62
     7
  0
POLYLINE
  5
CC
  8
1
  6
CONTINUOUS
 62
     7
 66
     1
 10
0.0
 20
0.0
 30
0.0
  0
VERTEX
  5
289
  8
1
  6
CONTINUOUS
 62
     7
 10
603.0
 20
180.4089140001688
 30
0.0
  0
VERTEX
  5
28A
  8
1
  6
CONTINUOUS
 62
     7
 10
603.1345030371774
 20
179.5311025078367
 30
0.0
  0
VERTEX
  5
28B
  8
1
  6
CONTINUOUS
 62
     7
 10
603.532843272421
 20
178.6870248188726
 30
0.0
  0
VERTEX
  5
28C
  8
1
  6
CONTINUOUS
 62
     7
 10
604.1797127138822
 20
177.9091183654991
 30
0.0
  0
VERTEX
  5
28D
  8
1
  6
CONTINUOUS
 62
     7
 10
605.0502525316941
 20
177.2272776564645
 30
0.0
  0
VERTEX
  5
28E
  8
1
  6
CONTINUOUS
 62
     7
 10
606.1110083688628
 20
176.6677054478361
 30
0.0
  0
VERTEX
  5
28F
  8
1
  6
CONTINUOUS
 62
     7
 10
607.3212159734444
 20
176.2519057857801
 30
0.0
  0
VERTEX
  5
290
  8
1
  6
CONTINUOUS
 62
     7
 10
608.6343677458871
 20
175.9958576181258
 30
0.0
  0
VERTEX
  5
291
  8
1
  6
CONTINUOUS
 62
     7
 10
610.0
 20
175.909400732363
 30
0.0
  0
SEQEND
  5
51D
  8
1
  6
CONTINUOUS
 62
     7
  0
POLYLINE
  5
CD
  8
1
  6
CONTINUOUS
 62
     7
 66
     1
 10
0.0
 20
0.0
 30
0.0
  0
VERTEX
  5
292
  8
1
  6
CONTINUOUS
 62
     7
 10
610.0
 20
175.909400732363
 30
0.0
  0
VERTEX
  5
293
  8
1
  6
CONTINUOUS
 62
     7
 10
611.3656322541129
 20
175.9958576181258
 30
0.0
  0
VERTEX
  5
294
  8
1
  6
CONTINUOUS
 62
     7
 10
612.6787840265556
 20
176.2519057857801
 30
0.0
  0
VERTEX
  5
295
  8
1
  6
CONTINUOUS
 62
     7
 10
613.8889916311372
 20
176.6677054478361
 30
0.0
  0
VERTEX
  5
296
  8
1
  6
CONTINUOUS
 62
     7
 10
614.9497474683059
 20
177.2272776564645
 30
0.0
  0
VERTEX
  5
297
  8
1
  6
CONTINUOUS
 62
     7
 10
615.8202872861178
 20
177.9091183654991
 30
0.0
  0
VERTEX
  5
298
  8
1
  6
CONTINUOUS
 62
     7
 10
616.467156727579
 20
178.6870248188726
 30
0.0
  0
VERTEX
  5
299
  8
1
  6
CONTINUOUS
 62
     7
 10
616.8654969628226
 20
179.5311025078367
 30
0.0
  0
VERTEX
  5
29A
  8
1
  6
CONTINUOUS
 62
     7
 10
617.0
 20
180.4089140001688
 30
0.0
  0
SEQEND
  5
51E
  8
1
  6
CONTINUOUS
 62
     7
  0
LINE
  5
CE
  8
1
  6
CONTINUOUS
 62
     7
 10
607.5
 20
176.1824178417522
 30
0.0
 11
607.598761631126
 21
176.1824178417522
 31
0.0
  0
LINE
  5
CF
  8
1
  6
CONTINUOUS
 62
     7
 10
612.4012383688739
 20
176.1824178417522
 30
0.0
 11
612.4999999999999
 21
176.1824178417522
 31
0.0
  0
POLYLINE
  5
D0
  8
1
  6
CONTINUOUS
 62
     7
 66
     1
 10
0.0
 20
0.0
 30
0.0
  0
VERTEX
  5
29B
  8
1
  6
CONTINUOUS
 62
     7
 10
612.4999999999999
 20
176.1824178417521
 30
0.0
  0
VERTEX
  5
29C
  8
1
  6
CONTINUOUS
 62
     7
 10
612.5937557559149
 20
176.1881185947908
 30
0.0
  0
VERTEX
  5
29D
  8
1
  6
CONTINUOUS
 62
     7
 10
612.6841855086377
 20
176.2050186186135
 30
0.0
  0
VERTEX
  5
29E
  8
1
  6
CONTINUOUS
 62
     7
 10
612.7680812455691
 20
176.2325183816753
 30
0.0
  0
VERTEX
  5
29F
  8
1
  6
CONTINUOUS
 62
     7
 10
612.8424667495573
 20
176.2696423246749
 30
0.0
  0
VERTEX
  5
2A0
  8
1
  6
CONTINUOUS
 62
     7
 10
612.9047031807645
 20
176.3150734687058
 30
0.0
  0
SEQEND
  5
51F
  8
1
  6
CONTINUOUS
 62
     7
  0
POLYLINE
  5
D1
  8
1
  6
CONTINUOUS
 62
     7
 66
     1
 10
0.0
 20
0.0
 30
0.0
  0
VERTEX
  5
2A1
  8
1
  6
CONTINUOUS
 62
     7
 10
607.0952968192355
 20
176.3150734687059
 30
0.0
  0
VERTEX
  5
2A2
  8
1
  6
CONTINUOUS
 62
     7
 10
607.1575332504427
 20
176.269642324675
 30
0.0
  0
VERTEX
  5
2A3
  8
1
  6
CONTINUOUS
 62
     7
 10
607.2319187544308
 20
176.2325183816753
 30
0.0
  0
VERTEX
  5
2A4
  8
1
  6
CONTINUOUS
 62
     7
 10
607.3158144913623
 20
176.2050186186135
 30
0.0
  0
VERTEX
  5
2A5
  8
1
  6
CONTINUOUS
 62
     7
 10
607.4062442440851
 20
176.1881185947909
 30
0.0
  0
VERTEX
  5
2A6
  8
1
  6
CONTINUOUS
 62
     7
 10
607.5
 20
176.1824178417522
 30
0.0
  0
SEQEND
  5
520
  8
1
  6
CONTINUOUS
 62
     7
  0
ARC
  5
D2
  8
1
  6
CONTINUOUS
 62
     7
 10
610.0
 20
173.0462135125805
 30
0.0
 40
2.600000000000047
 50
180.0
 51
0.0
  0
ARC
  5
D3
  8
1
  6
CONTINUOUS
 62
     7
 10
610.0
 20
173.0462135125806
 30
0.0
 40
3.000000000000038
 50
150.0735651333857
 51
29.92643486661438
  0
ARC
  5
D4
  8
1
  6
CONTINUOUS
 62
     7
 10
610.0
 20
175.6553157257896
 30
0.0
 40
3.199999999999981
 50
166.9100444220733
 51
180.0
  0
ARC
  5
D5
  8
1
  6
CONTINUOUS
 62
     7
 10
610.0
 20
175.6553157257896
 30
0.0
 40
3.199999999999982
 50
0.0
 51
13.08995557792679
  0
POLYLINE
  5
D6
  8
1
  6
CONTINUOUS
 62
     7
 66
     1
 10
0.0
 20
0.0
 30
0.0
  0
VERTEX
  5
2A7
  8
1
  6
CONTINUOUS
 62
     7
 10
613.1999999999999
 20
170.2618782759456
 30
0.0
  0
VERTEX
  5
2A8
  8
1
  6
CONTINUOUS
 62
     7
 10
613.2192147195967
 20
170.1364766341839
 30
0.0
  0
VERTEX
  5
2A9
  8
1
  6
CONTINUOUS
 62
     7
 10
613.2761204674887
 20
170.015894107189
 30
0.0
  0
VERTEX
  5
2AA
  8
1
  6
CONTINUOUS
 62
     7
 10
613.3685303876974
 20
169.9047646138499
 30
0.0
  0
VERTEX
  5
2AB
  8
1
  6
CONTINUOUS
 62
     7
 10
613.4928932188134
 20
169.8073587982735
 30
0.0
  0
VERTEX
  5
2AC
  8
1
  6
CONTINUOUS
 62
     7
 10
613.6444297669804
 20
169.7274199113266
 30
0.0
  0
VERTEX
  5
2AD
  8
1
  6
CONTINUOUS
 62
     7
 10
613.8173165676349
 20
169.6680199596043
 30
0.0
  0
VERTEX
  5
2AE
  8
1
  6
CONTINUOUS
 62
     7
 10
614.0049096779838
 20
169.6314416499395
 30
0.0
  0
VERTEX
  5
2AF
  8
1
  6
CONTINUOUS
 62
     7
 10
614.1999999999999
 20
169.619090666259
 30
0.0
  0
SEQEND
  5
521
  8
1
  6
CONTINUOUS
 62
     7
  0
POLYLINE
  5
D7
  8
1
  6
CONTINUOUS
 62
     7
 66
     1
 10
0.0
 20
0.0
 30
0.0
  0
VERTEX
  5
2B0
  8
1
  6
CONTINUOUS
 62
     7
 10
613.1999999999999
 20
172.7132204939263
 30
0.0
  0
VERTEX
  5
2B1
  8
1
  6
CONTINUOUS
 62
     7
 10
613.2192147195967
 20
172.5878188521646
 30
0.0
  0
VERTEX
  5
2B2
  8
1
  6
CONTINUOUS
 62
     7
 10
613.2761204674887
 20
172.4672363251697
 30
0.0
  0
VERTEX
  5
2B3
  8
1
  6
CONTINUOUS
 62
     7
 10
613.3685303876973
 20
172.3561068318307
 30
0.0
  0
VERTEX
  5
2B4
  8
1
  6
CONTINUOUS
 62
     7
 10
613.4928932188134
 20
172.2587010162543
 30
0.0
  0
VERTEX
  5
2B5
  8
1
  6
CONTINUOUS
 62
     7
 10
613.6444297669802
 20
172.1787621293074
 30
0.0
  0
VERTEX
  5
2B6
  8
1
  6
CONTINUOUS
 62
     7
 10
613.8173165676347
 20
172.1193621775851
 30
0.0
  0
VERTEX
  5
2B7
  8
1
  6
CONTINUOUS
 62
     7
 10
614.0049096779836
 20
172.0827838679202
 30
0.0
  0
VERTEX
  5
2B8
  8
1
  6
CONTINUOUS
 62
     7
 10
614.1999999999998
 20
172.0704328842398
 30
0.0
  0
SEQEND
  5
522
  8
1
  6
CONTINUOUS
 62
     7
  0
POLYLINE
  5
D8
  8
1
  6
CONTINUOUS
 62
     7
 66
     1
 10
0.0
 20
0.0
 30
0.0
  0
VERTEX
  5
2B9
  8
1
  6
CONTINUOUS
 62
     7
 10
593.0
 20
175.2843709326724
 30
0.0
  0
VERTEX
  5
2BA
  8
1
  6
CONTINUOUS
 62
     7
 10
593.0960735979838
 20
174.6573627238638
 30
0.0
  0
VERTEX
  5
2BB
  8
1
  6
CONTINUOUS
 62
     7
 10
593.3806023374435
 20
174.0544500888894
 30
0.0
  0
VERTEX
  5
2BC
  8
1
  6
CONTINUOUS
 62
     7
 10
593.8426519384873
 20
173.4988026221941
 30
0.0
  0
VERTEX
  5
2BD
  8
1
  6
CONTINUOUS
 62
     7
 10
594.4644660940672
 20
173.0117735443122
 30
0.0
  0
VERTEX
  5
2BE
  8
1
  6
CONTINUOUS
 62
     7
 10
595.222148834902
 20
172.6120791095777
 30
0.0
  0
VERTEX
  5
2BF
  8
1
  6
CONTINUOUS
 62
     7
 10
596.0865828381745
 20
172.3150793509662
 30
0.0
  0
VERTEX
  5
2C0
  8
1
  6
CONTINUOUS
 62
     7
 10
597.0245483899193
 20
172.1321878026417
 30
0.0
  0
VERTEX
  5
2C1
  8
1
  6
CONTINUOUS
 62
     7
 10
598.0
 20
172.0704328842397
 30
0.0
  0
SEQEND
  5
523
  8
1
  6
CONTINUOUS
 62
     7
  0
POLYLINE
  5
D9
  8
1
  6
CONTINUOUS
 62
     7
 66
     1
 10
0.0
 20
0.0
 30
0.0
  0
VERTEX
  5
2C2
  8
1
  6
CONTINUOUS
 62
     7
 10
593.0
 20
172.8330287146917
 30
0.0
  0
VERTEX
  5
2C3
  8
1
  6
CONTINUOUS
 62
     7
 10
593.0960735979838
 20
172.2060205058831
 30
0.0
  0
VERTEX
  5
2C4
  8
1
  6
CONTINUOUS
 62
     7
 10
593.3806023374435
 20
171.6031078709087
 30
0.0
  0
VERTEX
  5
2C5
  8
1
  6
CONTINUOUS
 62
     7
 10
593.8426519384873
 20
171.0474604042134
 30
0.0
  0
VERTEX
  5
2C6
  8
1
  6
CONTINUOUS
 62
     7
 10
594.4644660940672
 20
170.5604313263315
 30
0.0
  0
VERTEX
  5
2C7
  8
1
  6
CONTINUOUS
 62
     7
 10
595.222148834902
 20
170.1607368915969
 30
0.0
  0
VERTEX
  5
2C8
  8
1
  6
CONTINUOUS
 62
     7
 10
596.0865828381745
 20
169.8637371329854
 30
0.0
  0
VERTEX
  5
2C9
  8
1
  6
CONTINUOUS
 62
     7
 10
597.0245483899193
 20
169.680845584661
 30
0.0
  0
VERTEX
  5
2CA
  8
1
  6
CONTINUOUS
 62
     7
 10
598.0
 20
169.619090666259
 30
0.0
  0
SEQEND
  5
524
  8
1
  6
CONTINUOUS
 62
     7
  0
LINE
  5
DA
  8
1
  6
CONTINUOUS
 62
     7
 10
598.0
 20
169.619090666259
 30
0.0
 11
605.8
 21
169.619090666259
 31
0.0
  0
LINE
  5
DB
  8
1
  6
CONTINUOUS
 62
     7
 10
598.0
 20
172.0704328842397
 30
0.0
 11
605.8
 21
172.0704328842397
 31
0.0
  0
LINE
  5
DC
  8
1
  6
CONTINUOUS
 62
     7
 10
622.0
 20
172.0704328842397
 30
0.0
 11
614.1999999999999
 21
172.0704328842397
 31
0.0
  0
LINE
  5
DD
  8
1
  6
CONTINUOUS
 62
     7
 10
622.0
 20
169.619090666259
 30
0.0
 11
614.1999999999999
 21
169.619090666259
 31
0.0
  0
POLYLINE
  5
DE
  8
1
  6
CONTINUOUS
 62
     7
 66
     1
 10
0.0
 20
0.0
 30
0.0
  0
VERTEX
  5
2CB
  8
1
  6
CONTINUOUS
 62
     7
 10
622.0
 20
169.619090666259
 30
0.0
  0
VERTEX
  5
2CC
  8
1
  6
CONTINUOUS
 62
     7
 10
622.9754516100805
 20
169.680845584661
 30
0.0
  0
VERTEX
  5
2CD
  8
1
  6
CONTINUOUS
 62
     7
 10
623.9134171618255
 20
169.8637371329854
 30
0.0
  0
VERTEX
  5
2CE
  8
1
  6
CONTINUOUS
 62
     7
 10
624.777851165098
 20
170.1607368915969
 30
0.0
  0
VERTEX
  5
2CF
  8
1
  6
CONTINUOUS
 62
     7
 10
625.5355339059328
 20
170.5604313263315
 30
0.0
  0
VERTEX
  5
2D0
  8
1
  6
CONTINUOUS
 62
     7
 10
626.1573480615127
 20
171.0474604042134
 30
0.0
  0
VERTEX
  5
2D1
  8
1
  6
CONTINUOUS
 62
     7
 10
626.6193976625565
 20
171.6031078709087
 30
0.0
  0
VERTEX
  5
2D2
  8
1
  6
CONTINUOUS
 62
     7
 10
626.9039264020162
 20
172.2060205058831
 30
0.0
  0
VERTEX
  5
2D3
  8
1
  6
CONTINUOUS
 62
     7
 10
627.0
 20
172.8330287146917
 30
0.0
  0
SEQEND
  5
525
  8
1
  6
CONTINUOUS
 62
     7
  0
POLYLINE
  5
DF
  8
1
  6
CONTINUOUS
 62
     7
 66
     1
 10
0.0
 20
0.0
 30
0.0
  0
VERTEX
  5
2D4
  8
1
  6
CONTINUOUS
 62
     7
 10
622.0
 20
172.0704328842397
 30
0.0
  0
VERTEX
  5
2D5
  8
1
  6
CONTINUOUS
 62
     7
 10
622.9754516100807
 20
172.1321878026417
 30
0.0
  0
VERTEX
  5
2D6
  8
1
  6
CONTINUOUS
 62
     7
 10
623.9134171618255
 20
172.3150793509662
 30
0.0
  0
VERTEX
  5
2D7
  8
1
  6
CONTINUOUS
 62
     7
 10
624.777851165098
 20
172.6120791095777
 30
0.0
  0
VERTEX
  5
2D8
  8
1
  6
CONTINUOUS
 62
     7
 10
625.5355339059328
 20
173.0117735443122
 30
0.0
  0
VERTEX
  5
2D9
  8
1
  6
CONTINUOUS
 62
     7
 10
626.1573480615127
 20
173.4988026221941
 30
0.0
  0
VERTEX
  5
2DA
  8
1
  6
CONTINUOUS
 62
     7
 10
626.6193976625565
 20
174.0544500888894
 30
0.0
  0
VERTEX
  5
2DB
  8
1
  6
CONTINUOUS
 62
     7
 10
626.9039264020162
 20
174.6573627238638
 30
0.0
  0
VERTEX
  5
2DC
  8
1
  6
CONTINUOUS
 62
     7
 10
627.0
 20
175.2843709326724
 30
0.0
  0
SEQEND
  5
526
  8
1
  6
CONTINUOUS
 62
     7
  0
POLYLINE
  5
E0
  8
1
  6
CONTINUOUS
 62
     7
 66
     1
 10
0.0
 20
0.0
 30
0.0
  0
VERTEX
  5
2DD
  8
1
  6
CONTINUOUS
 62
     7
 10
605.8000000000001
 20
172.0704328842398
 30
0.0
  0
VERTEX
  5
2DE
  8
1
  6
CONTINUOUS
 62
     7
 10
605.9950903220163
 20
172.0827838679202
 30
0.0
  0
VERTEX
  5
2DF
  8
1
  6
CONTINUOUS
 62
     7
 10
606.1826834323651
 20
172.1193621775851
 30
0.0
  0
VERTEX
  5
2E0
  8
1
  6
CONTINUOUS
 62
     7
 10
606.3555702330196
 20
172.1787621293074
 30
0.0
  0
VERTEX
  5
2E1
  8
1
  6
CONTINUOUS
 62
     7
 10
606.5071067811865
 20
172.2587010162543
 30
0.0
  0
VERTEX
  5
2E2
  8
1
  6
CONTINUOUS
 62
     7
 10
606.6314696123026
 20
172.3561068318307
 30
0.0
  0
VERTEX
  5
2E3
  8
1
  6
CONTINUOUS
 62
     7
 10
606.7238795325112
 20
172.4672363251697
 30
0.0
  0
VERTEX
  5
2E4
  8
1
  6
CONTINUOUS
 62
     7
 10
606.7807852804032
 20
172.5878188521646
 30
0.0
  0
VERTEX
  5
2E5
  8
1
  6
CONTINUOUS
 62
     7
 10
606.8
 20
172.7132204939263
 30
0.0
  0
SEQEND
  5
527
  8
1
  6
CONTINUOUS
 62
     7
  0
POLYLINE
  5
E1
  8
1
  6
CONTINUOUS
 62
     7
 66
     1
 10
0.0
 20
0.0
 30
0.0
  0
VERTEX
  5
2E6
  8
1
  6
CONTINUOUS
 62
     7
 10
605.8
 20
169.619090666259
 30
0.0
  0
VERTEX
  5
2E7
  8
1
  6
CONTINUOUS
 62
     7
 10
605.995090322016
 20
169.6314416499395
 30
0.0
  0
VERTEX
  5
2E8
  8
1
  6
CONTINUOUS
 62
     7
 10
606.182683432365
 20
169.6680199596043
 30
0.0
  0
VERTEX
  5
2E9
  8
1
  6
CONTINUOUS
 62
     7
 10
606.3555702330195
 20
169.7274199113266
 30
0.0
  0
VERTEX
  5
2EA
  8
1
  6
CONTINUOUS
 62
     7
 10
606.5071067811865
 20
169.8073587982735
 30
0.0
  0
VERTEX
  5
2EB
  8
1
  6
CONTINUOUS
 62
     7
 10
606.6314696123025
 20
169.9047646138499
 30
0.0
  0
VERTEX
  5
2EC
  8
1
  6
CONTINUOUS
 62
     7
 10
606.7238795325112
 20
170.015894107189
 30
0.0
  0
VERTEX
  5
2ED
  8
1
  6
CONTINUOUS
 62
     7
 10
606.7807852804032
 20
170.1364766341839
 30
0.0
  0
VERTEX
  5
2EE
  8
1
  6
CONTINUOUS
 62
     7
 10
606.8
 20
170.2618782759456
 30
0.0
  0
SEQEND
  5
528
  8
1
  6
CONTINUOUS
 62
     7
  0
POLYLINE
  5
E2
  8
1
  6
CONTINUOUS
 62
     7
 66
     1
 10
0.0
 20
0.0
 30
0.0
  0
VERTEX
  5
2EF
  8
1
  6
CONTINUOUS
 62
     7
 10
620.2784997659176
 20
153.7529543932876
 30
0.0
  0
VERTEX
  5
2F0
  8
1
  6
CONTINUOUS
 62
     7
 10
620.2704765409753
 20
153.7684459644499
 30
0.0
  0
VERTEX
  5
2F1
  8
1
  6
CONTINUOUS
 62
     7
 10
620.2466643547021
 20
153.7834403661716
 30
0.0
  0
SEQEND
  5
529
  8
1
  6
CONTINUOUS
 62
     7
  0
LINE
  5
E3
  8
1
  6
CONTINUOUS
 62
     7
 10
617.4999999999999
 20
155.0553157257896
 30
0.0
 11
620.2466643547021
 21
153.7834403661716
 31
0.0
  0
POLYLINE
  5
E4
  8
1
  6
CONTINUOUS
 62
     7
 66
     1
 10
0.0
 20
0.0
 30
0.0
  0
VERTEX
  5
2F2
  8
1
  6
CONTINUOUS
 62
     7
 10
624.0
 20
151.582352172451
 30
0.0
  0
VERTEX
  5
2F3
  8
1
  6
CONTINUOUS
 62
     7
 10
624.5852709660484
 20
151.5923619755781
 30
0.0
  0
VERTEX
  5
2F4
  8
1
  6
CONTINUOUS
 62
     7
 10
625.1480502970953
 20
151.6220067138387
 30
0.0
  0
VERTEX
  5
2F5
  8
1
  6
CONTINUOUS
 62
     7
 10
625.6667106990589
 20
151.6701471565665
 30
0.0
  0
VERTEX
  5
2F6
  8
1
  6
CONTINUOUS
 62
     7
 10
626.1213203435597
 20
151.7349332935449
 30
0.0
  0
VERTEX
  5
2F7
  8
1
  6
CONTINUOUS
 62
     7
 10
626.4944088369076
 20
151.8138754298622
 30
0.0
  0
VERTEX
  5
2F8
  8
1
  6
CONTINUOUS
 62
     7
 10
626.7716385975339
 20
151.9039398634912
 30
0.0
  0
VERTEX
  5
2F9
  8
1
  6
CONTINUOUS
 62
     7
 10
626.9423558412097
 20
152.0016654687561
 30
0.0
  0
VERTEX
  5
2FA
  8
1
  6
CONTINUOUS
 62
     7
 10
627.0
 20
152.1032967054518
 30
0.0
  0
SEQEND
  5
52A
  8
1
  6
CONTINUOUS
 62
     7
  0
LINE
  5
E5
  8
1
  6
CONTINUOUS
 62
     7
 10
624.0
 20
151.582352172451
 30
0.0
 11
620.0
 21
151.582352172451
 31
0.0
  0
LINE
  5
E6
  8
1
  6
CONTINUOUS
 62
     7
 10
600.0
 20
151.582352172451
 30
0.0
 11
596.0
 21
151.582352172451
 31
0.0
  0
POLYLINE
  5
E7
  8
1
  6
CONTINUOUS
 62
     7
 66
     1
 10
0.0
 20
0.0
 30
0.0
  0
VERTEX
  5
2FB
  8
1
  6
CONTINUOUS
 62
     7
 10
593.0
 20
152.1032967054518
 30
0.0
  0
VERTEX
  5
2FC
  8
1
  6
CONTINUOUS
 62
     7
 10
593.0576441587903
 20
152.0016654687561
 30
0.0
  0
VERTEX
  5
2FD
  8
1
  6
CONTINUOUS
 62
     7
 10
593.2283614024661
 20
151.9039398634912
 30
0.0
  0
VERTEX
  5
2FE
  8
1
  6
CONTINUOUS
 62
     7
 10
593.5055911630924
 20
151.8138754298622
 30
0.0
  0
VERTEX
  5
2FF
  8
1
  6
CONTINUOUS
 62
     7
 10
593.8786796564403
 20
151.7349332935449
 30
0.0
  0
VERTEX
  5
300
  8
1
  6
CONTINUOUS
 62
     7
 10
594.3332893009411
 20
151.6701471565665
 30
0.0
  0
VERTEX
  5
301
  8
1
  6
CONTINUOUS
 62
     7
 10
594.8519497029047
 20
151.6220067138387
 30
0.0
  0
VERTEX
  5
302
  8
1
  6
CONTINUOUS
 62
     7
 10
595.4147290339516
 20
151.5923619755781
 30
0.0
  0
VERTEX
  5
303
  8
1
  6
CONTINUOUS
 62
     7
 10
596.0
 20
151.582352172451
 30
0.0
  0
SEQEND
  5
52B
  8
1
  6
CONTINUOUS
 62
     7
  0
LINE
  5
E8
  8
1
  6
CONTINUOUS
 62
     7
 10
602.5
 20
155.0553157257896
 30
0.0
 11
599.7533356452979
 21
153.7834403661716
 31
0.0
  0
POLYLINE
  5
E9
  8
1
  6
CONTINUOUS
 62
     7
 66
     1
 10
0.0
 20
0.0
 30
0.0
  0
VERTEX
  5
304
  8
1
  6
CONTINUOUS
 62
     7
 10
599.7533356452977
 20
153.7834403661716
 30
0.0
  0
VERTEX
  5
305
  8
1
  6
CONTINUOUS
 62
     7
 10
599.7295234590246
 20
153.7684459644499
 30
0.0
  0
VERTEX
  5
306
  8
1
  6
CONTINUOUS
 62
     7
 10
599.7215002340823
 20
153.7529543932876
 30
0.0
  0
SEQEND
  5
52C
  8
1
  6
CONTINUOUS
 62
     7
  0
LINE
  5
EA
  8
1
  6
CONTINUOUS
 62
     7
 10
600.2215002340822
 20
153.6661303044541
 30
0.0
 11
619.7784997659177
 21
153.6661303044541
 31
0.0
  0
LINE
  5
EB
  8
1
  6
CONTINUOUS
 62
     7
 10
599.5
 20
152.3637689719521
 30
0.0
 11
600.0
 21
152.3637689719521
 31
0.0
  0
LINE
  5
EC
  8
1
  6
CONTINUOUS
 62
     7
 10
620.0
 20
152.3637689719521
 30
0.0
 11
620.4999999999999
 21
152.3637689719521
 31
0.0
  0
LINE
  5
ED
  8
1
  6
CONTINUOUS
 62
     7
 10
620.4999999999999
 20
152.8847135049529
 30
0.0
 11
620.4999999999999
 21
152.3637689719521
 31
0.0
  0
LINE
  5
EE
  8
1
  6
CONTINUOUS
 62
     7
 10
599.5
 20
152.8847135049529
 30
0.0
 11
620.4999999999999
 21
152.8847135049529
 31
0.0
  0
LINE
  5
EF
  8
1
  6
CONTINUOUS
 62
     7
 10
599.5
 20
152.8847135049529
 30
0.0
 11
599.5
 21
152.3637689719521
 31
0.0
  0
LINE
  5
F0
  8
1
  6
CONTINUOUS
 62
     7
 10
624.0
 20
148.4309673628119
 30
0.0
 11
620.0
 21
148.4309673628119
 31
0.0
  0
LINE
  5
F1
  8
1
  6
CONTINUOUS
 62
     7
 10
600.0
 20
148.4309673628119
 30
0.0
 11
596.0
 21
148.4309673628119
 31
0.0
  0
POLYLINE
  5
F2
  8
1
  6
CONTINUOUS
 62
     7
 66
     1
 10
0.0
 20
0.0
 30
0.0
  0
VERTEX
  5
307
  8
1
  6
CONTINUOUS
 62
     7
 10
593.0
 20
148.9519118958127
 30
0.0
  0
VERTEX
  5
308
  8
1
  6
CONTINUOUS
 62
     7
 10
593.0576441587903
 20
148.850280659117
 30
0.0
  0
VERTEX
  5
309
  8
1
  6
CONTINUOUS
 62
     7
 10
593.2283614024661
 20
148.7525550538521
 30
0.0
  0
VERTEX
  5
30A
  8
1
  6
CONTINUOUS
 62
     7
 10
593.5055911630924
 20
148.6624906202231
 30
0.0
  0
VERTEX
  5
30B
  8
1
  6
CONTINUOUS
 62
     7
 10
593.8786796564403
 20
148.5835484839058
 30
0.0
  0
VERTEX
  5
30C
  8
1
  6
CONTINUOUS
 62
     7
 10
594.3332893009411
 20
148.5187623469274
 30
0.0
  0
VERTEX
  5
30D
  8
1
  6
CONTINUOUS
 62
     7
 10
594.8519497029047
 20
148.4706219041996
 30
0.0
  0
VERTEX
  5
30E
  8
1
  6
CONTINUOUS
 62
     7
 10
595.4147290339516
 20
148.440977165939
 30
0.0
  0
VERTEX
  5
30F
  8
1
  6
CONTINUOUS
 62
     7
 10
596.0
 20
148.4309673628119
 30
0.0
  0
SEQEND
  5
52D
  8
1
  6
CONTINUOUS
 62
     7
  0
POLYLINE
  5
F3
  8
1
  6
CONTINUOUS
 62
     7
 66
     1
 10
0.0
 20
0.0
 30
0.0
  0
VERTEX
  5
310
  8
1
  6
CONTINUOUS
 62
     7
 10
624.0
 20
148.4309673628119
 30
0.0
  0
VERTEX
  5
311
  8
1
  6
CONTINUOUS
 62
     7
 10
624.5852709660484
 20
148.440977165939
 30
0.0
  0
VERTEX
  5
312
  8
1
  6
CONTINUOUS
 62
     7
 10
625.1480502970953
 20
148.4706219041996
 30
0.0
  0
VERTEX
  5
313
  8
1
  6
CONTINUOUS
 62
     7
 10
625.6667106990589
 20
148.5187623469274
 30
0.0
  0
VERTEX
  5
314
  8
1
  6
CONTINUOUS
 62
     7
 10
626.1213203435597
 20
148.5835484839058
 30
0.0
  0
VERTEX
  5
315
  8
1
  6
CONTINUOUS
 62
     7
 10
626.4944088369076
 20
148.6624906202231
 30
0.0
  0
VERTEX
  5
316
  8
1
  6
CONTINUOUS
 62
     7
 10
626.7716385975339
 20
148.7525550538521
 30
0.0
  0
VERTEX
  5
317
  8
1
  6
CONTINUOUS
 62
     7
 10
626.9423558412097
 20
148.850280659117
 30
0.0
  0
VERTEX
  5
318
  8
1
  6
CONTINUOUS
 62
     7
 10
627.0
 20
148.9519118958127
 30
0.0
  0
SEQEND
  5
52E
  8
1
  6
CONTINUOUS
 62
     7
  0
POLYLINE
  5
F4
  8
1
  6
CONTINUOUS
 62
     7
 66
     1
 10
0.0
 20
0.0
 30
0.0
  0
VERTEX
  5
319
  8
1
  6
CONTINUOUS
 62
     7
 10
619.7784997659177
 20
153.6661303044541
 30
0.0
  0
VERTEX
  5
31A
  8
1
  6
CONTINUOUS
 62
     7
 10
619.8760449269257
 20
153.6677986049753
 30
0.0
  0
VERTEX
  5
31B
  8
1
  6
CONTINUOUS
 62
     7
 10
619.9698414821002
 20
153.6727393946854
 30
0.0
  0
VERTEX
  5
31C
  8
1
  6
CONTINUOUS
 62
     7
 10
620.0562848824275
 20
153.6807628018067
 30
0.0
  0
VERTEX
  5
31D
  8
1
  6
CONTINUOUS
 62
     7
 10
620.1320531565109
 20
153.6915604913031
 30
0.0
  0
VERTEX
  5
31E
  8
1
  6
CONTINUOUS
 62
     7
 10
620.1942345720689
 20
153.7047175140227
 30
0.0
  0
VERTEX
  5
31F
  8
1
  6
CONTINUOUS
 62
     7
 10
620.2404395321732
 20
153.7197282529608
 30
0.0
  0
VERTEX
  5
320
  8
1
  6
CONTINUOUS
 62
     7
 10
620.2688924061192
 20
153.7360158538383
 30
0.0
  0
VERTEX
  5
321
  8
1
  6
CONTINUOUS
 62
     7
 10
620.2784997659176
 20
153.7529543932876
 30
0.0
  0
SEQEND
  5
52F
  8
1
  6
CONTINUOUS
 62
     7
  0
POLYLINE
  5
F5
  8
1
  6
CONTINUOUS
 62
     7
 66
     1
 10
0.0
 20
0.0
 30
0.0
  0
VERTEX
  5
322
  8
1
  6
CONTINUOUS
 62
     7
 10
599.7215002340823
 20
153.7529543932876
 30
0.0
  0
VERTEX
  5
323
  8
1
  6
CONTINUOUS
 62
     7
 10
599.7311075938807
 20
153.7360158538383
 30
0.0
  0
VERTEX
  5
324
  8
1
  6
CONTINUOUS
 62
     7
 10
599.7595604678266
 20
153.7197282529608
 30
0.0
  0
VERTEX
  5
325
  8
1
  6
CONTINUOUS
 62
     7
 10
599.805765427931
 20
153.7047175140227
 30
0.0
  0
VERTEX
  5
326
  8
1
  6
CONTINUOUS
 62
     7
 10
599.867946843489
 20
153.6915604913031
 30
0.0
  0
VERTEX
  5
327
  8
1
  6
CONTINUOUS
 62
     7
 10
599.9437151175724
 20
153.6807628018067
 30
0.0
  0
VERTEX
  5
328
  8
1
  6
CONTINUOUS
 62
     7
 10
600.0301585178997
 20
153.6727393946854
 30
0.0
  0
VERTEX
  5
329
  8
1
  6
CONTINUOUS
 62
     7
 10
600.1239550730742
 20
153.6677986049753
 30
0.0
  0
VERTEX
  5
32A
  8
1
  6
CONTINUOUS
 62
     7
 10
600.2215002340822
 20
153.6661303044541
 30
0.0
  0
SEQEND
  5
530
  8
1
  6
CONTINUOUS
 62
     7
  0
LINE
  5
F6
  8
1
  6
CONTINUOUS
 62
     7
 10
617.4999999999999
 20
153.6661303044541
 30
0.0
 11
617.4999999999999
 21
154.5553157257896
 31
0.0
  0
POLYLINE
  5
F7
  8
1
  6
CONTINUOUS
 62
     7
 66
     1
 10
0.0
 20
0.0
 30
0.0
  0
VERTEX
  5
32B
  8
1
  6
CONTINUOUS
 62
     7
 10
617.0
 20
155.0553157257896
 30
0.0
  0
VERTEX
  5
32C
  8
1
  6
CONTINUOUS
 62
     7
 10
617.0245338371637
 20
155.0547134538922
 30
0.0
  0
VERTEX
  5
32D
  8
1
  6
CONTINUOUS
 62
     7
 10
617.0490085701648
 20
155.0529080891257
 30
0.0
  0
VERTEX
  5
32E
  8
1
  6
CONTINUOUS
 62
     7
 10
617.0733652372277
 20
155.049903980772
 30
0.0
  0
VERTEX
  5
32F
  8
1
  6
CONTINUOUS
 62
     7
 10
617.097545161008
 20
155.0457083659912
 30
0.0
  0
VERTEX
  5
330
  8
1
  6
CONTINUOUS
 62
     7
 10
617.1214900899516
 20
155.0403313523868
 30
0.0
  0
VERTEX
  5
331
  8
1
  6
CONTINUOUS
 62
     7
 10
617.1451423386271
 20
155.0337858936557
 30
0.0
  0
VERTEX
  5
332
  8
1
  6
CONTINUOUS
 62
     7
 10
617.1684449266961
 20
155.0260877583811
 30
0.0
  0
VERTEX
  5
333
  8
1
  6
CONTINUOUS
 62
     7
 10
617.1913417161825
 20
155.0172554920452
 30
0.0
  0
VERTEX
  5
334
  8
1
  6
CONTINUOUS
 62
     7
 10
617.2137775467152
 20
155.0073103723513
 30
0.0
  0
VERTEX
  5
335
  8
1
  6
CONTINUOUS
 62
     7
 10
617.235698368413
 20
154.9962763579638
 30
0.0
  0
VERTEX
  5
336
  8
1
  6
CONTINUOUS
 62
     7
 10
617.2570513720966
 20
154.9841800307897
 30
0.0
  0
VERTEX
  5
337
  8
1
  6
CONTINUOUS
 62
     7
 10
617.2777851165098
 20
154.9710505319408
 30
0.0
  0
VERTEX
  5
338
  8
1
  6
CONTINUOUS
 62
     7
 10
617.2978496522462
 20
154.9569194915299
 30
0.0
  0
VERTEX
  5
339
  8
1
  6
CONTINUOUS
 62
     7
 10
617.3171966420819
 20
154.9418209524709
 30
0.0
  0
VERTEX
  5
33A
  8
1
  6
CONTINUOUS
 62
     7
 10
617.3357794774234
 20
154.9257912884671
 30
0.0
  0
VERTEX
  5
33B
  8
1
  6
CONTINUOUS
 62
     7
 10
617.3535533905932
 20
154.9088691163828
 30
0.0
  0
VERTEX
  5
33C
  8
1
  6
CONTINUOUS
 62
     7
 10
617.3704755626774
 20
154.8910952032131
 30
0.0
  0
VERTEX
  5
33D
  8
1
  6
CONTINUOUS
 62
     7
 10
617.3865052266814
 20
154.8725123678714
 30
0.0
  0
VERTEX
  5
33E
  8
1
  6
CONTINUOUS
 62
     7
 10
617.4016037657402
 20
154.8531653780358
 30
0.0
  0
VERTEX
  5
33F
  8
1
  6
CONTINUOUS
 62
     7
 10
617.4157348061512
 20
154.8331008422994
 30
0.0
  0
VERTEX
  5
340
  8
1
  6
CONTINUOUS
 62
     7
 10
617.428864305
 20
154.8123670978862
 30
0.0
  0
VERTEX
  5
341
  8
1
  6
CONTINUOUS
 62
     7
 10
617.4409606321741
 20
154.7910140942026
 30
0.0
  0
VERTEX
  5
342
  8
1
  6
CONTINUOUS
 62
     7
 10
617.4519946465617
 20
154.7690932725047
 30
0.0
  0
VERTEX
  5
343
  8
1
  6
CONTINUOUS
 62
     7
 10
617.4619397662556
 20
154.7466574419721
 30
0.0
  0
VERTEX
  5
344
  8
1
  6
CONTINUOUS
 62
     7
 10
617.4707720325915
 20
154.7237606524857
 30
0.0
  0
VERTEX
  5
345
  8
1
  6
CONTINUOUS
 62
     7
 10
617.478470167866
 20
154.7004580644168
 30
0.0
  0
VERTEX
  5
346
  8
1
  6
CONTINUOUS
 62
     7
 10
617.4850156265973
 20
154.6768058157412
 30
0.0
  0
VERTEX
  5
347
  8
1
  6
CONTINUOUS
 62
     7
 10
617.4903926402015
 20
154.6528608867976
 30
0.0
  0
VERTEX
  5
348
  8
1
  6
CONTINUOUS
 62
     7
 10
617.4945882549823
 20
154.6286809630173
 30
0.0
  0
VERTEX
  5
349
  8
1
  6
CONTINUOUS
 62
     7
 10
617.4975923633361
 20
154.6043242959544
 30
0.0
  0
VERTEX
  5
34A
  8
1
  6
CONTINUOUS
 62
     7
 10
617.4993977281026
 20
154.5798495629533
 30
0.0
  0
VERTEX
  5
34B
  8
1
  6
CONTINUOUS
 62
     7
 10
617.4999999999999
 20
154.5553157257896
 30
0.0
  0
SEQEND
  5
531
  8
1
  6
CONTINUOUS
 62
     7
  0
POLYLINE
  5
F8
  8
1
  6
CONTINUOUS
 62
     7
 66
     1
 10
0.0
 20
0.0
 30
0.0
  0
VERTEX
  5
34C
  8
1
  6
CONTINUOUS
 62
     7
 10
603.0
 20
155.0553157257896
 30
0.0
  0
VERTEX
  5
34D
  8
1
  6
CONTINUOUS
 62
     7
 10
602.9754661628363
 20
155.0547134538922
 30
0.0
  0
VERTEX
  5
34E
  8
1
  6
CONTINUOUS
 62
     7
 10
602.9509914298352
 20
155.0529080891257
 30
0.0
  0
VERTEX
  5
34F
  8
1
  6
CONTINUOUS
 62
     7
 10
602.9266347627723
 20
155.049903980772
 30
0.0
  0
VERTEX
  5
350
  8
1
  6
CONTINUOUS
 62
     7
 10
602.902454838992
 20
155.0457083659912
 30
0.0
  0
VERTEX
  5
351
  8
1
  6
CONTINUOUS
 62
     7
 10
602.8785099100484
 20
155.0403313523868
 30
0.0
  0
VERTEX
  5
352
  8
1
  6
CONTINUOUS
 62
     7
 10
602.8548576613728
 20
155.0337858936557
 30
0.0
  0
VERTEX
  5
353
  8
1
  6
CONTINUOUS
 62
     7
 10
602.8315550733039
 20
155.0260877583811
 30
0.0
  0
VERTEX
  5
354
  8
1
  6
CONTINUOUS
 62
     7
 10
602.8086582838174
 20
155.0172554920452
 30
0.0
  0
VERTEX
  5
355
  8
1
  6
CONTINUOUS
 62
     7
 10
602.7862224532848
 20
155.0073103723513
 30
0.0
  0
VERTEX
  5
356
  8
1
  6
CONTINUOUS
 62
     7
 10
602.764301631587
 20
154.9962763579638
 30
0.0
  0
VERTEX
  5
357
  8
1
  6
CONTINUOUS
 62
     7
 10
602.7429486279033
 20
154.9841800307897
 30
0.0
  0
VERTEX
  5
358
  8
1
  6
CONTINUOUS
 62
     7
 10
602.7222148834902
 20
154.9710505319408
 30
0.0
  0
VERTEX
  5
359
  8
1
  6
CONTINUOUS
 62
     7
 10
602.7021503477538
 20
154.9569194915299
 30
0.0
  0
VERTEX
  5
35A
  8
1
  6
CONTINUOUS
 62
     7
 10
602.6828033579181
 20
154.9418209524709
 30
0.0
  0
VERTEX
  5
35B
  8
1
  6
CONTINUOUS
 62
     7
 10
602.6642205225764
 20
154.9257912884671
 30
0.0
  0
VERTEX
  5
35C
  8
1
  6
CONTINUOUS
 62
     7
 10
602.6464466094067
 20
154.9088691163828
 30
0.0
  0
VERTEX
  5
35D
  8
1
  6
CONTINUOUS
 62
     7
 10
602.6295244373225
 20
154.8910952032131
 30
0.0
  0
VERTEX
  5
35E
  8
1
  6
CONTINUOUS
 62
     7
 10
602.6134947733186
 20
154.8725123678714
 30
0.0
  0
VERTEX
  5
35F
  8
1
  6
CONTINUOUS
 62
     7
 10
602.5983962342597
 20
154.8531653780358
 30
0.0
  0
VERTEX
  5
360
  8
1
  6
CONTINUOUS
 62
     7
 10
602.5842651938486
 20
154.8331008422994
 30
0.0
  0
VERTEX
  5
361
  8
1
  6
CONTINUOUS
 62
     7
 10
602.5711356949998
 20
154.8123670978862
 30
0.0
  0
VERTEX
  5
362
  8
1
  6
CONTINUOUS
 62
     7
 10
602.5590393678258
 20
154.7910140942026
 30
0.0
  0
VERTEX
  5
363
  8
1
  6
CONTINUOUS
 62
     7
 10
602.5480053534382
 20
154.7690932725047
 30
0.0
  0
VERTEX
  5
364
  8
1
  6
CONTINUOUS
 62
     7
 10
602.5380602337443
 20
154.7466574419721
 30
0.0
  0
VERTEX
  5
365
  8
1
  6
CONTINUOUS
 62
     7
 10
602.5292279674085
 20
154.7237606524857
 30
0.0
  0
VERTEX
  5
366
  8
1
  6
CONTINUOUS
 62
     7
 10
602.5215298321339
 20
154.7004580644168
 30
0.0
  0
VERTEX
  5
367
  8
1
  6
CONTINUOUS
 62
     7
 10
602.5149843734026
 20
154.6768058157412
 30
0.0
  0
VERTEX
  5
368
  8
1
  6
CONTINUOUS
 62
     7
 10
602.5096073597985
 20
154.6528608867976
 30
0.0
  0
VERTEX
  5
369
  8
1
  6
CONTINUOUS
 62
     7
 10
602.5054117450176
 20
154.6286809630173
 30
0.0
  0
VERTEX
  5
36A
  8
1
  6
CONTINUOUS
 62
     7
 10
602.5024076366639
 20
154.6043242959544
 30
0.0
  0
VERTEX
  5
36B
  8
1
  6
CONTINUOUS
 62
     7
 10
602.5006022718974
 20
154.5798495629533
 30
0.0
  0
VERTEX
  5
36C
  8
1
  6
CONTINUOUS
 62
     7
 10
602.5
 20
154.5553157257896
 30
0.0
  0
SEQEND
  5
532
  8
1
  6
CONTINUOUS
 62
     7
  0
LINE
  5
F9
  8
1
  6
CONTINUOUS
 62
     7
 10
602.5
 20
153.6661303044541
 30
0.0
 11
602.5
 21
154.5553157257896
 31
0.0
  0
LINE
  5
FA
  8
1
  6
CONTINUOUS
 62
     7
 10
618.7763932022501
 20
186.0208151982501
 30
0.0
 11
618.1617834407456
 21
186.0553157257896
 31
0.0
  0
LINE
  5
FB
  8
1
  6
CONTINUOUS
 62
     7
 10
600.7763932022502
 20
186.0208151982501
 30
0.0
 11
600.1617834407456
 21
186.0553157257896
 31
0.0
  0
LINE
  5
FC
  8
1
  6
CONTINUOUS
 62
     7
 10
619.22360679775
 20
186.0208151982501
 30
0.0
 11
618.77639320225
 21
186.0208151982501
 31
0.0
  0
LINE
  5
FD
  8
1
  6
CONTINUOUS
 62
     7
 10
619.8382165592545
 20
186.0553157257896
 30
0.0
 11
619.2236067977499
 21
186.0208151982501
 31
0.0
  0
LINE
  5
FE
  8
1
  6
CONTINUOUS
 62
     7
 10
601.22360679775
 20
186.0208151982501
 30
0.0
 11
600.77639320225
 21
186.0208151982501
 31
0.0
  0
LINE
  5
FF
  8
1
  6
CONTINUOUS
 62
     7
 10
601.8382165592544
 20
186.0553157257896
 30
0.0
 11
601.2236067977499
 21
186.0208151982501
 31
0.0
  0
ARC
  5
100
  8
1
  6
CONTINUOUS
 62
     7
 10
599.0
 20
171.0553157257896
 30
0.0
 40
1.999999999999988
 50
225.4710554572798
 51
314.1011335330016
  0
ARC
  5
101
  8
1
  6
CONTINUOUS
 62
     7
 10
610.0
 20
165.0553157257895
 30
0.0
 40
3.199999999999981
 50
179.999999999998
 51
0.0
  0
ARC
  5
102
  8
1
  6
CONTINUOUS
 62
     7
 10
621.0
 20
171.0553157257896
 30
0.0
 40
2.000000000000029
 50
225.8988664669984
 51
314.5289445427134
  0
ARC
  5
103
  8
1
  6
CONTINUOUS
 62
     7
 10
599.1999999999999
 20
64.3553157257896
 30
0.0
 40
0.3000000000000086
 50
270.0000000000003
 51
359.9999999999974
  0
ARC
  5
104
  8
1
  6
CONTINUOUS
 62
     7
 10
620.8
 20
64.3553157257896
 30
0.0
 40
0.300000000000078
 50
180.0000000000026
 51
269.9999999999997
  0
LINE
  5
105
  8
1
  6
CONTINUOUS
 62
     7
 10
620.8
 20
64.05531572578958
 30
0.0
 11
621.8
 21
64.05531572578958
 31
0.0
  0
ARC
  5
106
  8
1
  6
CONTINUOUS
 62
     7
 10
621.8
 20
64.35531572578958
 30
0.0
 40
0.2999999999999947
 50
270.0
 51
0.0
  0
ARC
  5
107
  8
1
  6
CONTINUOUS
 62
     7
 10
598.1999999999999
 20
64.35531572578958
 30
0.0
 40
0.299999999999967
 50
180.0
 51
270.0
  0
LINE
  5
108
  8
1
  6
CONTINUOUS
 62
     7
 10
598.1999999999999
 20
64.05531572578958
 30
0.0
 11
599.1999999999999
 21
64.05531572578958
 31
0.0
  0
LINE
  5
109
  8
1
  6
CONTINUOUS
 62
     7
 10
599.4999999999999
 20
64.55531572578958
 30
0.0
 11
600.0
 21
64.55531572578958
 31
0.0
  0
LINE
  5
10A
  8
1
  6
CONTINUOUS
 62
     7
 10
620.0
 20
64.55531572578958
 30
0.0
 11
620.5
 21
64.55531572578958
 31
0.0
  0
LINE
  5
10B
  8
1
  6
CONTINUOUS
 62
     7
 10
620.0
 20
152.7637689719521
 30
0.0
 11
600.0
 21
152.7637689719521
 31
0.0
  0
LINE
  5
10C
  8
1
  6
CONTINUOUS
 62
     7
 10
603.0
 20
180.7919362217283
 30
0.0
 11
603.0
 21
180.4089140001687
 31
0.0
  0
LINE
  5
10D
  8
1
  6
CONTINUOUS
 62
     7
 10
617.0
 20
180.4089140001687
 30
0.0
 11
617.0
 21
180.7919362217283
 31
0.0
  0
LINE
  5
10E
  8
1
  6
CONTINUOUS
 62
     7
 10
600.1617834407456
 20
186.0553157257896
 30
0.0
 11
593.0
 21
186.0553157257896
 31
0.0
  0
LINE
  5
10F
  8
1
  6
CONTINUOUS
 62
     7
 10
618.1617834407456
 20
186.0553157257896
 30
0.0
 11
601.8382165592544
 21
186.0553157257896
 31
0.0
  0
LINE
  5
110
  8
1
  6
CONTINUOUS
 62
     7
 10
627.0
 20
186.0553157257896
 30
0.0
 11
619.8382165592544
 21
186.0553157257896
 31
0.0
  0
ENDBLK
  8
0
  0
BLOCK
  8
0
  2
D_FRAME_VIEW_1933
 70
     0
 10
0.0
 20
0.0
 30
0.0
  0
LINE
  5
115
  8
1
  6
CONTINUOUS
 62
     7
 10
758.3794600215765
 20
313.2
 30
0.0
 11
758.3794600215765
 21
306.8000000000001
 31
0.0
  0
LINE
  5
116
  8
1
  6
CONTINUOUS
 62
     7
 10
522.3794600215754
 20
320.5000000000002
 30
0.0
 11
522.3794600215754
 21
299.5000000000001
 31
0.0
  0
CIRCLE
  5
117
  8
1
  6
CONTINUOUS
 62
     7
 10
725.8794600215759
 20
310.0000000000001
 30
0.0
 40
3.499999999999948
  0
CIRCLE
  5
118
  8
1
  6
CONTINUOUS
 62
     7
 10
740.8794600215759
 20
310.0000000000001
 30
0.0
 40
3.500000000000059
  0
LINE
  5
119
  8
1
  6
CONTINUOUS
 62
     7
 10
758.279460021576
 20
313.2
 30
0.0
 11
758.279460021576
 21
306.8000000000001
 31
0.0
  0
LINE
  5
11A
  8
1
  6
CONTINUOUS
 62
     7
 10
716.8794600215759
 20
315.0000000000001
 30
0.0
 11
716.8794600215759
 21
305.0000000000001
 31
0.0
  0
ARC
  5
11B
  8
1
  6
CONTINUOUS
 62
     7
 10
721.8794600215759
 20
315.0000000000001
 30
0.0
 40
5.000000000000004
 50
90.0
 51
180.0
  0
ARC
  5
11C
  8
1
  6
CONTINUOUS
 62
     7
 10
721.8794600215759
 20
305.0000000000001
 30
0.0
 40
5.000000000000004
 50
180.0
 51
270.0
  0
CIRCLE
  5
11D
  8
1
  6
CONTINUOUS
 62
     7
 10
554.8794600215759
 20
310.0000000000001
 30
0.0
 40
3.500000000000059
  0
CIRCLE
  5
11E
  8
1
  6
CONTINUOUS
 62
     7
 10
539.8794600215759
 20
310.0000000000001
 30
0.0
 40
3.500000000000059
  0
LINE
  5
11F
  8
1
  6
CONTINUOUS
 62
     7
 10
522.479460021576
 20
320.0000000000001
 30
0.0
 11
522.479460021576
 21
300.0000000000001
 31
0.0
  0
LINE
  5
120
  8
1
  6
CONTINUOUS
 62
     7
 10
522.479460021576
 20
320.0000000000001
 30
0.0
 11
522.6848673109083
 21
320.0000000000001
 31
0.0
  0
LINE
  5
121
  8
1
  6
CONTINUOUS
 62
     7
 10
522.479460021576
 20
300.0000000000001
 30
0.0
 11
522.6848673109083
 21
300.0000000000001
 31
0.0
  0
LINE
  5
122
  8
1
  6
CONTINUOUS
 62
     7
 10
563.8794600215759
 20
315.0000000000001
 30
0.0
 11
563.8794600215759
 21
305.0000000000001
 31
0.0
  0
ARC
  5
123
  8
1
  6
CONTINUOUS
 62
     7
 10
558.8794600215759
 20
315.0000000000001
 30
0.0
 40
5.000000000000004
 50
0.0
 51
90.0
  0
ARC
  5
124
  8
1
  6
CONTINUOUS
 62
     7
 10
558.8794600215759
 20
305.0000000000001
 30
0.0
 40
5.000000000000004
 50
270.0
 51
0.0
  0
POLYLINE
  5
125
  8
1
  6
CONTINUOUS
 62
     7
 66
     1
 10
0.0
 20
0.0
 30
0.0
  0
VERTEX
  5
36D
  8
1
  6
CONTINUOUS
 62
     7
 10
782.4098568748116
 20
303.0000000000001
 30
0.0
  0
VERTEX
  5
36E
  8
1
  6
CONTINUOUS
 62
     7
 10
782.6469964271015
 20
303.1345030371774
 30
0.0
  0
VERTEX
  5
36F
  8
1
  6
CONTINUOUS
 62
     7
 10
782.8750228393862
 20
303.532843272421
 30
0.0
  0
VERTEX
  5
370
  8
1
  6
CONTINUOUS
 62
     7
 10
783.0851731845205
 20
304.1797127138822
 30
0.0
  0
VERTEX
  5
371
  8
1
  6
CONTINUOUS
 62
     7
 10
783.2693715025944
 20
305.0502525316942
 30
0.0
  0
VERTEX
  5
372
  8
1
  6
CONTINUOUS
 62
     7
 10
783.4205391555439
 20
306.1110083688628
 30
0.0
  0
VERTEX
  5
373
  8
1
  6
CONTINUOUS
 62
     7
 10
783.5328668552421
 20
307.3212159734445
 30
0.0
  0
VERTEX
  5
374
  8
1
  6
CONTINUOUS
 62
     7
 10
783.6020379111835
 20
308.6343677458872
 30
0.0
  0
VERTEX
  5
375
  8
1
  6
CONTINUOUS
 62
     7
 10
783.6253941184801
 20
310.0000000000001
 30
0.0
  0
VERTEX
  5
376
  8
1
  6
CONTINUOUS
 62
     7
 10
783.6020379111835
 20
311.3656322541129
 30
0.0
  0
VERTEX
  5
377
  8
1
  6
CONTINUOUS
 62
     7
 10
783.5328668552421
 20
312.6787840265557
 30
0.0
  0
VERTEX
  5
378
  8
1
  6
CONTINUOUS
 62
     7
 10
783.4205391555439
 20
313.8889916311373
 30
0.0
  0
VERTEX
  5
379
  8
1
  6
CONTINUOUS
 62
     7
 10
783.2693715025944
 20
314.9497474683059
 30
0.0
  0
VERTEX
  5
37A
  8
1
  6
CONTINUOUS
 62
     7
 10
783.0851731845205
 20
315.8202872861179
 30
0.0
  0
VERTEX
  5
37B
  8
1
  6
CONTINUOUS
 62
     7
 10
782.8750228393862
 20
316.4671567275791
 30
0.0
  0
VERTEX
  5
37C
  8
1
  6
CONTINUOUS
 62
     7
 10
782.6469964271015
 20
316.8654969628226
 30
0.0
  0
VERTEX
  5
37D
  8
1
  6
CONTINUOUS
 62
     7
 10
782.4098568748116
 20
317.0000000000001
 30
0.0
  0
SEQEND
  5
533
  8
1
  6
CONTINUOUS
 62
     7
  0
POLYLINE
  5
126
  8
1
  6
CONTINUOUS
 62
     7
 66
     1
 10
0.0
 20
0.0
 30
0.0
  0
VERTEX
  5
37E
  8
1
  6
CONTINUOUS
 62
     7
 10
782.4098568748116
 20
317.0000000000001
 30
0.0
  0
VERTEX
  5
37F
  8
1
  6
CONTINUOUS
 62
     7
 10
782.1827024682144
 20
316.8766849326442
 30
0.0
  0
VERTEX
  5
380
  8
1
  6
CONTINUOUS
 62
     7
 10
781.9635513647457
 20
316.5110844751015
 30
0.0
  0
VERTEX
  5
381
  8
1
  6
CONTINUOUS
 62
     7
 10
781.7601248881442
 20
315.9160797830997
 30
0.0
  0
VERTEX
  5
382
  8
1
  6
CONTINUOUS
 62
     7
 10
781.579590338314
 20
315.112634583402
 30
0.0
  0
VERTEX
  5
383
  8
1
  6
CONTINUOUS
 62
     7
 10
781.4283084667327
 20
314.1290565614135
 30
0.0
  0
VERTEX
  5
384
  8
1
  6
CONTINUOUS
 62
     7
 10
781.3116093688814
 20
313.0000000000002
 30
0.0
  0
SEQEND
  5
534
  8
1
  6
CONTINUOUS
 62
     7
  0
POLYLINE
  5
127
  8
1
  6
CONTINUOUS
 62
     7
 66
     1
 10
0.0
 20
0.0
 30
0.0
  0
VERTEX
  5
385
  8
1
  6
CONTINUOUS
 62
     7
 10
781.3116093688814
 20
306.9999999999999
 30
0.0
  0
VERTEX
  5
386
  8
1
  6
CONTINUOUS
 62
     7
 10
781.4283084667327
 20
305.8709434385866
 30
0.0
  0
VERTEX
  5
387
  8
1
  6
CONTINUOUS
 62
     7
 10
781.579590338314
 20
304.8873654165981
 30
0.0
  0
VERTEX
  5
388
  8
1
  6
CONTINUOUS
 62
     7
 10
781.7601248881442
 20
304.0839202169004
 30
0.0
  0
VERTEX
  5
389
  8
1
  6
CONTINUOUS
 62
     7
 10
781.9635513647457
 20
303.4889155248986
 30
0.0
  0
VERTEX
  5
38A
  8
1
  6
CONTINUOUS
 62
     7
 10
782.1827024682144
 20
303.1233150673559
 30
0.0
  0
VERTEX
  5
38B
  8
1
  6
CONTINUOUS
 62
     7
 10
782.4098568748116
 20
303.0000000000001
 30
0.0
  0
SEQEND
  5
535
  8
1
  6
CONTINUOUS
 62
     7
  0
POLYLINE
  5
128
  8
1
  6
CONTINUOUS
 62
     7
 66
     1
 10
0.0
 20
0.0
 30
0.0
  0
VERTEX
  5
38C
  8
1
  6
CONTINUOUS
 62
     7
 10
783.6901069537274
 20
303.0000000000001
 30
0.0
  0
VERTEX
  5
38D
  8
1
  6
CONTINUOUS
 62
     7
 10
783.9272465060174
 20
303.1345030371774
 30
0.0
  0
VERTEX
  5
38E
  8
1
  6
CONTINUOUS
 62
     7
 10
784.1552729183021
 20
303.532843272421
 30
0.0
  0
VERTEX
  5
38F
  8
1
  6
CONTINUOUS
 62
     7
 10
784.3654232634364
 20
304.1797127138822
 30
0.0
  0
VERTEX
  5
390
  8
1
  6
CONTINUOUS
 62
     7
 10
784.5496215815102
 20
305.0502525316942
 30
0.0
  0
VERTEX
  5
391
  8
1
  6
CONTINUOUS
 62
     7
 10
784.7007892344598
 20
306.1110083688628
 30
0.0
  0
VERTEX
  5
392
  8
1
  6
CONTINUOUS
 62
     7
 10
784.813116934158
 20
307.3212159734445
 30
0.0
  0
VERTEX
  5
393
  8
1
  6
CONTINUOUS
 62
     7
 10
784.8822879900994
 20
308.6343677458872
 30
0.0
  0
VERTEX
  5
394
  8
1
  6
CONTINUOUS
 62
     7
 10
784.905644197396
 20
310.0000000000001
 30
0.0
  0
VERTEX
  5
395
  8
1
  6
CONTINUOUS
 62
     7
 10
784.8822879900994
 20
311.3656322541129
 30
0.0
  0
VERTEX
  5
396
  8
1
  6
CONTINUOUS
 62
     7
 10
784.813116934158
 20
312.6787840265557
 30
0.0
  0
VERTEX
  5
397
  8
1
  6
CONTINUOUS
 62
     7
 10
784.7007892344598
 20
313.8889916311373
 30
0.0
  0
VERTEX
  5
398
  8
1
  6
CONTINUOUS
 62
     7
 10
784.5496215815102
 20
314.9497474683059
 30
0.0
  0
VERTEX
  5
399
  8
1
  6
CONTINUOUS
 62
     7
 10
784.3654232634364
 20
315.8202872861179
 30
0.0
  0
VERTEX
  5
39A
  8
1
  6
CONTINUOUS
 62
     7
 10
784.1552729183021
 20
316.4671567275791
 30
0.0
  0
VERTEX
  5
39B
  8
1
  6
CONTINUOUS
 62
     7
 10
783.9272465060174
 20
316.8654969628226
 30
0.0
  0
VERTEX
  5
39C
  8
1
  6
CONTINUOUS
 62
     7
 10
783.6901069537274
 20
317.0000000000001
 30
0.0
  0
SEQEND
  5
536
  8
1
  6
CONTINUOUS
 62
     7
  0
LINE
  5
129
  8
1
  6
CONTINUOUS
 62
     7
 10
789.1769065364589
 20
310.0000000000001
 30
0.0
 11
784.905644197396
 21
310.0000000000001
 31
0.0
  0
ARC
  5
12A
  8
1
  6
CONTINUOUS
 62
     7
 10
781.8549234259773
 20
308.1888396337031
 30
0.0
 40
7.542661237429562
 50
354.760115549716
 51
13.89375247156494
  0
ARC
  5
12B
  8
1
  6
CONTINUOUS
 62
     7
 10
780.9541129608284
 20
308.4778282247535
 30
0.0
 40
8.468593436607017
 50
335.7528401783617
 51
353.3695395535046
  0
ARC
  5
12C
  8
1
  6
CONTINUOUS
 62
     7
 10
781.119321317334
 20
311.5677981573425
 30
0.0
 40
8.299263310345713
 50
6.449269371743369
 51
24.42835089639034
  0
ARC
  5
12D
  8
1
  6
CONTINUOUS
 62
     7
 10
781.7415002797493
 20
311.819742317609
 30
0.0
 40
7.654849985781087
 50
346.2477463090203
 51
5.098385669699212
  0
POLYLINE
  5
12E
  8
1
  6
CONTINUOUS
 62
     7
 66
     1
 10
0.0
 20
0.0
 30
0.0
  0
VERTEX
  5
39D
  8
1
  6
CONTINUOUS
 62
     7
 10
789.3660643846906
 20
307.5000000000001
 30
0.0
  0
VERTEX
  5
39E
  8
1
  6
CONTINUOUS
 62
     7
 10
789.439891873353
 20
308.4549150281253
 30
0.0
  0
VERTEX
  5
39F
  8
1
  6
CONTINUOUS
 62
     7
 10
789.4776302926913
 20
309.4773576836618
 30
0.0
  0
VERTEX
  5
3A0
  8
1
  6
CONTINUOUS
 62
     7
 10
789.4776302926913
 20
310.5226423163383
 30
0.0
  0
VERTEX
  5
3A1
  8
1
  6
CONTINUOUS
 62
     7
 10
789.4398918733531
 20
311.5450849718748
 30
0.0
  0
VERTEX
  5
3A2
  8
1
  6
CONTINUOUS
 62
     7
 10
789.3660643846906
 20
312.5000000000001
 30
0.0
  0
SEQEND
  5
537
  8
1
  6
CONTINUOUS
 62
     7
  0
POLYLINE
  5
12F
  8
1
  6
CONTINUOUS
 62
     7
 66
     1
 10
0.0
 20
0.0
 30
0.0
  0
VERTEX
  5
3A3
  8
1
  6
CONTINUOUS
 62
     7
 10
789.3660643846906
 20
312.5000000000001
 30
0.0
  0
VERTEX
  5
3A4
  8
1
  6
CONTINUOUS
 62
     7
 10
789.2738262566364
 20
313.2508441890618
 30
0.0
  0
VERTEX
  5
3A5
  8
1
  6
CONTINUOUS
 62
     7
 10
789.1592667217678
 20
313.8916905663476
 30
0.0
  0
VERTEX
  5
3A6
  8
1
  6
CONTINUOUS
 62
     7
 10
789.0262620957187
 20
314.4008550107228
 30
0.0
  0
VERTEX
  5
3A7
  8
1
  6
CONTINUOUS
 62
     7
 10
788.8793128149822
 20
314.7611090819859
 30
0.0
  0
SEQEND
  5
538
  8
1
  6
CONTINUOUS
 62
     7
  0
POLYLINE
  5
130
  8
1
  6
CONTINUOUS
 62
     7
 66
     1
 10
0.0
 20
0.0
 30
0.0
  0
VERTEX
  5
3A8
  8
1
  6
CONTINUOUS
 62
     7
 10
788.8793128149822
 20
305.2388909180142
 30
0.0
  0
VERTEX
  5
3A9
  8
1
  6
CONTINUOUS
 62
     7
 10
789.0262620957187
 20
305.5991449892773
 30
0.0
  0
VERTEX
  5
3AA
  8
1
  6
CONTINUOUS
 62
     7
 10
789.1592667217678
 20
306.1083094336525
 30
0.0
  0
VERTEX
  5
3AB
  8
1
  6
CONTINUOUS
 62
     7
 10
789.2738262566364
 20
306.7491558109383
 30
0.0
  0
VERTEX
  5
3AC
  8
1
  6
CONTINUOUS
 62
     7
 10
789.3660643846906
 20
307.5000000000001
 30
0.0
  0
SEQEND
  5
539
  8
1
  6
CONTINUOUS
 62
     7
  0
POLYLINE
  5
131
  8
1
  6
CONTINUOUS
 62
     7
 66
     1
 10
0.0
 20
0.0
 30
0.0
  0
VERTEX
  5
3AD
  8
1
  6
CONTINUOUS
 62
     7
 10
759.164184191663
 20
310.0000000000001
 30
0.0
  0
VERTEX
  5
3AE
  8
1
  6
CONTINUOUS
 62
     7
 10
759.2806672387447
 20
308.6343677458872
 30
0.0
  0
VERTEX
  5
3AF
  8
1
  6
CONTINUOUS
 62
     7
 10
759.6256400018152
 20
307.3212159734445
 30
0.0
  0
VERTEX
  5
3B0
  8
1
  6
CONTINUOUS
 62
     7
 10
760.1858453710524
 20
306.1110083688628
 30
0.0
  0
VERTEX
  5
3B1
  8
1
  6
CONTINUOUS
 62
     7
 10
760.9397549682835
 20
305.0502525316942
 30
0.0
  0
VERTEX
  5
3B2
  8
1
  6
CONTINUOUS
 62
     7
 10
761.8583964704842
 20
304.1797127138822
 30
0.0
  0
VERTEX
  5
3B3
  8
1
  6
CONTINUOUS
 62
     7
 10
762.906466999905
 20
303.532843272421
 30
0.0
  0
VERTEX
  5
3B4
  8
1
  6
CONTINUOUS
 62
     7
 10
764.0436897938649
 20
303.1345030371774
 30
0.0
  0
VERTEX
  5
3B5
  8
1
  6
CONTINUOUS
 62
     7
 10
765.2263620181541
 20
303.0000000000001
 30
0.0
  0
SEQEND
  5
53A
  8
1
  6
CONTINUOUS
 62
     7
  0
POLYLINE
  5
132
  8
1
  6
CONTINUOUS
 62
     7
 66
     1
 10
0.0
 20
0.0
 30
0.0
  0
VERTEX
  5
3B6
  8
1
  6
CONTINUOUS
 62
     7
 10
765.2263620181541
 20
317.0000000000001
 30
0.0
  0
VERTEX
  5
3B7
  8
1
  6
CONTINUOUS
 62
     7
 10
764.0436897938649
 20
316.8654969628227
 30
0.0
  0
VERTEX
  5
3B8
  8
1
  6
CONTINUOUS
 62
     7
 10
762.906466999905
 20
316.4671567275791
 30
0.0
  0
VERTEX
  5
3B9
  8
1
  6
CONTINUOUS
 62
     7
 10
761.8583964704842
 20
315.8202872861179
 30
0.0
  0
VERTEX
  5
3BA
  8
1
  6
CONTINUOUS
 62
     7
 10
760.9397549682835
 20
314.9497474683059
 30
0.0
  0
VERTEX
  5
3BB
  8
1
  6
CONTINUOUS
 62
     7
 10
760.1858453710524
 20
313.8889916311373
 30
0.0
  0
VERTEX
  5
3BC
  8
1
  6
CONTINUOUS
 62
     7
 10
759.6256400018152
 20
312.6787840265557
 30
0.0
  0
VERTEX
  5
3BD
  8
1
  6
CONTINUOUS
 62
     7
 10
759.2806672387447
 20
311.3656322541129
 30
0.0
  0
VERTEX
  5
3BE
  8
1
  6
CONTINUOUS
 62
     7
 10
759.164184191663
 20
310.0000000000001
 30
0.0
  0
SEQEND
  5
53B
  8
1
  6
CONTINUOUS
 62
     7
  0
POLYLINE
  5
133
  8
1
  6
CONTINUOUS
 62
     7
 66
     1
 10
0.0
 20
0.0
 30
0.0
  0
VERTEX
  5
3BF
  8
1
  6
CONTINUOUS
 62
     7
 10
765.2263620181541
 20
303.0000000000001
 30
0.0
  0
VERTEX
  5
3C0
  8
1
  6
CONTINUOUS
 62
     7
 10
766.4090342424432
 20
303.1345030371774
 30
0.0
  0
VERTEX
  5
3C1
  8
1
  6
CONTINUOUS
 62
     7
 10
767.5462570364032
 20
303.532843272421
 30
0.0
  0
VERTEX
  5
3C2
  8
1
  6
CONTINUOUS
 62
     7
 10
768.594327565824
 20
304.1797127138822
 30
0.0
  0
VERTEX
  5
3C3
  8
1
  6
CONTINUOUS
 62
     7
 10
769.5129690680246
 20
305.0502525316942
 30
0.0
  0
VERTEX
  5
3C4
  8
1
  6
CONTINUOUS
 62
     7
 10
770.2668786652557
 20
306.1110083688628
 30
0.0
  0
VERTEX
  5
3C5
  8
1
  6
CONTINUOUS
 62
     7
 10
770.8270840344929
 20
307.3212159734445
 30
0.0
  0
VERTEX
  5
3C6
  8
1
  6
CONTINUOUS
 62
     7
 10
771.1720567975634
 20
308.6343677458872
 30
0.0
  0
VERTEX
  5
3C7
  8
1
  6
CONTINUOUS
 62
     7
 10
771.2885398446451
 20
310.0000000000001
 30
0.0
  0
VERTEX
  5
3C8
  8
1
  6
CONTINUOUS
 62
     7
 10
771.1720567975634
 20
311.3656322541129
 30
0.0
  0
VERTEX
  5
3C9
  8
1
  6
CONTINUOUS
 62
     7
 10
770.8270840344929
 20
312.6787840265557
 30
0.0
  0
VERTEX
  5
3CA
  8
1
  6
CONTINUOUS
 62
     7
 10
770.2668786652557
 20
313.8889916311373
 30
0.0
  0
VERTEX
  5
3CB
  8
1
  6
CONTINUOUS
 62
     7
 10
769.5129690680246
 20
314.9497474683059
 30
0.0
  0
VERTEX
  5
3CC
  8
1
  6
CONTINUOUS
 62
     7
 10
768.594327565824
 20
315.8202872861179
 30
0.0
  0
VERTEX
  5
3CD
  8
1
  6
CONTINUOUS
 62
     7
 10
767.5462570364032
 20
316.4671567275791
 30
0.0
  0
VERTEX
  5
3CE
  8
1
  6
CONTINUOUS
 62
     7
 10
766.4090342424432
 20
316.8654969628227
 30
0.0
  0
VERTEX
  5
3CF
  8
1
  6
CONTINUOUS
 62
     7
 10
765.2263620181541
 20
317.0000000000001
 30
0.0
  0
SEQEND
  5
53C
  8
1
  6
CONTINUOUS
 62
     7
  0
POLYLINE
  5
134
  8
1
  6
CONTINUOUS
 62
     7
 66
     1
 10
0.0
 20
0.0
 30
0.0
  0
VERTEX
  5
3D0
  8
1
  6
CONTINUOUS
 62
     7
 10
765.4763620181542
 20
303.0000000000001
 30
0.0
  0
VERTEX
  5
3D1
  8
1
  6
CONTINUOUS
 62
     7
 10
766.6590342424433
 20
303.1345030371774
 30
0.0
  0
VERTEX
  5
3D2
  8
1
  6
CONTINUOUS
 62
     7
 10
767.7962570364033
 20
303.532843272421
 30
0.0
  0
VERTEX
  5
3D3
  8
1
  6
CONTINUOUS
 62
     7
 10
768.8443275658241
 20
304.1797127138822
 30
0.0
  0
VERTEX
  5
3D4
  8
1
  6
CONTINUOUS
 62
     7
 10
769.7629690680247
 20
305.0502525316942
 30
0.0
  0
VERTEX
  5
3D5
  8
1
  6
CONTINUOUS
 62
     7
 10
770.5168786652558
 20
306.1110083688628
 30
0.0
  0
VERTEX
  5
3D6
  8
1
  6
CONTINUOUS
 62
     7
 10
771.077084034493
 20
307.3212159734445
 30
0.0
  0
VERTEX
  5
3D7
  8
1
  6
CONTINUOUS
 62
     7
 10
771.4220567975635
 20
308.6343677458872
 30
0.0
  0
VERTEX
  5
3D8
  8
1
  6
CONTINUOUS
 62
     7
 10
771.5385398446452
 20
310.0000000000001
 30
0.0
  0
VERTEX
  5
3D9
  8
1
  6
CONTINUOUS
 62
     7
 10
771.4220567975635
 20
311.3656322541129
 30
0.0
  0
VERTEX
  5
3DA
  8
1
  6
CONTINUOUS
 62
     7
 10
771.077084034493
 20
312.6787840265557
 30
0.0
  0
VERTEX
  5
3DB
  8
1
  6
CONTINUOUS
 62
     7
 10
770.5168786652558
 20
313.8889916311373
 30
0.0
  0
VERTEX
  5
3DC
  8
1
  6
CONTINUOUS
 62
     7
 10
769.7629690680247
 20
314.9497474683059
 30
0.0
  0
VERTEX
  5
3DD
  8
1
  6
CONTINUOUS
 62
     7
 10
768.8443275658241
 20
315.8202872861179
 30
0.0
  0
VERTEX
  5
3DE
  8
1
  6
CONTINUOUS
 62
     7
 10
767.7962570364033
 20
316.4671567275791
 30
0.0
  0
VERTEX
  5
3DF
  8
1
  6
CONTINUOUS
 62
     7
 10
766.6590342424433
 20
316.8654969628227
 30
0.0
  0
VERTEX
  5
3E0
  8
1
  6
CONTINUOUS
 62
     7
 10
765.4763620181542
 20
317.0000000000001
 30
0.0
  0
SEQEND
  5
53D
  8
1
  6
CONTINUOUS
 62
     7
  0
POLYLINE
  5
135
  8
1
  6
CONTINUOUS
 62
     7
 66
     1
 10
0.0
 20
0.0
 30
0.0
  0
VERTEX
  5
3E1
  8
1
  6
CONTINUOUS
 62
     7
 10
810.9154905622382
 20
310.0000000000001
 30
0.0
  0
VERTEX
  5
3E2
  8
1
  6
CONTINUOUS
 62
     7
 10
810.9054807591111
 20
310.5852709660484
 30
0.0
  0
VERTEX
  5
3E3
  8
1
  6
CONTINUOUS
 62
     7
 10
810.8758360208506
 20
311.1480502970953
 30
0.0
  0
VERTEX
  5
3E4
  8
1
  6
CONTINUOUS
 62
     7
 10
810.8276955781228
 20
311.6667106990589
 30
0.0
  0
VERTEX
  5
3E5
  8
1
  6
CONTINUOUS
 62
     7
 10
810.7629094411443
 20
312.1213203435597
 30
0.0
  0
VERTEX
  5
3E6
  8
1
  6
CONTINUOUS
 62
     7
 10
810.683967304827
 20
312.4944088369077
 30
0.0
  0
VERTEX
  5
3E7
  8
1
  6
CONTINUOUS
 62
     7
 10
810.593902871198
 20
312.7716385975339
 30
0.0
  0
VERTEX
  5
3E8
  8
1
  6
CONTINUOUS
 62
     7
 10
810.496177265933
 20
312.9423558412097
 30
0.0
  0
VERTEX
  5
3E9
  8
1
  6
CONTINUOUS
 62
     7
 10
810.3945460292374
 20
313.0000000000001
 30
0.0
  0
SEQEND
  5
53E
  8
1
  6
CONTINUOUS
 62
     7
  0
POLYLINE
  5
136
  8
1
  6
CONTINUOUS
 62
     7
 66
     1
 10
0.0
 20
0.0
 30
0.0
  0
VERTEX
  5
3EA
  8
1
  6
CONTINUOUS
 62
     7
 10
810.3945460292374
 20
307.0000000000001
 30
0.0
  0
VERTEX
  5
3EB
  8
1
  6
CONTINUOUS
 62
     7
 10
810.496177265933
 20
307.0576441587904
 30
0.0
  0
VERTEX
  5
3EC
  8
1
  6
CONTINUOUS
 62
     7
 10
810.593902871198
 20
307.2283614024662
 30
0.0
  0
VERTEX
  5
3ED
  8
1
  6
CONTINUOUS
 62
     7
 10
810.683967304827
 20
307.5055911630924
 30
0.0
  0
VERTEX
  5
3EE
  8
1
  6
CONTINUOUS
 62
     7
 10
810.7629094411443
 20
307.8786796564404
 30
0.0
  0
VERTEX
  5
3EF
  8
1
  6
CONTINUOUS
 62
     7
 10
810.8276955781228
 20
308.3332893009413
 30
0.0
  0
VERTEX
  5
3F0
  8
1
  6
CONTINUOUS
 62
     7
 10
810.8758360208506
 20
308.8519497029048
 30
0.0
  0
VERTEX
  5
3F1
  8
1
  6
CONTINUOUS
 62
     7
 10
810.9054807591111
 20
309.4147290339517
 30
0.0
  0
VERTEX
  5
3F2
  8
1
  6
CONTINUOUS
 62
     7
 10
810.9154905622382
 20
310.0000000000001
 30
0.0
  0
SEQEND
  5
53F
  8
1
  6
CONTINUOUS
 62
     7
  0
POLYLINE
  5
137
  8
1
  6
CONTINUOUS
 62
     7
 66
     1
 10
0.0
 20
0.0
 30
0.0
  0
VERTEX
  5
3F3
  8
1
  6
CONTINUOUS
 62
     7
 10
499.0845094377617
 20
296.0000000000001
 30
0.0
  0
VERTEX
  5
3F4
  8
1
  6
CONTINUOUS
 62
     7
 10
499.0945192408888
 20
295.4147290339517
 30
0.0
  0
VERTEX
  5
3F5
  8
1
  6
CONTINUOUS
 62
     7
 10
499.1241639791494
 20
294.8519497029048
 30
0.0
  0
VERTEX
  5
3F6
  8
1
  6
CONTINUOUS
 62
     7
 10
499.1723044218772
 20
294.3332893009413
 30
0.0
  0
VERTEX
  5
3F7
  8
1
  6
CONTINUOUS
 62
     7
 10
499.2370905588556
 20
293.8786796564404
 30
0.0
  0
VERTEX
  5
3F8
  8
1
  6
CONTINUOUS
 62
     7
 10
499.316032695173
 20
293.5055911630924
 30
0.0
  0
VERTEX
  5
3F9
  8
1
  6
CONTINUOUS
 62
     7
 10
499.4060971288019
 20
293.2283614024662
 30
0.0
  0
VERTEX
  5
3FA
  8
1
  6
CONTINUOUS
 62
     7
 10
499.5038227340668
 20
293.0576441587904
 30
0.0
  0
VERTEX
  5
3FB
  8
1
  6
CONTINUOUS
 62
     7
 10
499.6054539707625
 20
293.0000000000001
 30
0.0
  0
SEQEND
  5
540
  8
1
  6
CONTINUOUS
 62
     7
  0
POLYLINE
  5
138
  8
1
  6
CONTINUOUS
 62
     7
 66
     1
 10
0.0
 20
0.0
 30
0.0
  0
VERTEX
  5
3FC
  8
1
  6
CONTINUOUS
 62
     7
 10
502.2358942474007
 20
296.0000000000001
 30
0.0
  0
VERTEX
  5
3FD
  8
1
  6
CONTINUOUS
 62
     7
 10
502.2459040505278
 20
295.4147290339517
 30
0.0
  0
VERTEX
  5
3FE
  8
1
  6
CONTINUOUS
 62
     7
 10
502.2755487887885
 20
294.8519497029048
 30
0.0
  0
VERTEX
  5
3FF
  8
1
  6
CONTINUOUS
 62
     7
 10
502.3236892315163
 20
294.3332893009413
 30
0.0
  0
VERTEX
  5
400
  8
1
  6
CONTINUOUS
 62
     7
 10
502.3884753684946
 20
293.8786796564404
 30
0.0
  0
VERTEX
  5
401
  8
1
  6
CONTINUOUS
 62
     7
 10
502.467417504812
 20
293.5055911630924
 30
0.0
  0
VERTEX
  5
402
  8
1
  6
CONTINUOUS
 62
     7
 10
502.557481938441
 20
293.2283614024662
 30
0.0
  0
VERTEX
  5
403
  8
1
  6
CONTINUOUS
 62
     7
 10
502.6552075437059
 20
293.0576441587904
 30
0.0
  0
VERTEX
  5
404
  8
1
  6
CONTINUOUS
 62
     7
 10
502.7568387804016
 20
293.0000000000001
 30
0.0
  0
SEQEND
  5
541
  8
1
  6
CONTINUOUS
 62
     7
  0
POLYLINE
  5
139
  8
1
  6
CONTINUOUS
 62
     7
 66
     1
 10
0.0
 20
0.0
 30
0.0
  0
VERTEX
  5
405
  8
1
  6
CONTINUOUS
 62
     7
 10
504.4064964682374
 20
323.7500000000001
 30
0.0
  0
VERTEX
  5
406
  8
1
  6
CONTINUOUS
 62
     7
 10
504.3133345012664
 20
323.697159521109
 30
0.0
  0
VERTEX
  5
407
  8
1
  6
CONTINUOUS
 62
     7
 10
504.2237526964402
 20
323.5406687144061
 30
0.0
  0
VERTEX
  5
408
  8
1
  6
CONTINUOUS
 62
     7
 10
504.1411936322804
 20
323.2865414338321
 30
0.0
  0
VERTEX
  5
409
  8
1
  6
CONTINUOUS
 62
     7
 10
504.0688300073227
 20
322.9445436482631
 30
0.0
  0
VERTEX
  5
40A
  8
1
  6
CONTINUOUS
 62
     7
 10
504.0094427150926
 20
322.527818140804
 30
0.0
  0
VERTEX
  5
40B
  8
1
  6
CONTINUOUS
 62
     7
 10
503.9653139759254
 20
322.0523794390041
 30
0.0
  0
VERTEX
  5
40C
  8
1
  6
CONTINUOUS
 62
     7
 10
503.9381396325198
 20
321.5364983855444
 30
0.0
  0
VERTEX
  5
40D
  8
1
  6
CONTINUOUS
 62
     7
 10
503.9289639796534
 20
321.0000000000001
 30
0.0
  0
SEQEND
  5
542
  8
1
  6
CONTINUOUS
 62
     7
  0
POLYLINE
  5
13A
  8
1
  6
CONTINUOUS
 62
     7
 66
     1
 10
0.0
 20
0.0
 30
0.0
  0
VERTEX
  5
40E
  8
1
  6
CONTINUOUS
 62
     7
 10
506.0302351792351
 20
302.6689011017642
 30
0.0
  0
VERTEX
  5
40F
  8
1
  6
CONTINUOUS
 62
     7
 10
506.0437728904262
 20
302.5975490669421
 30
0.0
  0
VERTEX
  5
410
  8
1
  6
CONTINUOUS
 62
     7
 10
506.0596123956292
 20
302.5441768714085
 30
0.0
  0
VERTEX
  5
411
  8
1
  6
CONTINUOUS
 62
     7
 10
506.0770460514158
 20
302.5111689636001
 30
0.0
  0
VERTEX
  5
412
  8
1
  6
CONTINUOUS
 62
     7
 10
506.0952949943185
 20
302.5000000000001
 30
0.0
  0
SEQEND
  5
543
  8
1
  6
CONTINUOUS
 62
     7
  0
LINE
  5
13B
  8
1
  6
CONTINUOUS
 62
     7
 10
506.0952949943185
 20
302.5000000000001
 30
0.0
 11
507.1848673109083
 21
302.5000000000001
 31
0.0
  0
LINE
  5
13C
  8
1
  6
CONTINUOUS
 62
     7
 10
507.1848673109083
 20
293.0000000000001
 30
0.0
 11
507.1848673109083
 21
302.5000000000001
 31
0.0
  0
LINE
  5
13D
  8
1
  6
CONTINUOUS
 62
     7
 10
502.2358942474008
 20
296.0000000000001
 30
0.0
 11
502.2358942474008
 21
324.0000000000001
 31
0.0
  0
POLYLINE
  5
13E
  8
1
  6
CONTINUOUS
 62
     7
 66
     1
 10
0.0
 20
0.0
 30
0.0
  0
VERTEX
  5
413
  8
1
  6
CONTINUOUS
 62
     7
 10
502.7568387804016
 20
327.0000000000001
 30
0.0
  0
VERTEX
  5
414
  8
1
  6
CONTINUOUS
 62
     7
 10
502.6552075437059
 20
326.9423558412097
 30
0.0
  0
VERTEX
  5
415
  8
1
  6
CONTINUOUS
 62
     7
 10
502.557481938441
 20
326.7716385975339
 30
0.0
  0
VERTEX
  5
416
  8
1
  6
CONTINUOUS
 62
     7
 10
502.467417504812
 20
326.4944088369077
 30
0.0
  0
VERTEX
  5
417
  8
1
  6
CONTINUOUS
 62
     7
 10
502.3884753684946
 20
326.1213203435597
 30
0.0
  0
VERTEX
  5
418
  8
1
  6
CONTINUOUS
 62
     7
 10
502.3236892315163
 20
325.6667106990589
 30
0.0
  0
VERTEX
  5
419
  8
1
  6
CONTINUOUS
 62
     7
 10
502.2755487887885
 20
325.1480502970953
 30
0.0
  0
VERTEX
  5
41A
  8
1
  6
CONTINUOUS
 62
     7
 10
502.2459040505278
 20
324.5852709660484
 30
0.0
  0
VERTEX
  5
41B
  8
1
  6
CONTINUOUS
 62
     7
 10
502.2358942474007
 20
324.0000000000001
 30
0.0
  0
SEQEND
  5
544
  8
1
  6
CONTINUOUS
 62
     7
  0
LINE
  5
13F
  8
1
  6
CONTINUOUS
 62
     7
 10
507.1848673109083
 20
327.0000000000001
 30
0.0
 11
507.1848673109083
 21
317.5000000000001
 31
0.0
  0
LINE
  5
140
  8
1
  6
CONTINUOUS
 62
     7
 10
506.0952949943185
 20
317.5000000000001
 30
0.0
 11
507.1848673109083
 21
317.5000000000001
 31
0.0
  0
POLYLINE
  5
141
  8
1
  6
CONTINUOUS
 62
     7
 66
     1
 10
0.0
 20
0.0
 30
0.0
  0
VERTEX
  5
41C
  8
1
  6
CONTINUOUS
 62
     7
 10
506.0952949943185
 20
317.5000000000001
 30
0.0
  0
VERTEX
  5
41D
  8
1
  6
CONTINUOUS
 62
     7
 10
506.0770460514158
 20
317.4888310364
 30
0.0
  0
VERTEX
  5
41E
  8
1
  6
CONTINUOUS
 62
     7
 10
506.0596123956292
 20
317.4558231285916
 30
0.0
  0
VERTEX
  5
41F
  8
1
  6
CONTINUOUS
 62
     7
 10
506.0437728904262
 20
317.402450933058
 30
0.0
  0
VERTEX
  5
420
  8
1
  6
CONTINUOUS
 62
     7
 10
506.0302351792351
 20
317.3310988982359
 30
0.0
  0
SEQEND
  5
545
  8
1
  6
CONTINUOUS
 62
     7
  0
LINE
  5
142
  8
1
  6
CONTINUOUS
 62
     7
 10
505.422210057777
 20
313.3689011017642
 30
0.0
 11
506.0302351792351
 21
317.3310988982359
 31
0.0
  0
POLYLINE
  5
143
  8
1
  6
CONTINUOUS
 62
     7
 66
     1
 10
0.0
 20
0.0
 30
0.0
  0
VERTEX
  5
421
  8
1
  6
CONTINUOUS
 62
     7
 10
505.3571502426936
 20
313.2
 30
0.0
  0
VERTEX
  5
422
  8
1
  6
CONTINUOUS
 62
     7
 10
505.3753991855963
 20
313.2111689636001
 30
0.0
  0
VERTEX
  5
423
  8
1
  6
CONTINUOUS
 62
     7
 10
505.3928328413829
 20
313.2441768714085
 30
0.0
  0
VERTEX
  5
424
  8
1
  6
CONTINUOUS
 62
     7
 10
505.4086723465859
 20
313.2975490669421
 30
0.0
  0
VERTEX
  5
425
  8
1
  6
CONTINUOUS
 62
     7
 10
505.422210057777
 20
313.3689011017642
 30
0.0
  0
SEQEND
  5
546
  8
1
  6
CONTINUOUS
 62
     7
  0
LINE
  5
144
  8
1
  6
CONTINUOUS
 62
     7
 10
503.6077148509696
 20
313.2
 30
0.0
 11
505.3571502426936
 21
313.2
 31
0.0
  0
POLYLINE
  5
145
  8
1
  6
CONTINUOUS
 62
     7
 66
     1
 10
0.0
 20
0.0
 30
0.0
  0
VERTEX
  5
426
  8
1
  6
CONTINUOUS
 62
     7
 10
503.6077148509696
 20
313.2
 30
0.0
  0
VERTEX
  5
427
  8
1
  6
CONTINUOUS
 62
     7
 10
503.4993081984942
 20
313.1385128972904
 30
0.0
  0
VERTEX
  5
428
  8
1
  6
CONTINUOUS
 62
     7
 10
503.3950675528783
 20
312.9564145040362
 30
0.0
  0
VERTEX
  5
429
  8
1
  6
CONTINUOUS
 62
     7
 10
503.298998823674
 20
312.6607027593682
 30
0.0
  0
VERTEX
  5
42A
  8
1
  6
CONTINUOUS
 62
     7
 10
503.2147938782688
 20
312.262741699797
 30
0.0
  0
VERTEX
  5
42B
  8
1
  6
CONTINUOUS
 62
     7
 10
503.1456886654919
 20
311.7778247456628
 30
0.0
  0
VERTEX
  5
42C
  8
1
  6
CONTINUOUS
 62
     7
 10
503.0943388599156
 20
311.2245869835683
 30
0.0
  0
VERTEX
  5
42D
  8
1
  6
CONTINUOUS
 62
     7
 10
503.0627178057709
 20
310.6242890304517
 30
0.0
  0
VERTEX
  5
42E
  8
1
  6
CONTINUOUS
 62
     7
 10
503.0520406824354
 20
310.0000000000001
 30
0.0
  0
VERTEX
  5
42F
  8
1
  6
CONTINUOUS
 62
     7
 10
503.0627178057709
 20
309.3757109695484
 30
0.0
  0
VERTEX
  5
430
  8
1
  6
CONTINUOUS
 62
     7
 10
503.0943388599156
 20
308.7754130164318
 30
0.0
  0
VERTEX
  5
431
  8
1
  6
CONTINUOUS
 62
     7
 10
503.1456886654919
 20
308.2221752543373
 30
0.0
  0
VERTEX
  5
432
  8
1
  6
CONTINUOUS
 62
     7
 10
503.2147938782688
 20
307.7372583002031
 30
0.0
  0
VERTEX
  5
433
  8
1
  6
CONTINUOUS
 62
     7
 10
503.298998823674
 20
307.3392972406319
 30
0.0
  0
VERTEX
  5
434
  8
1
  6
CONTINUOUS
 62
     7
 10
503.3950675528783
 20
307.043585495964
 30
0.0
  0
VERTEX
  5
435
  8
1
  6
CONTINUOUS
 62
     7
 10
503.4993081984942
 20
306.8614871027098
 30
0.0
  0
VERTEX
  5
436
  8
1
  6
CONTINUOUS
 62
     7
 10
503.6077148509696
 20
306.8000000000001
 30
0.0
  0
SEQEND
  5
547
  8
1
  6
CONTINUOUS
 62
     7
  0
LINE
  5
146
  8
1
  6
CONTINUOUS
 62
     7
 10
503.6077148509696
 20
306.8000000000001
 30
0.0
 11
505.3571502426936
 21
306.8000000000001
 31
0.0
  0
POLYLINE
  5
147
  8
1
  6
CONTINUOUS
 62
     7
 66
     1
 10
0.0
 20
0.0
 30
0.0
  0
VERTEX
  5
437
  8
1
  6
CONTINUOUS
 62
     7
 10
505.422210057777
 20
306.6310988982359
 30
0.0
  0
VERTEX
  5
438
  8
1
  6
CONTINUOUS
 62
     7
 10
505.4086723465859
 20
306.702450933058
 30
0.0
  0
VERTEX
  5
439
  8
1
  6
CONTINUOUS
 62
     7
 10
505.3928328413829
 20
306.7558231285916
 30
0.0
  0
VERTEX
  5
43A
  8
1
  6
CONTINUOUS
 62
     7
 10
505.3753991855963
 20
306.7888310364
 30
0.0
  0
VERTEX
  5
43B
  8
1
  6
CONTINUOUS
 62
     7
 10
505.3571502426936
 20
306.8000000000001
 30
0.0
  0
SEQEND
  5
548
  8
1
  6
CONTINUOUS
 62
     7
  0
LINE
  5
148
  8
1
  6
CONTINUOUS
 62
     7
 10
505.422210057777
 20
306.6310988982359
 30
0.0
 11
506.0302351792351
 21
302.6689011017642
 31
0.0
  0
POLYLINE
  5
149
  8
1
  6
CONTINUOUS
 62
     7
 66
     1
 10
0.0
 20
0.0
 30
0.0
  0
VERTEX
  5
43C
  8
1
  6
CONTINUOUS
 62
     7
 10
503.9289639796534
 20
299.0000000000001
 30
0.0
  0
VERTEX
  5
43D
  8
1
  6
CONTINUOUS
 62
     7
 10
503.9381396325198
 20
298.4635016144557
 30
0.0
  0
VERTEX
  5
43E
  8
1
  6
CONTINUOUS
 62
     7
 10
503.9653139759254
 20
297.947620560996
 30
0.0
  0
VERTEX
  5
43F
  8
1
  6
CONTINUOUS
 62
     7
 10
504.0094427150926
 20
297.4721818591962
 30
0.0
  0
VERTEX
  5
440
  8
1
  6
CONTINUOUS
 62
     7
 10
504.0688300073227
 20
297.055456351737
 30
0.0
  0
VERTEX
  5
441
  8
1
  6
CONTINUOUS
 62
     7
 10
504.1411936322804
 20
296.713458566168
 30
0.0
  0
VERTEX
  5
442
  8
1
  6
CONTINUOUS
 62
     7
 10
504.2237526964402
 20
296.459331285594
 30
0.0
  0
VERTEX
  5
443
  8
1
  6
CONTINUOUS
 62
     7
 10
504.3133345012664
 20
296.3028404788911
 30
0.0
  0
VERTEX
  5
444
  8
1
  6
CONTINUOUS
 62
     7
 10
504.4064964682374
 20
296.25
 30
0.0
  0
SEQEND
  5
549
  8
1
  6
CONTINUOUS
 62
     7
  0
POLYLINE
  5
14A
  8
1
  6
CONTINUOUS
 62
     7
 66
     1
 10
0.0
 20
0.0
 30
0.0
  0
VERTEX
  5
445
  8
1
  6
CONTINUOUS
 62
     7
 10
499.6054539707625
 20
327.0000000000001
 30
0.0
  0
VERTEX
  5
446
  8
1
  6
CONTINUOUS
 62
     7
 10
499.5038227340668
 20
326.9423558412097
 30
0.0
  0
VERTEX
  5
447
  8
1
  6
CONTINUOUS
 62
     7
 10
499.4060971288019
 20
326.7716385975339
 30
0.0
  0
VERTEX
  5
448
  8
1
  6
CONTINUOUS
 62
     7
 10
499.316032695173
 20
326.4944088369077
 30
0.0
  0
VERTEX
  5
449
  8
1
  6
CONTINUOUS
 62
     7
 10
499.2370905588556
 20
326.1213203435597
 30
0.0
  0
VERTEX
  5
44A
  8
1
  6
CONTINUOUS
 62
     7
 10
499.1723044218772
 20
325.6667106990589
 30
0.0
  0
VERTEX
  5
44B
  8
1
  6
CONTINUOUS
 62
     7
 10
499.1241639791494
 20
325.1480502970953
 30
0.0
  0
VERTEX
  5
44C
  8
1
  6
CONTINUOUS
 62
     7
 10
499.0945192408888
 20
324.5852709660484
 30
0.0
  0
VERTEX
  5
44D
  8
1
  6
CONTINUOUS
 62
     7
 10
499.0845094377617
 20
324.0000000000001
 30
0.0
  0
SEQEND
  5
54A
  8
1
  6
CONTINUOUS
 62
     7
  0
LINE
  5
14B
  8
1
  6
CONTINUOUS
 62
     7
 10
499.0845094377617
 20
296.0000000000001
 30
0.0
 11
499.0845094377617
 21
324.0000000000001
 31
0.0
  0
POLYLINE
  5
14C
  8
1
  6
CONTINUOUS
 62
     7
 66
     1
 10
0.0
 20
0.0
 30
0.0
  0
VERTEX
  5
44E
  8
1
  6
CONTINUOUS
 62
     7
 10
504.4064964682374
 20
301.7500000000001
 30
0.0
  0
VERTEX
  5
44F
  8
1
  6
CONTINUOUS
 62
     7
 10
504.3133345012664
 20
301.697159521109
 30
0.0
  0
VERTEX
  5
450
  8
1
  6
CONTINUOUS
 62
     7
 10
504.2237526964402
 20
301.5406687144061
 30
0.0
  0
VERTEX
  5
451
  8
1
  6
CONTINUOUS
 62
     7
 10
504.1411936322804
 20
301.2865414338321
 30
0.0
  0
VERTEX
  5
452
  8
1
  6
CONTINUOUS
 62
     7
 10
504.0688300073227
 20
300.9445436482631
 30
0.0
  0
VERTEX
  5
453
  8
1
  6
CONTINUOUS
 62
     7
 10
504.0094427150926
 20
300.527818140804
 30
0.0
  0
VERTEX
  5
454
  8
1
  6
CONTINUOUS
 62
     7
 10
503.9653139759254
 20
300.0523794390041
 30
0.0
  0
VERTEX
  5
455
  8
1
  6
CONTINUOUS
 62
     7
 10
503.9381396325198
 20
299.5364983855444
 30
0.0
  0
VERTEX
  5
456
  8
1
  6
CONTINUOUS
 62
     7
 10
503.9289639796534
 20
299.0000000000001
 30
0.0
  0
SEQEND
  5
54B
  8
1
  6
CONTINUOUS
 62
     7
  0
POLYLINE
  5
14D
  8
1
  6
CONTINUOUS
 62
     7
 66
     1
 10
0.0
 20
0.0
 30
0.0
  0
VERTEX
  5
457
  8
1
  6
CONTINUOUS
 62
     7
 10
504.4064964682374
 20
296.25
 30
0.0
  0
VERTEX
  5
458
  8
1
  6
CONTINUOUS
 62
     7
 10
504.4996584352085
 20
296.3028404788911
 30
0.0
  0
VERTEX
  5
459
  8
1
  6
CONTINUOUS
 62
     7
 10
504.5892402400347
 20
296.459331285594
 30
0.0
  0
VERTEX
  5
45A
  8
1
  6
CONTINUOUS
 62
     7
 10
504.6717993041945
 20
296.713458566168
 30
0.0
  0
VERTEX
  5
45B
  8
1
  6
CONTINUOUS
 62
     7
 10
504.7441629291521
 20
297.055456351737
 30
0.0
  0
VERTEX
  5
45C
  8
1
  6
CONTINUOUS
 62
     7
 10
504.8035502213823
 20
297.4721818591962
 30
0.0
  0
VERTEX
  5
45D
  8
1
  6
CONTINUOUS
 62
     7
 10
504.8476789605494
 20
297.947620560996
 30
0.0
  0
VERTEX
  5
45E
  8
1
  6
CONTINUOUS
 62
     7
 10
504.874853303955
 20
298.4635016144557
 30
0.0
  0
VERTEX
  5
45F
  8
1
  6
CONTINUOUS
 62
     7
 10
504.8840289568215
 20
299.0000000000001
 30
0.0
  0
VERTEX
  5
460
  8
1
  6
CONTINUOUS
 62
     7
 10
504.874853303955
 20
299.5364983855444
 30
0.0
  0
VERTEX
  5
461
  8
1
  6
CONTINUOUS
 62
     7
 10
504.8476789605494
 20
300.0523794390041
 30
0.0
  0
VERTEX
  5
462
  8
1
  6
CONTINUOUS
 62
     7
 10
504.8035502213823
 20
300.527818140804
 30
0.0
  0
VERTEX
  5
463
  8
1
  6
CONTINUOUS
 62
     7
 10
504.7441629291521
 20
300.9445436482631
 30
0.0
  0
VERTEX
  5
464
  8
1
  6
CONTINUOUS
 62
     7
 10
504.6717993041945
 20
301.2865414338321
 30
0.0
  0
VERTEX
  5
465
  8
1
  6
CONTINUOUS
 62
     7
 10
504.5892402400346
 20
301.5406687144061
 30
0.0
  0
VERTEX
  5
466
  8
1
  6
CONTINUOUS
 62
     7
 10
504.4996584352085
 20
301.697159521109
 30
0.0
  0
VERTEX
  5
467
  8
1
  6
CONTINUOUS
 62
     7
 10
504.4064964682374
 20
301.7500000000001
 30
0.0
  0
SEQEND
  5
54C
  8
1
  6
CONTINUOUS
 62
     7
  0
POLYLINE
  5
14E
  8
1
  6
CONTINUOUS
 62
     7
 66
     1
 10
0.0
 20
0.0
 30
0.0
  0
VERTEX
  5
468
  8
1
  6
CONTINUOUS
 62
     7
 10
503.9289639796534
 20
321.0000000000001
 30
0.0
  0
VERTEX
  5
469
  8
1
  6
CONTINUOUS
 62
     7
 10
503.9381396325198
 20
320.4635016144557
 30
0.0
  0
VERTEX
  5
46A
  8
1
  6
CONTINUOUS
 62
     7
 10
503.9653139759254
 20
319.947620560996
 30
0.0
  0
VERTEX
  5
46B
  8
1
  6
CONTINUOUS
 62
     7
 10
504.0094427150926
 20
319.4721818591962
 30
0.0
  0
VERTEX
  5
46C
  8
1
  6
CONTINUOUS
 62
     7
 10
504.0688300073227
 20
319.055456351737
 30
0.0
  0
VERTEX
  5
46D
  8
1
  6
CONTINUOUS
 62
     7
 10
504.1411936322804
 20
318.713458566168
 30
0.0
  0
VERTEX
  5
46E
  8
1
  6
CONTINUOUS
 62
     7
 10
504.2237526964402
 20
318.459331285594
 30
0.0
  0
VERTEX
  5
46F
  8
1
  6
CONTINUOUS
 62
     7
 10
504.3133345012664
 20
318.3028404788911
 30
0.0
  0
VERTEX
  5
470
  8
1
  6
CONTINUOUS
 62
     7
 10
504.4064964682374
 20
318.25
 30
0.0
  0
SEQEND
  5
54D
  8
1
  6
CONTINUOUS
 62
     7
  0
POLYLINE
  5
14F
  8
1
  6
CONTINUOUS
 62
     7
 66
     1
 10
0.0
 20
0.0
 30
0.0
  0
VERTEX
  5
471
  8
1
  6
CONTINUOUS
 62
     7
 10
504.4064964682374
 20
318.25
 30
0.0
  0
VERTEX
  5
472
  8
1
  6
CONTINUOUS
 62
     7
 10
504.4996584352085
 20
318.3028404788911
 30
0.0
  0
VERTEX
  5
473
  8
1
  6
CONTINUOUS
 62
     7
 10
504.5892402400347
 20
318.459331285594
 30
0.0
  0
VERTEX
  5
474
  8
1
  6
CONTINUOUS
 62
     7
 10
504.6717993041945
 20
318.713458566168
 30
0.0
  0
VERTEX
  5
475
  8
1
  6
CONTINUOUS
 62
     7
 10
504.7441629291521
 20
319.055456351737
 30
0.0
  0
VERTEX
  5
476
  8
1
  6
CONTINUOUS
 62
     7
 10
504.8035502213823
 20
319.4721818591962
 30
0.0
  0
VERTEX
  5
477
  8
1
  6
CONTINUOUS
 62
     7
 10
504.8476789605494
 20
319.947620560996
 30
0.0
  0
VERTEX
  5
478
  8
1
  6
CONTINUOUS
 62
     7
 10
504.874853303955
 20
320.4635016144557
 30
0.0
  0
VERTEX
  5
479
  8
1
  6
CONTINUOUS
 62
     7
 10
504.8840289568215
 20
321.0000000000001
 30
0.0
  0
VERTEX
  5
47A
  8
1
  6
CONTINUOUS
 62
     7
 10
504.874853303955
 20
321.5364983855444
 30
0.0
  0
VERTEX
  5
47B
  8
1
  6
CONTINUOUS
 62
     7
 10
504.8476789605494
 20
322.0523794390041
 30
0.0
  0
VERTEX
  5
47C
  8
1
  6
CONTINUOUS
 62
     7
 10
504.8035502213823
 20
322.527818140804
 30
0.0
  0
VERTEX
  5
47D
  8
1
  6
CONTINUOUS
 62
     7
 10
504.7441629291521
 20
322.9445436482631
 30
0.0
  0
VERTEX
  5
47E
  8
1
  6
CONTINUOUS
 62
     7
 10
504.6717993041945
 20
323.2865414338321
 30
0.0
  0
VERTEX
  5
47F
  8
1
  6
CONTINUOUS
 62
     7
 10
504.5892402400347
 20
323.5406687144061
 30
0.0
  0
VERTEX
  5
480
  8
1
  6
CONTINUOUS
 62
     7
 10
504.4996584352085
 20
323.697159521109
 30
0.0
  0
VERTEX
  5
481
  8
1
  6
CONTINUOUS
 62
     7
 10
504.4064964682374
 20
323.7500000000001
 30
0.0
  0
SEQEND
  5
54E
  8
1
  6
CONTINUOUS
 62
     7
  0
LINE
  5
150
  8
1
  6
CONTINUOUS
 62
     7
 10
522.6848673109083
 20
299.5000000000001
 30
0.0
 11
519.6848673109084
 21
299.5000000000001
 31
0.0
  0
LINE
  5
151
  8
1
  6
CONTINUOUS
 62
     7
 10
522.6848673109083
 20
320.5000000000001
 30
0.0
 11
522.6848673109083
 21
299.5000000000001
 31
0.0
  0
LINE
  5
152
  8
1
  6
CONTINUOUS
 62
     7
 10
522.6848673109083
 20
320.5000000000001
 30
0.0
 11
519.6848673109084
 21
320.5000000000001
 31
0.0
  0
LINE
  5
153
  8
1
  6
CONTINUOUS
 62
     7
 10
519.6848673109084
 20
320.5000000000001
 30
0.0
 11
519.6848673109084
 21
299.5000000000001
 31
0.0
  0
LINE
  5
154
  8
1
  6
CONTINUOUS
 62
     7
 10
514.5093055901141
 20
320.2466643547022
 30
0.0
 11
507.1848673109083
 21
317.5000000000001
 31
0.0
  0
ARC
  5
155
  8
1
  6
CONTINUOUS
 62
     7
 10
524.1848673109083
 20
324.0000000000001
 30
0.0
 40
3.000000000000003
 50
0.0
 51
90.0
  0
LINE
  5
156
  8
1
  6
CONTINUOUS
 62
     7
 10
527.1848673109083
 20
296.0000000000001
 30
0.0
 11
527.1848673109083
 21
300.0000000000001
 31
0.0
  0
LINE
  5
157
  8
1
  6
CONTINUOUS
 62
     7
 10
527.1848673109083
 20
320.0000000000001
 30
0.0
 11
527.1848673109083
 21
324.0000000000001
 31
0.0
  0
ARC
  5
158
  8
1
  6
CONTINUOUS
 62
     7
 10
524.1848673109083
 20
296.0000000000001
 30
0.0
 40
3.000000000000003
 50
270.0
 51
0.0
  0
LINE
  5
159
  8
1
  6
CONTINUOUS
 62
     7
 10
514.5093055901141
 20
299.7533356452979
 30
0.0
 11
507.1848673109083
 21
302.5000000000001
 31
0.0
  0
ARC
  5
15A
  8
1
  6
CONTINUOUS
 62
     7
 10
514.6848673109083
 20
300.2215002340824
 30
0.0
 40
0.4999999999999449
 50
249.4439547804168
 51
0.0000000000003979
  0
LINE
  5
15B
  8
1
  6
CONTINUOUS
 62
     7
 10
515.1848673109083
 20
319.7784997659177
 30
0.0
 11
515.1848673109083
 21
300.2215002340824
 31
0.0
  0
ARC
  5
15C
  8
1
  6
CONTINUOUS
 62
     7
 10
514.6848673109083
 20
319.7784997659177
 30
0.0
 40
0.4999999999999449
 50
359.9999999999996
 51
110.5560452195833
  0
LINE
  5
15D
  8
1
  6
CONTINUOUS
 62
     7
 10
780.5921627871556
 20
301.2236067977501
 30
0.0
 11
780.5921627871556
 21
300.7763932022501
 31
0.0
  0
POLYLINE
  5
15E
  8
1
  6
CONTINUOUS
 62
     7
 66
     1
 10
0.0
 20
0.0
 30
0.0
  0
VERTEX
  5
482
  8
1
  6
CONTINUOUS
 62
     7
 10
780.5921627871555
 20
301.22360679775
 30
0.0
  0
VERTEX
  5
483
  8
1
  6
CONTINUOUS
 62
     7
 10
780.0478009592033
 20
302.1996474140368
 30
0.0
  0
VERTEX
  5
484
  8
1
  6
CONTINUOUS
 62
     7
 10
779.336794768647
 20
302.7982709416962
 30
0.0
  0
VERTEX
  5
485
  8
1
  6
CONTINUOUS
 62
     7
 10
778.4822781847233
 20
303.0000000000001
 30
0.0
  0
VERTEX
  5
486
  8
1
  6
CONTINUOUS
 62
     7
 10
777.5120545664295
 20
302.7982709416963
 30
0.0
  0
VERTEX
  5
487
  8
1
  6
CONTINUOUS
 62
     7
 10
776.4576920261624
 20
302.1996474140369
 30
0.0
  0
VERTEX
  5
488
  8
1
  6
CONTINUOUS
 62
     7
 10
775.3534962997863
 20
301.2236067977501
 30
0.0
  0
SEQEND
  5
54F
  8
1
  6
CONTINUOUS
 62
     7
  0
POLYLINE
  5
15F
  8
1
  6
CONTINUOUS
 62
     7
 66
     1
 10
0.0
 20
0.0
 30
0.0
  0
VERTEX
  5
489
  8
1
  6
CONTINUOUS
 62
     7
 10
775.3534962997865
 20
300.7763932022501
 30
0.0
  0
VERTEX
  5
48A
  8
1
  6
CONTINUOUS
 62
     7
 10
775.3411593200209
 20
300.7896586576827
 30
0.0
  0
VERTEX
  5
48B
  8
1
  6
CONTINUOUS
 62
     7
 10
775.3293403862948
 20
300.8034459703381
 30
0.0
  0
VERTEX
  5
48C
  8
1
  6
CONTINUOUS
 62
     7
 10
775.3181114980591
 20
300.817737967056
 30
0.0
  0
VERTEX
  5
48D
  8
1
  6
CONTINUOUS
 62
     7
 10
775.3075446547648
 20
300.8325174746755
 30
0.0
  0
VERTEX
  5
48E
  8
1
  6
CONTINUOUS
 62
     7
 10
775.2977118558625
 20
300.8477673200362
 30
0.0
  0
VERTEX
  5
48F
  8
1
  6
CONTINUOUS
 62
     7
 10
775.2886851008037
 20
300.8634703299774
 30
0.0
  0
VERTEX
  5
490
  8
1
  6
CONTINUOUS
 62
     7
 10
775.2825048659748
 20
300.8754942901268
 30
0.0
  0
VERTEX
  5
491
  8
1
  6
CONTINUOUS
 62
     7
 10
775.2768245788396
 20
300.8877769346084
 30
0.0
  0
VERTEX
  5
492
  8
1
  6
CONTINUOUS
 62
     7
 10
775.2716780252065
 20
300.9002917220104
 30
0.0
  0
VERTEX
  5
493
  8
1
  6
CONTINUOUS
 62
     7
 10
775.2670989908836
 20
300.913012110921
 30
0.0
  0
VERTEX
  5
494
  8
1
  6
CONTINUOUS
 62
     7
 10
775.2629863917487
 20
300.9263845250221
 30
0.0
  0
VERTEX
  5
495
  8
1
  6
CONTINUOUS
 62
     7
 10
775.2595290738121
 20
300.9399596824511
 30
0.0
  0
VERTEX
  5
496
  8
1
  6
CONTINUOUS
 62
     7
 10
775.2567537385487
 20
300.9536895330366
 30
0.0
  0
VERTEX
  5
497
  8
1
  6
CONTINUOUS
 62
     7
 10
775.2546870874329
 20
300.9675260266072
 30
0.0
  0
VERTEX
  5
498
  8
1
  6
CONTINUOUS
 62
     7
 10
775.2534726038332
 20
300.9797413541354
 30
0.0
  0
VERTEX
  5
499
  8
1
  6
CONTINUOUS
 62
     7
 10
775.2528204259407
 20
300.992012813851
 30
0.0
  0
VERTEX
  5
49A
  8
1
  6
CONTINUOUS
 62
     7
 10
775.2527332640655
 20
301.0043012004466
 30
0.0
  0
VERTEX
  5
49B
  8
1
  6
CONTINUOUS
 62
     7
 10
775.2532138285173
 20
301.0165673086153
 30
0.0
  0
VERTEX
  5
49C
  8
1
  6
CONTINUOUS
 62
     7
 10
775.2543117669759
 20
301.0292356809451
 30
0.0
  0
VERTEX
  5
49D
  8
1
  6
CONTINUOUS
 62
     7
 10
775.2560100473627
 20
301.0418516334813
 30
0.0
  0
VERTEX
  5
49E
  8
1
  6
CONTINUOUS
 62
     7
 10
775.2582937707518
 20
301.0543753218136
 30
0.0
  0
VERTEX
  5
49F
  8
1
  6
CONTINUOUS
 62
     7
 10
775.2611480382177
 20
301.0667669015317
 30
0.0
  0
VERTEX
  5
4A0
  8
1
  6
CONTINUOUS
 62
     7
 10
775.2652421444943
 20
301.0812137603518
 30
0.0
  0
VERTEX
  5
4A1
  8
1
  6
CONTINUOUS
 62
     7
 10
775.2700930142415
 20
301.0954584339611
 30
0.0
  0
VERTEX
  5
4A2
  8
1
  6
CONTINUOUS
 62
     7
 10
775.275655124329
 20
301.109463077735
 30
0.0
  0
VERTEX
  5
4A3
  8
1
  6
CONTINUOUS
 62
     7
 10
775.2818829516261
 20
301.1231898470489
 30
0.0
  0
VERTEX
  5
4A4
  8
1
  6
CONTINUOUS
 62
     7
 10
775.2887309730029
 20
301.1366008972783
 30
0.0
  0
VERTEX
  5
4A5
  8
1
  6
CONTINUOUS
 62
     7
 10
775.2961536653287
 20
301.1496583837986
 30
0.0
  0
VERTEX
  5
4A6
  8
1
  6
CONTINUOUS
 62
     7
 10
775.3061854497508
 20
301.1654805756765
 30
0.0
  0
VERTEX
  5
4A7
  8
1
  6
CONTINUOUS
 62
     7
 10
775.3170130961514
 20
301.1808019197448
 30
0.0
  0
VERTEX
  5
4A8
  8
1
  6
CONTINUOUS
 62
     7
 10
775.3285591137866
 20
301.1956070092693
 30
0.0
  0
VERTEX
  5
4A9
  8
1
  6
CONTINUOUS
 62
     7
 10
775.3407460119128
 20
301.2098804375158
 30
0.0
  0
VERTEX
  5
4AA
  8
1
  6
CONTINUOUS
 62
     7
 10
775.3534962997865
 20
301.2236067977501
 30
0.0
  0
SEQEND
  5
550
  8
1
  6
CONTINUOUS
 62
     7
  0
POLYLINE
  5
160
  8
1
  6
CONTINUOUS
 62
     7
 66
     1
 10
0.0
 20
0.0
 30
0.0
  0
VERTEX
  5
4AB
  8
1
  6
CONTINUOUS
 62
     7
 10
775.3534962997863
 20
300.77639320225
 30
0.0
  0
VERTEX
  5
4AC
  8
1
  6
CONTINUOUS
 62
     7
 10
776.4576920261622
 20
299.8003525859632
 30
0.0
  0
VERTEX
  5
4AD
  8
1
  6
CONTINUOUS
 62
     7
 10
777.5120545664295
 20
299.2017290583039
 30
0.0
  0
VERTEX
  5
4AE
  8
1
  6
CONTINUOUS
 62
     7
 10
778.4822781847233
 20
299.0000000000001
 30
0.0
  0
VERTEX
  5
4AF
  8
1
  6
CONTINUOUS
 62
     7
 10
779.336794768647
 20
299.201729058304
 30
0.0
  0
VERTEX
  5
4B0
  8
1
  6
CONTINUOUS
 62
     7
 10
780.0478009592033
 20
299.8003525859633
 30
0.0
  0
VERTEX
  5
4B1
  8
1
  6
CONTINUOUS
 62
     7
 10
780.5921627871555
 20
300.7763932022501
 30
0.0
  0
SEQEND
  5
551
  8
1
  6
CONTINUOUS
 62
     7
  0
LINE
  5
161
  8
1
  6
CONTINUOUS
 62
     7
 10
771.8261042793471
 20
312.7
 30
0.0
 11
771.8261042793471
 21
307.3000000000001
 31
0.0
  0
LINE
  5
162
  8
1
  6
CONTINUOUS
 62
     7
 10
780.5921627871556
 20
319.22360679775
 30
0.0
 11
780.5921627871556
 21
318.7763932022501
 31
0.0
  0
POLYLINE
  5
163
  8
1
  6
CONTINUOUS
 62
     7
 66
     1
 10
0.0
 20
0.0
 30
0.0
  0
VERTEX
  5
4B2
  8
1
  6
CONTINUOUS
 62
     7
 10
780.5921627871555
 20
319.2236067977499
 30
0.0
  0
VERTEX
  5
4B3
  8
1
  6
CONTINUOUS
 62
     7
 10
780.0478009592033
 20
320.1996474140367
 30
0.0
  0
VERTEX
  5
4B4
  8
1
  6
CONTINUOUS
 62
     7
 10
779.3367947686469
 20
320.7982709416961
 30
0.0
  0
VERTEX
  5
4B5
  8
1
  6
CONTINUOUS
 62
     7
 10
778.4822781847233
 20
321.0
 30
0.0
  0
VERTEX
  5
4B6
  8
1
  6
CONTINUOUS
 62
     7
 10
777.5120545664295
 20
320.7982709416962
 30
0.0
  0
VERTEX
  5
4B7
  8
1
  6
CONTINUOUS
 62
     7
 10
776.4576920261624
 20
320.1996474140368
 30
0.0
  0
VERTEX
  5
4B8
  8
1
  6
CONTINUOUS
 62
     7
 10
775.3534962997863
 20
319.22360679775
 30
0.0
  0
SEQEND
  5
552
  8
1
  6
CONTINUOUS
 62
     7
  0
POLYLINE
  5
164
  8
1
  6
CONTINUOUS
 62
     7
 66
     1
 10
0.0
 20
0.0
 30
0.0
  0
VERTEX
  5
4B9
  8
1
  6
CONTINUOUS
 62
     7
 10
775.3534962997865
 20
318.7763932022501
 30
0.0
  0
VERTEX
  5
4BA
  8
1
  6
CONTINUOUS
 62
     7
 10
775.3411593200209
 20
318.7896586576827
 30
0.0
  0
VERTEX
  5
4BB
  8
1
  6
CONTINUOUS
 62
     7
 10
775.3293403862948
 20
318.8034459703381
 30
0.0
  0
VERTEX
  5
4BC
  8
1
  6
CONTINUOUS
 62
     7
 10
775.3181114980591
 20
318.817737967056
 30
0.0
  0
VERTEX
  5
4BD
  8
1
  6
CONTINUOUS
 62
     7
 10
775.3075446547648
 20
318.8325174746756
 30
0.0
  0
VERTEX
  5
4BE
  8
1
  6
CONTINUOUS
 62
     7
 10
775.2977118558625
 20
318.8477673200362
 30
0.0
  0
VERTEX
  5
4BF
  8
1
  6
CONTINUOUS
 62
     7
 10
775.2886851008037
 20
318.8634703299774
 30
0.0
  0
VERTEX
  5
4C0
  8
1
  6
CONTINUOUS
 62
     7
 10
775.2825048659748
 20
318.8754942901268
 30
0.0
  0
VERTEX
  5
4C1
  8
1
  6
CONTINUOUS
 62
     7
 10
775.2768245788396
 20
318.8877769346084
 30
0.0
  0
VERTEX
  5
4C2
  8
1
  6
CONTINUOUS
 62
     7
 10
775.2716780252064
 20
318.9002917220104
 30
0.0
  0
VERTEX
  5
4C3
  8
1
  6
CONTINUOUS
 62
     7
 10
775.2670989908835
 20
318.9130121109209
 30
0.0
  0
VERTEX
  5
4C4
  8
1
  6
CONTINUOUS
 62
     7
 10
775.2629863917487
 20
318.926384525022
 30
0.0
  0
VERTEX
  5
4C5
  8
1
  6
CONTINUOUS
 62
     7
 10
775.2595290738121
 20
318.9399596824511
 30
0.0
  0
VERTEX
  5
4C6
  8
1
  6
CONTINUOUS
 62
     7
 10
775.2567537385487
 20
318.9536895330366
 30
0.0
  0
VERTEX
  5
4C7
  8
1
  6
CONTINUOUS
 62
     7
 10
775.254687087433
 20
318.9675260266072
 30
0.0
  0
VERTEX
  5
4C8
  8
1
  6
CONTINUOUS
 62
     7
 10
775.2534726038332
 20
318.9797413541354
 30
0.0
  0
VERTEX
  5
4C9
  8
1
  6
CONTINUOUS
 62
     7
 10
775.2528204259406
 20
318.9920128138509
 30
0.0
  0
VERTEX
  5
4CA
  8
1
  6
CONTINUOUS
 62
     7
 10
775.2527332640655
 20
319.0043012004466
 30
0.0
  0
VERTEX
  5
4CB
  8
1
  6
CONTINUOUS
 62
     7
 10
775.2532138285173
 20
319.0165673086153
 30
0.0
  0
VERTEX
  5
4CC
  8
1
  6
CONTINUOUS
 62
     7
 10
775.2543117669758
 20
319.0292356809451
 30
0.0
  0
VERTEX
  5
4CD
  8
1
  6
CONTINUOUS
 62
     7
 10
775.2560100473626
 20
319.0418516334813
 30
0.0
  0
VERTEX
  5
4CE
  8
1
  6
CONTINUOUS
 62
     7
 10
775.2582937707518
 20
319.0543753218136
 30
0.0
  0
VERTEX
  5
4CF
  8
1
  6
CONTINUOUS
 62
     7
 10
775.2611480382177
 20
319.0667669015317
 30
0.0
  0
VERTEX
  5
4D0
  8
1
  6
CONTINUOUS
 62
     7
 10
775.2652421444943
 20
319.0812137603519
 30
0.0
  0
VERTEX
  5
4D1
  8
1
  6
CONTINUOUS
 62
     7
 10
775.2700930142415
 20
319.0954584339611
 30
0.0
  0
VERTEX
  5
4D2
  8
1
  6
CONTINUOUS
 62
     7
 10
775.275655124329
 20
319.109463077735
 30
0.0
  0
VERTEX
  5
4D3
  8
1
  6
CONTINUOUS
 62
     7
 10
775.2818829516261
 20
319.1231898470488
 30
0.0
  0
VERTEX
  5
4D4
  8
1
  6
CONTINUOUS
 62
     7
 10
775.2887309730029
 20
319.1366008972782
 30
0.0
  0
VERTEX
  5
4D5
  8
1
  6
CONTINUOUS
 62
     7
 10
775.2961536653287
 20
319.1496583837987
 30
0.0
  0
VERTEX
  5
4D6
  8
1
  6
CONTINUOUS
 62
     7
 10
775.3061854497508
 20
319.1654805756764
 30
0.0
  0
VERTEX
  5
4D7
  8
1
  6
CONTINUOUS
 62
     7
 10
775.3170130961514
 20
319.1808019197447
 30
0.0
  0
VERTEX
  5
4D8
  8
1
  6
CONTINUOUS
 62
     7
 10
775.3285591137866
 20
319.1956070092692
 30
0.0
  0
VERTEX
  5
4D9
  8
1
  6
CONTINUOUS
 62
     7
 10
775.3407460119128
 20
319.2098804375157
 30
0.0
  0
VERTEX
  5
4DA
  8
1
  6
CONTINUOUS
 62
     7
 10
775.3534962997865
 20
319.22360679775
 30
0.0
  0
SEQEND
  5
553
  8
1
  6
CONTINUOUS
 62
     7
  0
POLYLINE
  5
165
  8
1
  6
CONTINUOUS
 62
     7
 66
     1
 10
0.0
 20
0.0
 30
0.0
  0
VERTEX
  5
4DB
  8
1
  6
CONTINUOUS
 62
     7
 10
775.3534962997863
 20
318.7763932022501
 30
0.0
  0
VERTEX
  5
4DC
  8
1
  6
CONTINUOUS
 62
     7
 10
776.4576920261624
 20
317.8003525859633
 30
0.0
  0
VERTEX
  5
4DD
  8
1
  6
CONTINUOUS
 62
     7
 10
777.5120545664295
 20
317.201729058304
 30
0.0
  0
VERTEX
  5
4DE
  8
1
  6
CONTINUOUS
 62
     7
 10
778.4822781847233
 20
317.0000000000001
 30
0.0
  0
VERTEX
  5
4DF
  8
1
  6
CONTINUOUS
 62
     7
 10
779.336794768647
 20
317.201729058304
 30
0.0
  0
VERTEX
  5
4E0
  8
1
  6
CONTINUOUS
 62
     7
 10
780.0478009592033
 20
317.8003525859634
 30
0.0
  0
VERTEX
  5
4E1
  8
1
  6
CONTINUOUS
 62
     7
 10
780.5921627871555
 20
318.7763932022502
 30
0.0
  0
SEQEND
  5
554
  8
1
  6
CONTINUOUS
 62
     7
  0
POLYLINE
  5
166
  8
1
  6
CONTINUOUS
 62
     7
 66
     1
 10
0.0
 20
0.0
 30
0.0
  0
VERTEX
  5
4E2
  8
1
  6
CONTINUOUS
 62
     7
 10
771.826104279347
 20
312.7
 30
0.0
  0
VERTEX
  5
4E3
  8
1
  6
CONTINUOUS
 62
     7
 10
771.8177840616983
 20
312.7975451610081
 30
0.0
  0
VERTEX
  5
4E4
  8
1
  6
CONTINUOUS
 62
     7
 10
771.7931431500504
 20
312.8913417161826
 30
0.0
  0
VERTEX
  5
4E5
  8
1
  6
CONTINUOUS
 62
     7
 10
771.7531284808191
 20
312.9777851165098
 30
0.0
  0
VERTEX
  5
4E6
  8
1
  6
CONTINUOUS
 62
     7
 10
771.6992777953026
 20
313.0535533905933
 30
0.0
  0
VERTEX
  5
4E7
  8
1
  6
CONTINUOUS
 62
     7
 10
771.6336605451454
 20
313.1157348061513
 30
0.0
  0
VERTEX
  5
4E8
  8
1
  6
CONTINUOUS
 62
     7
 10
771.5587983644725
 20
313.1619397662557
 30
0.0
  0
VERTEX
  5
4E9
  8
1
  6
CONTINUOUS
 62
     7
 10
771.4775681649039
 20
313.1903926402017
 30
0.0
  0
VERTEX
  5
4EA
  8
1
  6
CONTINUOUS
 62
     7
 10
771.3930915774547
 20
313.2
 30
0.0
  0
SEQEND
  5
555
  8
1
  6
CONTINUOUS
 62
     7
  0
LINE
  5
167
  8
1
  6
CONTINUOUS
 62
     7
 10
771.3930915774548
 20
306.8000000000001
 30
0.0
 11
770.8680222448377
 21
306.8000000000001
 31
0.0
  0
LINE
  5
168
  8
1
  6
CONTINUOUS
 62
     7
 10
759.8347017914706
 20
306.8000000000001
 30
0.0
 11
755.8046343093349
 21
306.8000000000001
 31
0.0
  0
POLYLINE
  5
169
  8
1
  6
CONTINUOUS
 62
     7
 66
     1
 10
0.0
 20
0.0
 30
0.0
  0
VERTEX
  5
4EB
  8
1
  6
CONTINUOUS
 62
     7
 10
771.3930915774547
 20
306.8000000000001
 30
0.0
  0
VERTEX
  5
4EC
  8
1
  6
CONTINUOUS
 62
     7
 10
771.4775681649039
 20
306.8096073597985
 30
0.0
  0
VERTEX
  5
4ED
  8
1
  6
CONTINUOUS
 62
     7
 10
771.5587983644725
 20
306.8380602337444
 30
0.0
  0
VERTEX
  5
4EE
  8
1
  6
CONTINUOUS
 62
     7
 10
771.6336605451454
 20
306.8842651938488
 30
0.0
  0
VERTEX
  5
4EF
  8
1
  6
CONTINUOUS
 62
     7
 10
771.6992777953026
 20
306.9464466094068
 30
0.0
  0
VERTEX
  5
4F0
  8
1
  6
CONTINUOUS
 62
     7
 10
771.7531284808191
 20
307.0222148834903
 30
0.0
  0
VERTEX
  5
4F1
  8
1
  6
CONTINUOUS
 62
     7
 10
771.7931431500504
 20
307.1086582838175
 30
0.0
  0
VERTEX
  5
4F2
  8
1
  6
CONTINUOUS
 62
     7
 10
771.8177840616983
 20
307.202454838992
 30
0.0
  0
VERTEX
  5
4F3
  8
1
  6
CONTINUOUS
 62
     7
 10
771.826104279347
 20
307.3000000000001
 30
0.0
  0
SEQEND
  5
556
  8
1
  6
CONTINUOUS
 62
     7
  0
POLYLINE
  5
16A
  8
1
  6
CONTINUOUS
 62
     7
 66
     1
 10
0.0
 20
0.0
 30
0.0
  0
VERTEX
  5
4F4
  8
1
  6
CONTINUOUS
 62
     7
 10
754.9386089055504
 20
298.0000000000001
 30
0.0
  0
VERTEX
  5
4F5
  8
1
  6
CONTINUOUS
 62
     7
 10
755.0218110820374
 20
297.0245483899194
 30
0.0
  0
VERTEX
  5
4F6
  8
1
  6
CONTINUOUS
 62
     7
 10
755.2682201985162
 20
296.0865828381746
 30
0.0
  0
VERTEX
  5
4F7
  8
1
  6
CONTINUOUS
 62
     7
 10
755.6683668908286
 20
295.222148834902
 30
0.0
  0
VERTEX
  5
4F8
  8
1
  6
CONTINUOUS
 62
     7
 10
756.2068737459936
 20
294.4644660940673
 30
0.0
  0
VERTEX
  5
4F9
  8
1
  6
CONTINUOUS
 62
     7
 10
756.8630462475655
 20
293.8426519384873
 30
0.0
  0
VERTEX
  5
4FA
  8
1
  6
CONTINUOUS
 62
     7
 10
757.6116680542947
 20
293.3806023374436
 30
0.0
  0
VERTEX
  5
4FB
  8
1
  6
CONTINUOUS
 62
     7
 10
758.4239700499803
 20
293.0960735979839
 30
0.0
  0
VERTEX
  5
4FC
  8
1
  6
CONTINUOUS
 62
     7
 10
759.2687359244726
 20
293.0000000000001
 30
0.0
  0
SEQEND
  5
557
  8
1
  6
CONTINUOUS
 62
     7
  0
LINE
  5
16B
  8
1
  6
CONTINUOUS
 62
     7
 10
754.9386089055505
 20
298.0000000000001
 30
0.0
 11
754.9386089055505
 21
305.8000000000001
 31
0.0
  0
POLYLINE
  5
16C
  8
1
  6
CONTINUOUS
 62
     7
 66
     1
 10
0.0
 20
0.0
 30
0.0
  0
VERTEX
  5
4FD
  8
1
  6
CONTINUOUS
 62
     7
 10
755.8046343093346
 20
306.8000000000001
 30
0.0
  0
VERTEX
  5
4FE
  8
1
  6
CONTINUOUS
 62
     7
 10
755.6356811344361
 20
306.7807852804032
 30
0.0
  0
VERTEX
  5
4FF
  8
1
  6
CONTINUOUS
 62
     7
 10
755.473220735299
 20
306.7238795325112
 30
0.0
  0
VERTEX
  5
500
  8
1
  6
CONTINUOUS
 62
     7
 10
755.3234963739532
 20
306.6314696123024
 30
0.0
  0
VERTEX
  5
501
  8
1
  6
CONTINUOUS
 62
     7
 10
755.1922618736389
 20
306.5071067811863
 30
0.0
  0
VERTEX
  5
502
  8
1
  6
CONTINUOUS
 62
     7
 10
755.0845605026059
 20
306.3555702330194
 30
0.0
  0
VERTEX
  5
503
  8
1
  6
CONTINUOUS
 62
     7
 10
755.0045311641435
 20
306.1826834323649
 30
0.0
  0
VERTEX
  5
504
  8
1
  6
CONTINUOUS
 62
     7
 10
754.9552493408478
 20
305.9950903220159
 30
0.0
  0
VERTEX
  5
505
  8
1
  6
CONTINUOUS
 62
     7
 10
754.9386089055505
 20
305.7999999999997
 30
0.0
  0
SEQEND
  5
558
  8
1
  6
CONTINUOUS
 62
     7
  0
LINE
  5
16D
  8
1
  6
CONTINUOUS
 62
     7
 10
754.9386089055505
 20
322.0000000000001
 30
0.0
 11
754.9386089055505
 21
314.2
 31
0.0
  0
POLYLINE
  5
16E
  8
1
  6
CONTINUOUS
 62
     7
 66
     1
 10
0.0
 20
0.0
 30
0.0
  0
VERTEX
  5
506
  8
1
  6
CONTINUOUS
 62
     7
 10
759.2687359244726
 20
327.0000000000001
 30
0.0
  0
VERTEX
  5
507
  8
1
  6
CONTINUOUS
 62
     7
 10
758.4239700499803
 20
326.9039264020162
 30
0.0
  0
VERTEX
  5
508
  8
1
  6
CONTINUOUS
 62
     7
 10
757.6116680542947
 20
326.6193976625565
 30
0.0
  0
VERTEX
  5
509
  8
1
  6
CONTINUOUS
 62
     7
 10
756.8630462475655
 20
326.1573480615128
 30
0.0
  0
VERTEX
  5
50A
  8
1
  6
CONTINUOUS
 62
     7
 10
756.2068737459936
 20
325.5355339059328
 30
0.0
  0
VERTEX
  5
50B
  8
1
  6
CONTINUOUS
 62
     7
 10
755.6683668908286
 20
324.7778511650981
 30
0.0
  0
VERTEX
  5
50C
  8
1
  6
CONTINUOUS
 62
     7
 10
755.2682201985162
 20
323.9134171618255
 30
0.0
  0
VERTEX
  5
50D
  8
1
  6
CONTINUOUS
 62
     7
 10
755.0218110820374
 20
322.9754516100807
 30
0.0
  0
VERTEX
  5
50E
  8
1
  6
CONTINUOUS
 62
     7
 10
754.9386089055504
 20
322.0000000000001
 30
0.0
  0
SEQEND
  5
559
  8
1
  6
CONTINUOUS
 62
     7
  0
LINE
  5
16F
  8
1
  6
CONTINUOUS
 62
     7
 10
771.3930915774548
 20
313.2
 30
0.0
 11
770.8680222448377
 21
313.2
 31
0.0
  0
LINE
  5
170
  8
1
  6
CONTINUOUS
 62
     7
 10
759.8347017914706
 20
313.2
 30
0.0
 11
755.8046343093349
 21
313.2
 31
0.0
  0
POLYLINE
  5
171
  8
1
  6
CONTINUOUS
 62
     7
 66
     1
 10
0.0
 20
0.0
 30
0.0
  0
VERTEX
  5
50F
  8
1
  6
CONTINUOUS
 62
     7
 10
754.9386089055505
 20
314.2000000000004
 30
0.0
  0
VERTEX
  5
510
  8
1
  6
CONTINUOUS
 62
     7
 10
754.9552493408478
 20
314.0049096779842
 30
0.0
  0
VERTEX
  5
511
  8
1
  6
CONTINUOUS
 62
     7
 10
755.0045311641435
 20
313.8173165676353
 30
0.0
  0
VERTEX
  5
512
  8
1
  6
CONTINUOUS
 62
     7
 10
755.0845605026059
 20
313.6444297669807
 30
0.0
  0
VERTEX
  5
513
  8
1
  6
CONTINUOUS
 62
     7
 10
755.1922618736389
 20
313.4928932188138
 30
0.0
  0
VERTEX
  5
514
  8
1
  6
CONTINUOUS
 62
     7
 10
755.3234963739532
 20
313.3685303876977
 30
0.0
  0
VERTEX
  5
515
  8
1
  6
CONTINUOUS
 62
     7
 10
755.473220735299
 20
313.2761204674889
 30
0.0
  0
VERTEX
  5
516
  8
1
  6
CONTINUOUS
 62
     7
 10
755.6356811344361
 20
313.2192147195969
 30
0.0
  0
VERTEX
  5
517
  8
1
  6
CONTINUOUS
 62
     7
 10
755.8046343093346
 20
313.2
 30
0.0
  0
SEQEND
  5
55A
  8
1
  6
CONTINUOUS
 62
     7
  0
LINE
  5
172
  8
1
  6
CONTINUOUS
 62
     7
 10
758.0740527322438
 20
313.2
 30
0.0
 11
758.0740527322438
 21
306.8000000000001
 31
0.0
  0
ARC
  5
173
  8
1
  6
CONTINUOUS
 62
     7
 10
756.5740527322438
 20
324.0000000000001
 30
0.0
 40
3.000000000000003
 50
90.0
 51
180.0
  0
LINE
  5
174
  8
1
  6
CONTINUOUS
 62
     7
 10
753.5740527322438
 20
296.0000000000001
 30
0.0
 11
753.5740527322438
 21
300.0000000000001
 31
0.0
  0
LINE
  5
175
  8
1
  6
CONTINUOUS
 62
     7
 10
753.5740527322438
 20
320.0000000000001
 30
0.0
 11
753.5740527322438
 21
324.0000000000001
 31
0.0
  0
ARC
  5
176
  8
1
  6
CONTINUOUS
 62
     7
 10
756.5740527322438
 20
296.0000000000001
 30
0.0
 40
3.000000000000003
 50
180.0
 51
270.0
  0
LINE
  5
177
  8
1
  6
CONTINUOUS
 62
     7
 10
782.4098568748116
 20
303.0000000000001
 30
0.0
 11
783.6901069537274
 21
303.0000000000001
 31
0.0
  0
LINE
  5
178
  8
1
  6
CONTINUOUS
 62
     7
 10
783.6901069537274
 20
317.0000000000001
 30
0.0
 11
782.4098568748116
 21
317.0000000000001
 31
0.0
  0
LINE
  5
179
  8
1
  6
CONTINUOUS
 62
     7
 10
788.8793128149822
 20
314.7611090819858
 30
0.0
 11
788.7499740831508
 21
315.0000000000001
 31
0.0
  0
LINE
  5
17A
  8
1
  6
CONTINUOUS
 62
     7
 10
788.7499740831508
 20
305.0000000000001
 30
0.0
 11
788.8793128149822
 21
305.2388909180144
 31
0.0
  0
LINE
  5
17B
  8
1
  6
CONTINUOUS
 62
     7
 10
765.2263620181541
 20
303.0000000000001
 30
0.0
 11
765.4763620181542
 21
303.0000000000001
 31
0.0
  0
LINE
  5
17C
  8
1
  6
CONTINUOUS
 62
     7
 10
765.4763620181542
 20
317.0000000000001
 30
0.0
 11
765.2263620181541
 21
317.0000000000001
 31
0.0
  0
LINE
  5
17D
  8
1
  6
CONTINUOUS
 62
     7
 10
771.8261042793471
 20
307.4
 30
0.0
 11
771.1048609299422
 21
307.4
 31
0.0
  0
LINE
  5
17E
  8
1
  6
CONTINUOUS
 62
     7
 10
771.1048609299422
 20
312.6
 30
0.0
 11
771.8261042793471
 21
312.6
 31
0.0
  0
LINE
  5
17F
  8
1
  6
CONTINUOUS
 62
     7
 10
810.3945460292374
 20
313.0000000000001
 30
0.0
 11
789.3087384294563
 21
313.0000000000001
 31
0.0
  0
LINE
  5
180
  8
1
  6
CONTINUOUS
 62
     7
 10
789.3087384294563
 20
307.0000000000001
 30
0.0
 11
810.3945460292374
 21
307.0000000000001
 31
0.0
  0
LINE
  5
181
  8
1
  6
CONTINUOUS
 62
     7
 10
781.1261042793469
 20
293.0000000000001
 30
0.0
 11
781.1261042793469
 21
327.0000000000001
 31
0.0
  0
LINE
  5
182
  8
1
  6
CONTINUOUS
 62
     7
 10
781.1263177617747
 20
319.6631663845679
 30
0.0
 11
781.2490884040664
 21
321.0000000000001
 31
0.0
  0
LINE
  5
183
  8
1
  6
CONTINUOUS
 62
     7
 10
781.2490884040664
 20
321.0000000000001
 30
0.0
 11
781.1262287268023
 21
322.3372010392093
 31
0.0
  0
LINE
  5
184
  8
1
  6
CONTINUOUS
 62
     7
 10
781.1263177617747
 20
297.6631663845679
 30
0.0
 11
781.2490884040664
 21
299.0000000000001
 31
0.0
  0
LINE
  5
185
  8
1
  6
CONTINUOUS
 62
     7
 10
781.2490884040664
 20
299.0000000000001
 30
0.0
 11
781.1262287268023
 21
300.3372010392093
 31
0.0
  0
ENDBLK
  8
0
  0
BLOCK
  8
0
  2
D_FRAME_VIEW_1935
 70
     0
 10
0.0
 20
0.0
 30
0.0
  0
LINE
  5
18A
  8
1
  6
CONTINUOUS
 62
     7
 10
745.519550241587
 20
124.4447082126693
 30
0.0
 11
745.7139223099132
 21
124.6168556109791
 31
0.0
  0
ARC
  5
18B
  8
1
  6
CONTINUOUS
 62
     7
 10
704.7111111828415
 20
107.8432844092426
 30
0.0
 40
44.30105203245223
 50
22.24865727153873
 51
28.97698305282435
  0
LINE
  5
18C
  8
1
  6
CONTINUOUS
 62
     7
 10
735.2248237394742
 20
139.5279020772436
 30
0.0
 11
730.8430511751826
 21
145.8917677597574
 31
0.0
  0
ARC
  5
18D
  8
1
  6
CONTINUOUS
 62
     7
 10
726.7248409803648
 20
143.0562175854
 30
0.0
 40
4.999999999999977
 50
34.54894456495196
 51
80.00000000000003
  0
LINE
  5
18E
  8
1
  6
CONTINUOUS
 62
     7
 10
727.5930818686994
 20
147.9802563504611
 30
0.0
 11
722.8393867320883
 21
148.8184610611082
 31
0.0
  0
ARC
  5
18F
  8
1
  6
CONTINUOUS
 62
     7
 10
722.9088460031551
 20
149.2123841623131
 30
0.0
 40
0.4000000000000033
 50
169.9999999999998
 51
260.0000000000011
  0
ARC
  5
190
  8
1
  6
CONTINUOUS
 62
     7
 10
723.4645201716893
 20
152.3637689719522
 30
0.0
 40
0.3999999999999036
 50
79.99999999999966
 51
169.9999999999987
  0
LINE
  5
191
  8
1
  6
CONTINUOUS
 62
     7
 10
723.533979442756
 20
152.757692073157
 30
0.0
 11
727.965614331311
 21
151.9762752736559
 31
0.0
  0
ARC
  5
192
  8
1
  6
CONTINUOUS
 62
     7
 10
727.8961550602442
 20
151.582352172451
 30
0.0
 40
0.4000000000000226
 50
34.5489445649506
 51
79.9999999999971
  0
LINE
  5
193
  8
1
  6
CONTINUOUS
 62
     7
 10
728.2256118758297
 20
151.8091961863996
 30
0.0
 11
741.1994038019294
 21
132.9667145196388
 31
0.0
  0
ARC
  5
194
  8
1
  6
CONTINUOUS
 62
     7
 10
726.7248409803648
 20
143.0562175854
 30
0.0
 40
5.400000000000007
 50
34.54894456495191
 51
79.99999999999994
  0
ARC
  5
195
  8
1
  6
CONTINUOUS
 62
     7
 10
704.7120614758429
 20
107.8437399748324
 30
0.0
 40
44.30000000000008
 50
28.97706303660391
 51
34.54894456495185
  0
LINE
  5
196
  8
1
  6
CONTINUOUS
 62
     7
 10
664.4804497584131
 20
124.4447082126693
 30
0.0
 11
664.2860776900869
 21
124.6168556109791
 31
0.0
  0
ARC
  5
197
  8
1
  6
CONTINUOUS
 62
     7
 10
705.2888888171586
 20
107.8432844092426
 30
0.0
 40
44.30105203245223
 50
151.0230169471757
 51
157.7513427284613
  0
ARC
  5
198
  8
1
  6
CONTINUOUS
 62
     7
 10
683.2751590196353
 20
143.0562175854
 30
0.0
 40
5.400000000000007
 50
100.0000000000001
 51
145.4510554350481
  0
LINE
  5
199
  8
1
  6
CONTINUOUS
 62
     7
 10
681.7743881241704
 20
151.8091961863996
 30
0.0
 11
668.8005961980707
 21
132.9667145196388
 31
0.0
  0
ARC
  5
19A
  8
1
  6
CONTINUOUS
 62
     7
 10
682.103844939756
 20
151.582352172451
 30
0.0
 40
0.4000000000000226
 50
100.0000000000029
 51
145.4510554350494
  0
ARC
  5
19B
  8
1
  6
CONTINUOUS
 62
     7
 10
686.5354798283108
 20
152.3637689719522
 30
0.0
 40
0.3999999999999036
 50
10.00000000000122
 51
100.0000000000003
  0
ARC
  5
19C
  8
1
  6
CONTINUOUS
 62
     7
 10
687.091153996845
 20
149.2123841623131
 30
0.0
 40
0.4000000000000033
 50
279.9999999999989
 51
10.00000000000017
  0
LINE
  5
19D
  8
1
  6
CONTINUOUS
 62
     7
 10
682.4069181313007
 20
147.9802563504611
 30
0.0
 11
687.1606132679118
 21
148.8184610611082
 31
0.0
  0
ARC
  5
19E
  8
1
  6
CONTINUOUS
 62
     7
 10
683.2751590196353
 20
143.0562175854
 30
0.0
 40
4.999999999999977
 50
100.0
 51
145.451055435048
  0
LINE
  5
19F
  8
1
  6
CONTINUOUS
 62
     7
 10
686.4660205572441
 20
152.757692073157
 30
0.0
 11
682.0343856686891
 21
151.9762752736559
 31
0.0
  0
LINE
  5
1A0
  8
1
  6
CONTINUOUS
 62
     7
 10
674.7751762605259
 20
139.5279020772436
 30
0.0
 11
679.1569488248175
 21
145.8917677597574
 31
0.0
  0
ARC
  5
1A1
  8
1
  6
CONTINUOUS
 62
     7
 10
705.2879385241572
 20
107.8437399748324
 30
0.0
 40
44.30000000000008
 50
145.4510554350481
 51
151.0229369633961
  0
LINE
  5
1A2
  8
1
  6
CONTINUOUS
 62
     7
 10
729.6101923640211
 20
149.0929707597903
 30
0.0
 11
729.3085123585465
 21
148.8257851064617
 31
0.0
  0
LINE
  5
1A3
  8
1
  6
CONTINUOUS
 62
     7
 10
680.389807635979
 20
149.0929707597903
 30
0.0
 11
680.6914876414536
 21
148.8257851064617
 31
0.0
  0
ARC
  5
1A4
  8
1
  6
CONTINUOUS
 62
     7
 10
704.7120614758428
 20
107.8437399748324
 30
0.0
 40
43.90000000000006
 50
270.3758036556717
 51
291.0035304546957
  0
ARC
  5
1A5
  8
1
  6
CONTINUOUS
 62
     7
 10
705.2879385241573
 20
107.8437399748324
 30
0.0
 40
43.90000000000005
 50
248.9647908631627
 51
269.6241963443283
  0
ARC
  5
1A6
  8
1
  6
CONTINUOUS
 62
     7
 10
704.4044846145774
 20
173.5586174158671
 30
0.0
 40
10.09586370049887
 50
0.4759411721613331
 51
17.11201260182903
  0
ARC
  5
1A7
  8
1
  6
CONTINUOUS
 62
     7
 10
711.6138970587383
 20
178.0747962375125
 30
0.0
 40
2.887911492574963
 50
327.6435929533619
 51
357.9721595786035
  0
ARC
  5
1A8
  8
1
  6
CONTINUOUS
 62
     7
 10
711.7149405012544
 20
169.2414270549898
 30
0.0
 40
2.785962476926517
 50
1.458815462637221
 51
32.92543200539855
  0
ARC
  5
1A9
  8
1
  6
CONTINUOUS
 62
     7
 10
704.0804319112417
 20
173.7764740543905
 30
0.0
 40
10.42042962247613
 50
343.1488196457584
 51
359.2632265802512
  0
LINE
  5
1AA
  8
1
  6
CONTINUOUS
 62
     7
 10
714.0534180126149
 20
170.7557288253461
 30
0.0
 11
709.5
 21
170.7557288253461
 31
0.0
  0
ARC
  5
1AB
  8
1
  6
CONTINUOUS
 62
     7
 10
711.6138970587378
 20
169.4145421996682
 30
0.0
 40
2.887911492575412
 50
327.6435929533644
 51
357.9721595786011
  0
LINE
  5
1AC
  8
1
  6
CONTINUOUS
 62
     7
 10
714.0534180126149
 20
167.8689774793979
 30
0.0
 11
709.5
 21
167.8689774793979
 31
0.0
  0
LINE
  5
1AD
  8
1
  6
CONTINUOUS
 62
     7
 10
714.0534180126149
 20
176.5292315172423
 30
0.0
 11
709.5
 21
176.5292315172423
 31
0.0
  0
LINE
  5
1AE
  8
1
  6
CONTINUOUS
 62
     7
 10
714.0534180126149
 20
179.4159828631904
 30
0.0
 11
709.5
 21
179.4159828631904
 31
0.0
  0
ARC
  5
1AF
  8
1
  6
CONTINUOUS
 62
     7
 10
711.7149405012543
 20
177.9016810928341
 30
0.0
 40
2.78596247692663
 50
1.458815462638304
 51
32.9254320053973
  0
LINE
  5
1B0
  8
1
  6
CONTINUOUS
 62
     7
 10
683.6978886899203
 20
176.2924229539225
 30
0.0
 11
694.4225108935859
 21
185.2914494895341
 31
0.0
  0
LINE
  5
1B1
  8
1
  6
CONTINUOUS
 62
     7
 10
684.0192824947636
 20
175.909400732363
 30
0.0
 11
694.7439046984292
 21
184.9084272679745
 31
0.0
  0
LINE
  5
1B2
  8
1
  6
CONTINUOUS
 62
     7
 10
736.2909557458686
 20
176.0462135125802
 30
0.0
 11
736.2909557458685
 21
170.0462135125802
 31
0.0
  0
LINE
  5
1B3
  8
1
  6
CONTINUOUS
 62
     7
 10
691.6797269259534
 20
182.3372768292284
 30
0.0
 11
691.8584963296913
 21
182.1242277500778
 31
0.0
  0
LINE
  5
1B4
  8
1
  6
CONTINUOUS
 62
     7
 10
687.2622296709775
 20
178.2675020919585
 30
0.0
 11
687.0834602672395
 21
178.4805511711091
 31
0.0
  0
LINE
  5
1B5
  8
1
  6
CONTINUOUS
 62
     7
 10
705.0
 20
183.5553157257896
 30
0.0
 11
708.2
 21
183.5553157257896
 31
0.0
  0
LINE
  5
1B6
  8
1
  6
CONTINUOUS
 62
     7
 10
727.8961550602442
 20
151.582352172451
 30
0.0
 11
727.3404808917101
 21
148.4309673628119
 31
0.0
  0
ARC
  5
1B7
  8
1
  6
CONTINUOUS
 62
     7
 10
708.2
 20
155.0553157257896
 30
0.0
 40
3.199999999999981
 50
180.0
 51
259.9999999999999
  0
LINE
  5
1B8
  8
1
  6
CONTINUOUS
 62
     7
 10
701.8000000000001
 20
179.8553157257896
 30
0.0
 11
701.8000000000001
 21
155.0553157257896
 31
0.0
  0
ARC
  5
1B9
  8
1
  6
CONTINUOUS
 62
     7
 10
698.8000000000001
 20
179.8553157257896
 30
0.0
 40
2.99999999999998
 50
0.0000000000005684
 51
130.0000000000001
  0
ARC
  5
1BA
  8
1
  6
CONTINUOUS
 62
     7
 10
698.8000000000001
 20
179.8553157257896
 30
0.0
 40
6.199999999999983
 50
0.0
 51
129.9999999999997
  0
ARC
  5
1BB
  8
1
  6
CONTINUOUS
 62
     7
 10
701.8000000000001
 20
155.0553157257896
 30
0.0
 40
3.199999999999994
 50
279.9999999999999
 51
0.0
  0
LINE
  5
1BC
  8
1
  6
CONTINUOUS
 62
     7
 10
681.9337705301203
 20
169.619090666259
 30
0.0
 11
679.8768501791235
 21
172.0704328842397
 31
0.0
  0
LINE
  5
1BD
  8
1
  6
CONTINUOUS
 62
     7
 10
682.65951910829
 20
148.4309673628119
 30
0.0
 11
682.1038449397558
 21
151.582352172451
 31
0.0
  0
LINE
  5
1BE
  8
1
  6
CONTINUOUS
 62
     7
 10
708.2
 20
166.6424801712942
 30
0.0
 11
709.5
 21
166.6424801712942
 31
0.0
  0
LINE
  5
1BF
  8
1
  6
CONTINUOUS
 62
     7
 10
709.5
 20
180.6424801712942
 30
0.0
 11
708.2
 21
180.6424801712942
 31
0.0
  0
LINE
  5
1C0
  8
1
  6
CONTINUOUS
 62
     7
 10
714.0534180126149
 20
167.8689774793979
 30
0.0
 11
714.5
 21
168.6424801712942
 31
0.0
  0
LINE
  5
1C1
  8
1
  6
CONTINUOUS
 62
     7
 10
714.5
 20
178.6424801712942
 30
0.0
 11
714.0534180126149
 21
179.4159828631904
 31
0.0
  0
ARC
  5
1C2
  8
1
  6
CONTINUOUS
 62
     7
 10
694.5560338545731
 20
174.2422562330609
 30
0.0
 40
11.05000000000004
 50
90.69235188389403
 51
169.3076481161059
  0
LINE
  5
1C3
  8
1
  6
CONTINUOUS
 62
     7
 10
683.6978886899203
 20
176.2924229539225
 30
0.0
 11
684.0192824947636
 21
175.909400732363
 31
0.0
  0
LINE
  5
1C4
  8
1
  6
CONTINUOUS
 62
     7
 10
694.7439046984293
 20
184.9084272679745
 30
0.0
 11
694.4225108935859
 21
185.2914494895341
 31
0.0
  0
LINE
  5
1C5
  8
1
  6
CONTINUOUS
 62
     7
 10
736.2909557458686
 20
176.0462135125802
 30
0.0
 11
714.5
 21
176.0462135125805
 31
0.0
  0
LINE
  5
1C6
  8
1
  6
CONTINUOUS
 62
     7
 10
714.5
 20
170.0462135125804
 30
0.0
 11
736.2909557458685
 21
170.0462135125802
 31
0.0
  0
LINE
  5
1C7
  8
1
  6
CONTINUOUS
 62
     7
 10
698.1709557458685
 20
170.4462135125806
 30
0.0
 11
701.8000000000001
 21
170.4462135125806
 31
0.0
  0
LINE
  5
1C8
  8
1
  6
CONTINUOUS
 62
     7
 10
701.8000000000001
 20
175.6462135125805
 30
0.0
 11
698.1709557458685
 21
175.6462135125805
 31
0.0
  0
ARC
  5
1C9
  8
1
  6
CONTINUOUS
 62
     7
 10
698.1709557458685
 20
178.6462135125805
 30
0.0
 40
3.000000000000003
 50
220.0
 51
269.9999999999993
  0
ARC
  5
1CA
  8
1
  6
CONTINUOUS
 62
     7
 10
698.1709557458685
 20
178.6462135125805
 30
0.0
 40
8.199999999999925
 50
220.0000000000001
 51
269.9999999999994
  0
LINE
  5
1CB
  8
1
  6
CONTINUOUS
 62
     7
 10
689.625567799222
 20
176.0732749178524
 30
0.0
 11
691.8893913122929
 21
173.3753551131509
 31
0.0
  0
LINE
  5
1CC
  8
1
  6
CONTINUOUS
 62
     7
 10
695.8728224165116
 20
176.7178506835209
 30
0.0
 11
693.6089989034407
 21
179.4157704882224
 31
0.0
  0
LINE
  5
1CD
  8
1
  6
CONTINUOUS
 62
     7
 10
697.6928171764959
 20
182.6434774417291
 30
0.0
 11
701.6475391896189
 21
180.7993602811357
 31
0.0
  0
ENDBLK
  8
0
  0
BLOCK
  8
0
  2
D_FRAME_VIEW_1474
 70
     0
 10
0.0
 20
0.0
 30
0.0
  0
LINE
  5
1D2
  8
1
  6
CONTINUOUS
 62
     7
 10
749.8794600215763
 20
230.8082960901238
 30
0.0
 11
749.8794600215763
 21
231.2082960901238
 31
0.0
  0
LINE
  5
1D3
  8
1
  6
CONTINUOUS
 62
     7
 10
530.8794600215758
 20
230.8082960901238
 30
0.0
 11
530.8794600215758
 21
231.2082960901238
 31
0.0
  0
ARC
  5
1D4
  8
1
  6
CONTINUOUS
 62
     7
 10
755.1292332920945
 20
247.4082960901238
 30
0.0
 40
18.10000000000009
 50
260.0000000000016
 51
269.9999999999998
  0
ARC
  5
1D5
  8
1
  6
CONTINUOUS
 62
     7
 10
745.9584049314399
 20
208.4082960901239
 30
0.0
 40
21.89999999999997
 50
80.00000000000004
 51
89.99999999999973
  0
LINE
  5
1D6
  8
1
  6
CONTINUOUS
 62
     7
 10
751.9862012763236
 20
229.5832757606033
 30
0.0
 11
749.7613000223455
 21
229.9755858810912
 31
0.0
  0
ARC
  5
1D7
  8
1
  6
CONTINUOUS
 62
     7
 10
709.4584049314398
 20
209.4082960901239
 30
0.0
 40
21.89999999999999
 50
79.99999999999997
 51
90.00000000000001
  0
ARC
  5
1D8
  8
1
  6
CONTINUOUS
 62
     7
 10
718.6292332920945
 20
248.4082960901238
 30
0.0
 40
18.1
 50
260.0000000000003
 51
270.0
  0
LINE
  5
1D9
  8
1
  6
CONTINUOUS
 62
     7
 10
715.4862012763231
 20
230.583275760603
 30
0.0
 11
713.2613000223455
 21
230.9755858810912
 31
0.0
  0
LINE
  5
1DA
  8
1
  6
CONTINUOUS
 62
     7
 10
745.9584049314399
 20
230.3082960901239
 30
0.0
 11
718.6292332920945
 21
230.3082960901238
 31
0.0
  0
LINE
  5
1DB
  8
1
  6
CONTINUOUS
 62
     7
 10
758.3794600215765
 20
229.3082960901242
 30
0.0
 11
755.1292332920945
 21
229.3082960901237
 31
0.0
  0
ARC
  5
1DC
  8
1
  6
CONTINUOUS
 62
     7
 10
525.6296867510574
 20
247.4082960901238
 30
0.0
 40
18.10000000000009
 50
270.0000000000002
 51
279.9999999999986
  0
LINE
  5
1DD
  8
1
  6
CONTINUOUS
 62
     7
 10
528.7727187668283
 20
229.5832757606033
 30
0.0
 11
530.9976200208064
 21
229.9755858810912
 31
0.0
  0
ARC
  5
1DE
  8
1
  6
CONTINUOUS
 62
     7
 10
534.8005151117121
 20
208.4082960901239
 30
0.0
 40
21.89999999999997
 50
90.00000000000034
 51
99.99999999999994
  0
ARC
  5
1DF
  8
1
  6
CONTINUOUS
 62
     7
 10
562.1296867510575
 20
248.4082960901238
 30
0.0
 40
18.1
 50
270.0
 51
279.9999999999998
  0
LINE
  5
1E0
  8
1
  6
CONTINUOUS
 62
     7
 10
565.2727187668288
 20
230.583275760603
 30
0.0
 11
567.4976200208064
 21
230.9755858810912
 31
0.0
  0
ARC
  5
1E1
  8
1
  6
CONTINUOUS
 62
     7
 10
571.3005151117122
 20
209.4082960901239
 30
0.0
 40
21.89999999999999
 50
90.0
 51
100.0
  0
LINE
  5
1E2
  8
1
  6
CONTINUOUS
 62
     7
 10
534.800515111712
 20
230.3082960901239
 30
0.0
 11
562.1296867510575
 21
230.3082960901238
 31
0.0
  0
LINE
  5
1E3
  8
1
  6
CONTINUOUS
 62
     7
 10
522.3794600215754
 20
229.3082960901242
 30
0.0
 11
525.6296867510575
 21
229.3082960901237
 31
0.0
  0
LINE
  5
1E4
  8
1
  6
CONTINUOUS
 62
     7
 10
722.379460021576
 20
232.1082960901238
 30
0.0
 11
729.3794600215759
 21
232.1082960901238
 31
0.0
  0
LINE
  5
1E5
  8
1
  6
CONTINUOUS
 62
     7
 10
737.3794600215759
 20
232.1082960901238
 30
0.0
 11
744.379460021576
 21
232.1082960901238
 31
0.0
  0
LINE
  5
1E6
  8
1
  6
CONTINUOUS
 62
     7
 10
716.8794600215759
 20
230.4082960901238
 30
0.0
 11
716.8794600215759
 21
230.8082960901238
 31
0.0
  0
LINE
  5
1E7
  8
1
  6
CONTINUOUS
 62
     7
 10
716.8794600215759
 20
231.6082960901238
 30
0.0
 11
716.8794600215759
 21
231.2082960901238
 31
0.0
  0
ARC
  5
1E8
  8
1
  6
CONTINUOUS
 62
     7
 10
753.3794600215759
 20
232.3082960901238
 30
0.0
 40
1.400000000000012
 50
90.0
 51
135.572995999194
  0
LINE
  5
1E9
  8
1
  6
CONTINUOUS
 62
     7
 10
753.3794600215759
 20
233.3082960901238
 30
0.0
 11
756.879460021576
 21
233.3082960901238
 31
0.0
  0
ARC
  5
1EA
  8
1
  6
CONTINUOUS
 62
     7
 10
748.380460121596
 20
224.8082960901238
 30
0.0
 40
6.000000000000005
 50
52.6355265126374
 51
90.0
  0
ARC
  5
1EB
  8
1
  6
CONTINUOUS
 62
     7
 10
756.879460021576
 20
229.7082960901238
 30
0.0
 40
1.400000000000068
 50
343.3984504009968
 51
0.0
  0
ARC
  5
1EC
  8
1
  6
CONTINUOUS
 62
     7
 10
756.879460021576
 20
229.7082960901238
 30
0.0
 40
1.000000000000044
 50
336.4218215218226
 51
0.0
  0
ARC
  5
1ED
  8
1
  6
CONTINUOUS
 62
     7
 10
756.879460021576
 20
232.3082960901238
 30
0.0
 40
1.40000000000005
 50
31.87191672161703
 51
90.0
  0
ARC
  5
1EE
  8
1
  6
CONTINUOUS
 62
     7
 10
748.380460121596
 20
224.8082960901238
 30
0.0
 40
5.600000000000042
 50
62.08797745975804
 51
90.0
  0
LINE
  5
1EF
  8
1
  6
CONTINUOUS
 62
     7
 10
756.879460021576
 20
233.7082960901238
 30
0.0
 11
753.3794600215759
 21
233.7082960901238
 31
0.0
  0
ARC
  5
1F0
  8
1
  6
CONTINUOUS
 62
     7
 10
748.380460121596
 20
237.2082960901238
 30
0.0
 40
5.599999999999998
 50
270.0
 51
315.5729959991943
  0
ARC
  5
1F1
  8
1
  6
CONTINUOUS
 62
     7
 10
753.3794600215759
 20
232.3082960901238
 30
0.0
 40
0.999999999999927
 50
90.0
 51
135.5729959991953
  0
ARC
  5
1F2
  8
1
  6
CONTINUOUS
 62
     7
 10
748.380460121596
 20
237.2082960901238
 30
0.0
 40
6.000000000000005
 50
270.0
 51
315.5729959991941
  0
LINE
  5
1F3
  8
1
  6
CONTINUOUS
 62
     7
 10
758.279460021576
 20
229.7082960901238
 30
0.0
 11
758.279460021576
 21
229.8475271021726
 31
0.0
  0
ARC
  5
1F4
  8
1
  6
CONTINUOUS
 62
     7
 10
756.879460021576
 20
232.3082960901238
 30
0.0
 40
1.000000000000001
 50
47.66595073467459
 51
90.0
  0
LINE
  5
1F5
  8
1
  6
CONTINUOUS
 62
     7
 10
757.879460021576
 20
229.8475271021726
 30
0.0
 11
757.879460021576
 21
229.7082960901238
 31
0.0
  0
LINE
  5
1F6
  8
1
  6
CONTINUOUS
 62
     7
 10
558.379460021576
 20
232.1082960901238
 30
0.0
 11
551.379460021576
 21
232.1082960901238
 31
0.0
  0
LINE
  5
1F7
  8
1
  6
CONTINUOUS
 62
     7
 10
543.3794600215759
 20
232.1082960901238
 30
0.0
 11
536.3794600215759
 21
232.1082960901238
 31
0.0
  0
LINE
  5
1F8
  8
1
  6
CONTINUOUS
 62
     7
 10
563.8794600215759
 20
231.6082960901238
 30
0.0
 11
563.8794600215759
 21
231.2082960901238
 31
0.0
  0
LINE
  5
1F9
  8
1
  6
CONTINUOUS
 62
     7
 10
527.3794600215759
 20
233.3082960901238
 30
0.0
 11
523.8794600215759
 21
233.3082960901238
 31
0.0
  0
ARC
  5
1FA
  8
1
  6
CONTINUOUS
 62
     7
 10
523.8794600215759
 20
232.3082960901238
 30
0.0
 40
1.000000000000001
 50
90.0
 51
132.3340492653249
  0
ARC
  5
1FB
  8
1
  6
CONTINUOUS
 62
     7
 10
532.378459921556
 20
224.8082960901238
 30
0.0
 40
5.599999999999991
 50
90.0
 51
117.9120225402422
  0
LINE
  5
1FC
  8
1
  6
CONTINUOUS
 62
     7
 10
522.479460021576
 20
229.7082960901238
 30
0.0
 11
522.479460021576
 21
229.8475271021727
 31
0.0
  0
ARC
  5
1FD
  8
1
  6
CONTINUOUS
 62
     7
 10
523.8794600215759
 20
232.3082960901238
 30
0.0
 40
1.399999999999956
 50
90.0
 51
148.1280832783822
  0
ARC
  5
1FE
  8
1
  6
CONTINUOUS
 62
     7
 10
523.8794600215759
 20
229.7082960901238
 30
0.0
 40
0.9999999999999423
 50
180.0
 51
203.5781784781777
  0
ARC
  5
1FF
  8
1
  6
CONTINUOUS
 62
     7
 10
527.3794600215759
 20
232.3082960901238
 30
0.0
 40
1.000000000000026
 50
44.42700400080587
 51
90.00000000000001
  0
LINE
  5
200
  8
1
  6
CONTINUOUS
 62
     7
 10
522.879460021576
 20
229.8475271021727
 30
0.0
 11
522.879460021576
 21
229.7082960901238
 31
0.0
  0
ARC
  5
201
  8
1
  6
CONTINUOUS
 62
     7
 10
532.378459921556
 20
237.2082960901238
 30
0.0
 40
5.599999999999998
 50
224.4270040008057
 51
270.0
  0
LINE
  5
202
  8
1
  6
CONTINUOUS
 62
     7
 10
523.8794600215759
 20
233.7082960901238
 30
0.0
 11
527.3794600215759
 21
233.7082960901238
 31
0.0
  0
ARC
  5
203
  8
1
  6
CONTINUOUS
 62
     7
 10
527.3794600215759
 20
232.3082960901238
 30
0.0
 40
1.400000000000012
 50
44.42700400080599
 51
90.0
  0
ARC
  5
204
  8
1
  6
CONTINUOUS
 62
     7
 10
532.378459921556
 20
224.8082960901238
 30
0.0
 40
6.000000000000005
 50
90.0
 51
127.3644734872805
  0
ARC
  5
205
  8
1
  6
CONTINUOUS
 62
     7
 10
532.378459921556
 20
237.2082960901238
 30
0.0
 40
6.000000000000005
 50
224.4270040008057
 51
270.0
  0
ARC
  5
206
  8
1
  6
CONTINUOUS
 62
     7
 10
523.8794600215759
 20
229.7082960901238
 30
0.0
 40
1.399999999999957
 50
180.0
 51
196.6015495990034
  0
LINE
  5
207
  8
1
  6
CONTINUOUS
 62
     7
 10
563.8794600215759
 20
230.4082960901238
 30
0.0
 11
563.8794600215759
 21
230.8082960901238
 31
0.0
  0
LINE
  5
208
  8
1
  6
CONTINUOUS
 62
     7
 10
788.6756274258573
 20
251.1281911409961
 30
0.0
 11
784.1913860643289
 21
251.9188838810424
 31
0.0
  0
ARC
  5
209
  8
1
  6
CONTINUOUS
 62
     7
 10
778.6574412819156
 20
249.8782270437528
 30
0.0
 40
10.09586370049954
 50
350.4759411721641
 51
7.112012601830713
  0
ARC
  5
20A
  8
1
  6
CONTINUOUS
 62
     7
 10
778.3761420755612
 20
250.1490451118179
 30
0.0
 40
10.42042962247372
 50
333.1488196457549
 51
349.2632265802515
  0
LINE
  5
20B
  8
1
  6
CONTINUOUS
 62
     7
 10
787.6730692046546
 20
245.4424009279798
 30
0.0
 11
783.188827843126
 21
246.2330936680261
 31
0.0
  0
LINE
  5
20C
  8
1
  6
CONTINUOUS
 62
     7
 10
789.1769065364589
 20
253.9710862475042
 30
0.0
 11
784.6926651749303
 21
254.7617789875505
 31
0.0
  0
ARC
  5
20D
  8
1
  6
CONTINUOUS
 62
     7
 10
786.6110000101662
 20
252.8858624820199
 30
0.0
 40
2.785962476926599
 50
351.4588154626409
 51
22.92543200540109
  0
ARC
  5
20E
  8
1
  6
CONTINUOUS
 62
     7
 10
786.5415527739825
 20
253.0738936283228
 30
0.0
 40
2.88791149257807
 50
317.643592953374
 51
347.9721595785827
  0
ARC
  5
20F
  8
1
  6
CONTINUOUS
 62
     7
 10
785.1071626783616
 20
244.3571771624954
 30
0.0
 40
2.785962476926823
 50
351.4588154626409
 51
22.92543200539984
  0
ARC
  5
210
  8
1
  6
CONTINUOUS
 62
     7
 10
785.0377154421785
 20
244.5452083087983
 30
0.0
 40
2.887911492577749
 50
317.6435929533712
 51
347.972159578583
  0
LINE
  5
211
  8
1
  6
CONTINUOUS
 62
     7
 10
787.171790094053
 20
242.5995058214716
 30
0.0
 11
782.6875487325245
 21
243.3901985615179
 31
0.0
  0
LINE
  5
212
  8
1
  6
CONTINUOUS
 62
     7
 10
759.1641841916629
 20
256.7979216925254
 30
0.0
 11
771.2885398446451
 21
263.7979216925254
 31
0.0
  0
LINE
  5
213
  8
1
  6
CONTINUOUS
 62
     7
 10
759.414184191663
 20
256.3649089906331
 30
0.0
 11
771.5385398446452
 21
263.3649089906331
 31
0.0
  0
LINE
  5
214
  8
1
  6
CONTINUOUS
 62
     7
 10
810.9154905622382
 20
247.4227624736466
 30
0.0
 11
809.8736014962366
 21
241.5139159555734
 31
0.0
  0
LINE
  5
215
  8
1
  6
CONTINUOUS
 62
     7
 10
762.9518429653159
 20
258.2375042548246
 30
0.0
 11
762.8782858068008
 21
258.3649089906331
 31
0.0
  0
LINE
  5
216
  8
1
  6
CONTINUOUS
 62
     7
 10
768.0744382295075
 20
261.3649089906331
 30
0.0
 11
768.1479953880225
 21
261.2375042548247
 31
0.0
  0
ARC
  5
217
  8
1
  6
CONTINUOUS
 62
     7
 10
507.1848673109083
 20
233.0475271021727
 30
0.0
 40
3.199999999999989
 50
189.9999999999998
 51
269.9999999999999
  0
LINE
  5
218
  8
1
  6
CONTINUOUS
 62
     7
 10
499.0845094377617
 20
260.5588738944864
 30
0.0
 11
502.2358942474008
 21
261.1145480630206
 31
0.0
  0
LINE
  5
219
  8
1
  6
CONTINUOUS
 62
     7
 10
527.1848673109083
 20
233.0475271021727
 30
0.0
 11
527.1848673109083
 21
229.8475271021727
 31
0.0
  0
LINE
  5
21A
  8
1
  6
CONTINUOUS
 62
     7
 10
756.5386089055504
 20
250.8397801212295
 30
0.0
 11
754.9386089055505
 21
253.6110614133398
 31
0.0
  0
LINE
  5
21B
  8
1
  6
CONTINUOUS
 62
     7
 10
777.8805275383836
 20
257.4707593768754
 30
0.0
 11
773.5740527322438
 21
233.0475271021727
 31
0.0
  0
ARC
  5
21C
  8
1
  6
CONTINUOUS
 62
     7
 10
774.9261042793469
 20
257.9917039098763
 30
0.0
 40
2.999999999999984
 50
350.0000000000011
 51
119.999999999999
  0
ARC
  5
21D
  8
1
  6
CONTINUOUS
 62
     7
 10
774.9261042793469
 20
257.9917039098763
 30
0.0
 40
6.199999999999977
 50
350.0000000000001
 51
119.9999999999994
  0
LINE
  5
21E
  8
1
  6
CONTINUOUS
 62
     7
 10
776.7254375418828
 20
232.4918529336385
 30
0.0
 11
781.0319123480227
 21
256.9150852083413
 31
0.0
  0
ARC
  5
21F
  8
1
  6
CONTINUOUS
 62
     7
 10
773.5740527322438
 20
233.0475271021727
 30
0.0
 40
3.200000000000008
 50
270.0
 51
349.9999999999999
  0
LINE
  5
220
  8
1
  6
CONTINUOUS
 62
     7
 10
753.5740527322438
 20
229.8475271021727
 30
0.0
 11
753.5740527322438
 21
233.0475271021727
 31
0.0
  0
LINE
  5
221
  8
1
  6
CONTINUOUS
 62
     7
 10
781.2414922805724
 20
249.4655163448517
 30
0.0
 11
780.7205477475716
 21
246.5110930858151
 31
0.0
  0
LINE
  5
222
  8
1
  6
CONTINUOUS
 62
     7
 10
749.153531400512
 20
226.5287587455488
 30
0.0
 11
751.3784326544887
 21
226.1364486250606
 31
0.0
  0
ARC
  5
223
  8
1
  6
CONTINUOUS
 62
     7
 10
755.1292332920945
 20
247.4082960901238
 30
0.0
 40
21.60000000000008
 50
260.0000000000013
 51
269.9999999999999
  0
LINE
  5
224
  8
1
  6
CONTINUOUS
 62
     7
 10
755.1292332920951
 20
225.8082960901242
 30
0.0
 11
758.3794600215766
 21
225.8082960901242
 31
0.0
  0
LINE
  5
225
  8
1
  6
CONTINUOUS
 62
     7
 10
718.6292332920947
 20
226.8082960901239
 30
0.0
 11
745.9584049314399
 21
226.8082960901239
 31
0.0
  0
ARC
  5
226
  8
1
  6
CONTINUOUS
 62
     7
 10
745.9584049314399
 20
208.4082960901239
 30
0.0
 40
18.39999999999997
 50
80.00000000000004
 51
89.99999999999962
  0
LINE
  5
227
  8
1
  6
CONTINUOUS
 62
     7
 10
712.6535314005114
 20
227.5287587455486
 30
0.0
 11
714.8784326544887
 21
227.1364486250603
 31
0.0
  0
ARC
  5
228
  8
1
  6
CONTINUOUS
 62
     7
 10
718.6292332920945
 20
248.4082960901238
 30
0.0
 40
21.60000000000003
 50
260.0000000000003
 51
270.0
  0
ARC
  5
229
  8
1
  6
CONTINUOUS
 62
     7
 10
709.4584049314398
 20
209.4082960901239
 30
0.0
 40
18.39999999999997
 50
80.00000000000004
 51
90.0
  0
ARC
  5
22A
  8
1
  6
CONTINUOUS
 62
     7
 10
525.6296867510574
 20
247.4082960901238
 30
0.0
 40
21.60000000000006
 50
270.0000000000001
 51
279.9999999999987
  0
LINE
  5
22B
  8
1
  6
CONTINUOUS
 62
     7
 10
529.3804873886631
 20
226.1364486250606
 30
0.0
 11
531.60538864264
 21
226.5287587455488
 31
0.0
  0
LINE
  5
22C
  8
1
  6
CONTINUOUS
 62
     7
 10
522.3794600215754
 20
225.8082960901242
 30
0.0
 11
525.6296867510569
 21
225.8082960901242
 31
0.0
  0
LINE
  5
22D
  8
1
  6
CONTINUOUS
 62
     7
 10
534.8005151117121
 20
226.8082960901239
 30
0.0
 11
562.1296867510573
 21
226.8082960901239
 31
0.0
  0
ARC
  5
22E
  8
1
  6
CONTINUOUS
 62
     7
 10
534.8005151117121
 20
208.4082960901239
 30
0.0
 40
18.39999999999997
 50
90.0000000000004
 51
100.0000000000001
  0
ARC
  5
22F
  8
1
  6
CONTINUOUS
 62
     7
 10
562.1296867510575
 20
248.4082960901238
 30
0.0
 40
21.60000000000001
 50
270.0
 51
279.9999999999997
  0
LINE
  5
230
  8
1
  6
CONTINUOUS
 62
     7
 10
565.8804873886633
 20
227.1364486250603
 30
0.0
 11
568.1053886426406
 21
227.5287587455486
 31
0.0
  0
ARC
  5
231
  8
1
  6
CONTINUOUS
 62
     7
 10
571.3005151117122
 20
209.4082960901239
 30
0.0
 40
18.39999999999997
 50
90.0
 51
100.0
  0
ARC
  5
232
  8
1
  6
CONTINUOUS
 62
     7
 10
725.8794600215759
 20
228.7749627567904
 30
0.0
 40
4.833333333333329
 50
43.60281897270406
 51
136.3971810272959
  0
LINE
  5
233
  8
1
  6
CONTINUOUS
 62
     7
 10
729.3794600215759
 20
231.6082960901238
 30
0.0
 11
729.3794600215759
 21
232.1082960901238
 31
0.0
  0
LINE
  5
234
  8
1
  6
CONTINUOUS
 62
     7
 10
722.379460021576
 20
232.1082960901238
 30
0.0
 11
722.379460021576
 21
231.6082960901238
 31
0.0
  0
LINE
  5
235
  8
1
  6
CONTINUOUS
 62
     7
 10
728.8794600215759
 20
230.3082960901239
 30
0.0
 11
728.8794600215759
 21
230.4082960901238
 31
0.0
  0
LINE
  5
236
  8
1
  6
CONTINUOUS
 62
     7
 10
722.8794600215759
 20
230.4082960901238
 30
0.0
 11
722.8794600215759
 21
230.3082960901239
 31
0.0
  0
LINE
  5
237
  8
1
  6
CONTINUOUS
 62
     7
 10
744.379460021576
 20
231.6082960901238
 30
0.0
 11
744.379460021576
 21
232.1082960901238
 31
0.0
  0
LINE
  5
238
  8
1
  6
CONTINUOUS
 62
     7
 10
737.3794600215759
 20
232.1082960901238
 30
0.0
 11
737.3794600215759
 21
231.6082960901238
 31
0.0
  0
ARC
  5
239
  8
1
  6
CONTINUOUS
 62
     7
 10
740.8794600215759
 20
228.7749627567904
 30
0.0
 40
4.833333333333409
 50
43.60281897270401
 51
136.397181027296
  0
LINE
  5
23A
  8
1
  6
CONTINUOUS
 62
     7
 10
743.879460021576
 20
230.3082960901238
 30
0.0
 11
743.879460021576
 21
230.4082960901238
 31
0.0
  0
LINE
  5
23B
  8
1
  6
CONTINUOUS
 62
     7
 10
737.8794600215759
 20
230.4082960901238
 30
0.0
 11
737.8794600215759
 21
230.3082960901238
 31
0.0
  0
ARC
  5
23C
  8
1
  6
CONTINUOUS
 62
     7
 10
554.8794600215759
 20
228.7749627567904
 30
0.0
 40
4.833333333333409
 50
43.60281897270414
 51
136.3971810272959
  0
LINE
  5
23D
  8
1
  6
CONTINUOUS
 62
     7
 10
558.379460021576
 20
231.6082960901238
 30
0.0
 11
558.379460021576
 21
232.1082960901238
 31
0.0
  0
LINE
  5
23E
  8
1
  6
CONTINUOUS
 62
     7
 10
551.379460021576
 20
232.1082960901238
 30
0.0
 11
551.379460021576
 21
231.6082960901238
 31
0.0
  0
LINE
  5
23F
  8
1
  6
CONTINUOUS
 62
     7
 10
557.8794600215759
 20
230.3082960901239
 30
0.0
 11
557.8794600215759
 21
230.4082960901238
 31
0.0
  0
LINE
  5
240
  8
1
  6
CONTINUOUS
 62
     7
 10
551.8794600215759
 20
230.4082960901238
 30
0.0
 11
551.8794600215759
 21
230.3082960901239
 31
0.0
  0
ARC
  5
241
  8
1
  6
CONTINUOUS
 62
     7
 10
539.8794600215759
 20
228.7749627567904
 30
0.0
 40
4.833333333333409
 50
43.60281897270401
 51
136.397181027296
  0
LINE
  5
242
  8
1
  6
CONTINUOUS
 62
     7
 10
543.3794600215759
 20
231.6082960901238
 30
0.0
 11
543.3794600215759
 21
232.1082960901238
 31
0.0
  0
LINE
  5
243
  8
1
  6
CONTINUOUS
 62
     7
 10
536.3794600215759
 20
232.1082960901238
 30
0.0
 11
536.3794600215759
 21
231.6082960901238
 31
0.0
  0
LINE
  5
244
  8
1
  6
CONTINUOUS
 62
     7
 10
542.879460021576
 20
230.3082960901238
 30
0.0
 11
542.879460021576
 21
230.4082960901238
 31
0.0
  0
LINE
  5
245
  8
1
  6
CONTINUOUS
 62
     7
 10
536.879460021576
 20
230.4082960901238
 30
0.0
 11
536.879460021576
 21
230.3082960901238
 31
0.0
  0
LINE
  5
246
  8
1
  6
CONTINUOUS
 62
     7
 10
781.194319631143
 20
242.4080771344158
 30
0.0
 11
782.4745697100589
 21
242.1823345034488
 31
0.0
  0
LINE
  5
247
  8
1
  6
CONTINUOUS
 62
     7
 10
784.905644197396
 20
255.9696430456197
 30
0.0
 11
783.62539411848
 21
256.1953856765867
 31
0.0
  0
LINE
  5
248
  8
1
  6
CONTINUOUS
 62
     7
 10
787.171790094053
 20
242.5995058214716
 30
0.0
 11
787.7459048304539
 21
243.2837091211386
 31
0.0
  0
LINE
  5
249
  8
1
  6
CONTINUOUS
 62
     7
 10
789.4823866071231
 20
253.1317866512605
 30
0.0
 11
789.1769065364588
 21
253.9710862475042
 31
0.0
  0
LINE
  5
24A
  8
1
  6
CONTINUOUS
 62
     7
 10
759.1641841916629
 20
256.7979216925254
 30
0.0
 11
759.414184191663
 21
256.3649089906331
 31
0.0
  0
LINE
  5
24B
  8
1
  6
CONTINUOUS
 62
     7
 10
771.5385398446452
 20
263.3649089906331
 30
0.0
 11
771.2885398446451
 21
263.7979216925254
 31
0.0
  0
ARC
  5
24C
  8
1
  6
CONTINUOUS
 62
     7
 10
769.501362018154
 20
252.8934044901683
 30
0.0
 40
11.05000000000005
 50
80.69235188389395
 51
159.3076481161059
  0
LINE
  5
24D
  8
1
  6
CONTINUOUS
 62
     7
 10
810.9154905622382
 20
247.4227624736466
 30
0.0
 11
789.1523731373626
 21
251.2601872599789
 31
0.0
  0
LINE
  5
24E
  8
1
  6
CONTINUOUS
 62
     7
 10
782.9480842933857
 20
252.3541707792807
 30
0.0
 11
780.3097296987353
 21
252.8193838789937
 31
0.0
  0
LINE
  5
24F
  8
1
  6
CONTINUOUS
 62
     7
 10
780.7450522622519
 20
246.6500650944201
 30
0.0
 11
781.9061952273842
 21
246.4453242612074
 31
0.0
  0
LINE
  5
250
  8
1
  6
CONTINUOUS
 62
     7
 10
788.110484071361
 20
245.3513407419057
 30
0.0
 11
809.8736014962366
 21
241.5139159555734
 31
0.0
  0
LINE
  5
251
  8
1
  6
CONTINUOUS
 62
     7
 10
772.4021892224781
 20
248.5273075894419
 30
0.0
 11
776.1859150941614
 21
247.8601346306595
 31
0.0
  0
LINE
  5
252
  8
1
  6
CONTINUOUS
 62
     7
 10
777.0888856180294
 20
252.981134946323
 30
0.0
 11
773.3051597463461
 21
253.6483079051054
 31
0.0
  0
ARC
  5
253
  8
1
  6
CONTINUOUS
 62
     7
 10
773.826104279347
 20
256.602731164142
 30
0.0
 40
2.999999999999983
 50
210.0
 51
259.9999999999998
  0
ARC
  5
254
  8
1
  6
CONTINUOUS
 62
     7
 10
773.826104279347
 20
256.602731164142
 30
0.0
 40
8.200000000000017
 50
209.9999999999999
 51
259.9999999999996
  0
LINE
  5
255
  8
1
  6
CONTINUOUS
 62
     7
 10
764.8982531268297
 20
255.6662229627145
 30
0.0
 11
766.7246959683146
 21
252.5027311641421
 31
0.0
  0
LINE
  5
256
  8
1
  6
CONTINUOUS
 62
     7
 10
771.2280280679936
 20
255.1027311641421
 30
0.0
 11
769.4015852265087
 21
258.2662229627144
 31
0.0
  0
ARC
  5
257
  8
1
  6
CONTINUOUS
 62
     7
 10
780.7490884040664
 20
249.5523404336852
 30
0.0
 40
0.4999999999999591
 50
349.9999999999998
 51
79.99999999999983
  0
ARC
  5
258
  8
1
  6
CONTINUOUS
 62
     7
 10
780.2281438710655
 20
246.5979171746486
 30
0.0
 40
0.5000000000000089
 50
259.9999999999998
 51
349.9999999999998
  0
LINE
  5
259
  8
1
  6
CONTINUOUS
 62
     7
 10
780.8359124928999
 20
250.0447443101913
 30
0.0
 11
779.8511047398875
 21
250.2183924878583
 31
0.0
  0
LINE
  5
25A
  8
1
  6
CONTINUOUS
 62
     7
 10
779.1565120292198
 20
246.2791614758094
 30
0.0
 11
780.1413197822321
 21
246.1055132981425
 31
0.0
  0
LINE
  5
25B
  8
1
  6
CONTINUOUS
 62
     7
 10
774.3199012517717
 20
260.9297674640308
 30
0.0
 11
777.8943145669618
 21
258.4269363160576
 31
0.0
  0
ENDBLK
  8
0
  0
ENDSEC
  0
SECTION
  2
ENTITIES
  0
TEXT
  5
70
  8
1
  6
CONTINUOUS
 62
     7
 10
650.345379517319
 20
204.1606352382143
 30
0.0
 40
8.0
  1
YHM-70
  0
POINT
  5
71
  8
1
 62
     7
 10
600.0
 20
190.0
 30
0.0
  0
POINT
  5
72
  8
1
 62
     1
 10
690.0
 20
190.0000000000001
 30
0.0
  0
POINT
  5
73
  8
1
 62
     1
 10
655.0
 20
310.0000000000001
 30
0.0
  0
LINE
  5
74
  8
1
  6
CENTER
 62
     1
 10
496.0845094377617
 20
310.0000000000001
 30
0.0
 11
813.9154905622382
 21
310.0000000000001
 31
0.0
  0
LINE
  5
76
  8
1
  6
CONTINUOUS
 62
     7
 10
612.6
 20
173.0462135125805
 30
0.0
 11
612.6
 21
176.1889113152524
 31
0.0
  0
LINE
  5
77
  8
1
  6
CONTINUOUS
 62
     7
 10
702.3556741685345
 20
151.9039309161494
 30
0.0
 11
682.3374588602338
 21
148.374179451666
 31
0.0
  0
LINE
  5
78
  8
1
  6
CONTINUOUS
 62
     7
 10
705.379460021576
 20
227.8082960901238
 30
0.0
 11
705.379460021576
 21
231.3082960901238
 31
0.0
  0
LINE
  5
79
  8
1
  6
CONTINUOUS
 62
     7
 10
714.2100475724668
 20
230.8082960901238
 30
0.0
 11
749.8794600215763
 21
230.8082960901238
 31
0.0
  0
LINE
  5
7A
  8
1
  6
CONTINUOUS
 62
     7
 10
620.0
 20
152.7637689719521
 30
0.0
 11
620.0
 21
63.94468427421034
 31
0.0
  0
LINE
  5
7B
  8
1
  6
CONTINUOUS
 62
     7
 10
600.0
 20
152.7637689719521
 30
0.0
 11
600.0
 21
63.9446842742104
 31
0.0
  0
LINE
  5
7C
  8
1
  6
CONTINUOUS
 62
     7
 10
749.8794600215763
 20
231.2082960901238
 30
0.0
 11
711.5488594274763
 21
231.2082960901238
 31
0.0
  0
LINE
  5
7D
  8
1
  6
CONTINUOUS
 62
     7
 10
593.0
 20
186.0553157257896
 30
0.0
 11
593.0
 21
148.9519118958127
 31
0.0
  0
LINE
  5
7E
  8
1
  6
CONTINUOUS
 62
     7
 10
627.0
 20
186.0553157257896
 30
0.0
 11
627.0
 21
148.9519118958127
 31
0.0
  0
LINE
  5
7F
  8
1
  6
CONTINUOUS
 62
     7
 10
613.1999999999999
 20
165.0553157257895
 30
0.0
 11
613.1999999999999
 21
176.4070771323273
 31
0.0
  0
LINE
  5
80
  8
1
  6
CONTINUOUS
 62
     7
 10
606.8
 20
165.0553157257895
 30
0.0
 11
606.8
 21
176.4070771323273
 31
0.0
  0
LINE
  5
81
  8
1
  6
CONTINUOUS
 62
     7
 10
593.0
 20
155.0553157257896
 30
0.0
 11
627.0
 21
155.0553157257896
 31
0.0
  0
LINE
  5
82
  8
1
  6
CONTINUOUS
 62
     7
 10
607.4
 20
176.1889113152524
 30
0.0
 11
607.4
 21
173.0462135125805
 31
0.0
  0
LINE
  5
83
  8
1
  6
CONTINUOUS
 62
     7
 10
707.6443258314656
 20
151.9039309161494
 30
0.0
 11
727.6625411397663
 21
148.374179451666
 31
0.0
  0
LINE
  5
84
  8
1
  6
CONTINUOUS
 62
     7
 10
682.1038449397558
 20
151.582352172451
 30
0.0
 11
701.8000000000001
 21
155.0553157257896
 31
0.0
  0
LINE
  5
85
  8
1
  6
CONTINUOUS
 62
     7
 10
679.8768501791235
 20
172.0704328842397
 30
0.0
 11
694.8147168199437
 21
184.6047912731271
 31
0.0
  0
LINE
  5
86
  8
1
  6
CONTINUOUS
 62
     7
 10
696.8716371709404
 20
182.1534490551465
 30
0.0
 11
681.9337705301203
 21
169.619090666259
 31
0.0
  0
LINE
  5
87
  8
1
  6
CONTINUOUS
 62
     7
 10
753.5740527322438
 20
297.9000000000001
 30
0.0
 11
527.1848673109083
 21
297.9000000000001
 31
0.0
  0
ARC
  5
88
  8
1
  6
CONTINUOUS
 62
     7
 10
705.0
 20
107.8437399748324
 30
0.0
 40
40.28842424904278
 50
110.9789350145006
 51
69.02106498549936
  0
LINE
  5
89
  8
1
  6
CONTINUOUS
 62
     7
 10
705.0
 20
155.0553157257896
 30
0.0
 11
705.0
 21
183.5553157257896
 31
0.0
  0
LINE
  5
8A
  8
1
  6
CONTINUOUS
 62
     7
 10
781.1261042793469
 20
327.0000000000001
 30
0.0
 11
756.5740527322438
 21
327.0000000000001
 31
0.0
  0
LINE
  5
8B
  8
1
  6
CONTINUOUS
 62
     7
 10
709.5
 20
166.6424801712942
 30
0.0
 11
709.5
 21
180.6424801712942
 31
0.0
  0
LINE
  5
8C
  8
1
  6
CONTINUOUS
 62
     7
 10
788.7499703058429
 20
305.0000000000001
 30
0.0
 11
784.5408058138237
 21
305.0000000000001
 31
0.0
  0
LINE
  5
8D
  8
1
  6
CONTINUOUS
 62
     7
 10
727.8961550602442
 20
151.582352172451
 30
0.0
 11
708.2
 21
155.0553157257896
 31
0.0
  0
LINE
  5
8E
  8
1
  6
CONTINUOUS
 62
     7
 10
753.5740527322438
 20
320.5000000000001
 30
0.0
 11
527.1848673109083
 21
320.5000000000001
 31
0.0
  0
LINE
  5
8F
  8
1
  6
CONTINUOUS
 62
     7
 10
708.2
 20
155.0553157257896
 30
0.0
 11
708.2
 21
183.5553157257896
 31
0.0
  0
LINE
  5
90
  8
1
  6
CONTINUOUS
 62
     7
 10
566.5488724706852
 20
230.8082960901238
 30
0.0
 11
530.8794600215758
 21
230.8082960901238
 31
0.0
  0
LINE
  5
91
  8
1
  6
CONTINUOUS
 62
     7
 10
781.1261042793469
 20
293.0000000000001
 30
0.0
 11
756.5740527322438
 21
293.0000000000001
 31
0.0
  0
LINE
  5
92
  8
1
  6
CONTINUOUS
 62
     7
 10
754.9386089055505
 20
300.0000000000001
 30
0.0
 11
705.379460021576
 21
300.0000000000001
 31
0.0
  0
LINE
  5
93
  8
1
  6
CONTINUOUS
 62
     7
 10
571.3005151117122
 20
231.3082960901238
 30
0.0
 11
709.4584049314398
 21
231.3082960901238
 31
0.0
  0
LINE
  5
94
  8
1
  6
CONTINUOUS
 62
     7
 10
689.3226629231822
 20
148.7295223495649
 30
0.0
 11
690.5757493429358
 21
145.4615299345448
 31
0.0
  0
LINE
  5
95
  8
1
  6
CONTINUOUS
 62
     7
 10
753.5740527322438
 20
299.5000000000001
 30
0.0
 11
527.1848673109083
 21
299.5000000000001
 31
0.0
  0
LINE
  5
96
  8
1
  6
CONTINUOUS
 62
     7
 10
507.1848673109083
 20
233.0475271021727
 30
0.0
 11
527.1848673109083
 21
233.0475271021727
 31
0.0
  0
LINE
  5
97
  8
1
  6
CONTINUOUS
 62
     7
 10
524.1848673109083
 20
327.0000000000001
 30
0.0
 11
499.6054539707625
 21
327.0000000000001
 31
0.0
  0
LINE
  5
98
  8
1
  6
CONTINUOUS
 62
     7
 10
569.2100606156757
 20
231.2082960901238
 30
0.0
 11
530.8794600215758
 21
231.2082960901238
 31
0.0
  0
LINE
  5
99
  8
1
  6
CONTINUOUS
 62
     7
 10
655.3794600215759
 20
231.3082960901238
 30
0.0
 11
655.3794600215759
 21
227.8082960901238
 31
0.0
  0
LINE
  5
9A
  8
1
  6
CONTINUOUS
 62
     7
 10
714.5
 20
178.6424801712942
 30
0.0
 11
714.5
 21
168.6424801712942
 31
0.0
  0
LINE
  5
9B
  8
1
  6
CONTINUOUS
 62
     7
 10
524.1848673109083
 20
293.0000000000001
 30
0.0
 11
499.6054539707625
 21
293.0000000000001
 31
0.0
  0
LINE
  5
9C
  8
1
  6
CONTINUOUS
 62
     7
 10
720.6773370768179
 20
148.7295223495649
 30
0.0
 11
719.4242506570644
 21
145.4615299345448
 31
0.0
  0
LINE
  5
9D
  8
1
  6
CONTINUOUS
 62
     7
 10
784.5408058138237
 20
315.0000000000001
 30
0.0
 11
788.7499702995106
 21
315.0000000000001
 31
0.0
  0
LINE
  5
9E
  8
1
  6
CONTINUOUS
 62
     7
 10
773.5740527322438
 20
229.8475271021726
 30
0.0
 11
753.5740527322438
 21
229.8475271021726
 31
0.0
  0
LINE
  5
9F
  8
1
  6
CONTINUOUS
 62
     7
 10
753.5740527322438
 20
233.0475271021727
 30
0.0
 11
773.5740527322438
 21
233.0475271021727
 31
0.0
  0
LINE
  5
A0
  8
1
  6
CONTINUOUS
 62
     7
 10
727.8961550602443
 20
151.5823521724511
 30
0.0
 11
739.0831703329059
 21
135.3348948845898
 31
0.0
  0
LINE
  5
A1
  8
1
  6
CONTINUOUS
 62
     7
 10
523.8794600215759
 20
320.0000000000001
 30
0.0
 11
754.9386089055505
 21
320.0000000000001
 31
0.0
  0
LINE
  5
A2
  8
1
  6
CONTINUOUS
 62
     7
 10
527.1848673109083
 20
229.8475271021727
 30
0.0
 11
507.1848673109083
 21
229.8475271021729
 31
0.0
  0
LINE
  5
A3
  8
1
  6
CONTINUOUS
 62
     7
 10
782.4745697100589
 20
242.1823345034488
 30
0.0
 11
784.905644197396
 21
255.9696430456197
 31
0.0
  0
LINE
  5
A4
  8
1
  6
CONTINUOUS
 62
     7
 10
748.380460121596
 20
230.4082960901238
 30
0.0
 11
716.8794600215759
 21
230.4082960901238
 31
0.0
  0
LINE
  5
A5
  8
1
  6
CONTINUOUS
 62
     7
 10
682.1038449397558
 20
151.5823521724511
 30
0.0
 11
670.9168296670942
 21
135.3348948845898
 31
0.0
  0
LINE
  5
A6
  8
1
  6
CONTINUOUS
 62
     7
 10
771.8261042793471
 20
263.3610614133398
 30
0.0
 11
754.9386089055504
 21
253.6110614133397
 31
0.0
  0
LINE
  5
A7
  8
1
  6
CONTINUOUS
 62
     7
 10
522.3794600215754
 20
229.3082960901242
 30
0.0
 11
522.3794600215754
 21
225.8082960901242
 31
0.0
  0
LINE
  5
A8
  8
1
  6
CONTINUOUS
 62
     7
 10
756.5386089055503
 20
250.8397801212296
 30
0.0
 11
773.426104279347
 21
260.5897801212296
 31
0.0
  0
LINE
  5
A9
  8
1
  6
CONTINUOUS
 62
     7
 10
532.378459921556
 20
231.6082960901238
 30
0.0
 11
563.8794600215759
 21
231.6082960901238
 31
0.0
  0
LINE
  5
AA
  8
1
  6
CONTINUOUS
 62
     7
 10
680.6914876414536
 20
148.8257851064617
 30
0.0
 11
673.202876004349
 21
137.9497029027861
 31
0.0
  0
LINE
  5
AB
  8
1
  6
CONTINUOUS
 62
     7
 10
781.194319631143
 20
242.4080771344158
 30
0.0
 11
783.62539411848
 21
256.1953856765867
 31
0.0
  0
LINE
  5
AC
  8
1
  6
CONTINUOUS
 62
     7
 10
736.7971239956513
 20
137.9497029027863
 30
0.0
 11
729.3085123585465
 21
148.8257851064617
 31
0.0
  0
LINE
  5
AD
  8
1
  6
CONTINUOUS
 62
     7
 10
502.2358942474008
 20
261.1145480630206
 30
0.0
 11
507.1848673109081
 21
233.0475271021727
 31
0.0
  0
LINE
  5
AE
  8
1
  6
CONTINUOUS
 62
     7
 10
523.8794600215759
 20
300.0000000000001
 30
0.0
 11
700.3794600215759
 21
300.0000000000001
 31
0.0
  0
LINE
  5
AF
  8
1
  6
CONTINUOUS
 62
     7
 10
748.380460121596
 20
231.6082960901238
 30
0.0
 11
716.8794600215759
 21
231.6082960901238
 31
0.0
  0
ARC
  5
B0
  8
1
  6
CONTINUOUS
 62
     7
 10
705.0
 20
107.8437399748324
 30
0.0
 40
43.78842424904281
 50
110.9789350145006
 51
69.02106498549949
  0
LINE
  5
B1
  8
1
  6
CONTINUOUS
 62
     7
 10
504.0334825012691
 20
232.4918529336385
 30
0.0
 11
499.0845094377617
 21
260.5588738944864
 31
0.0
  0
LINE
  5
B2
  8
1
  6
CONTINUOUS
 62
     7
 10
532.378459921556
 20
230.4082960901238
 30
0.0
 11
563.8794600215759
 21
230.4082960901238
 31
0.0
  0
LINE
  5
B3
  8
1
  6
CONTINUOUS
 62
     7
 10
753.5740527322438
 20
322.1
 30
0.0
 11
527.1848673109083
 21
322.1
 31
0.0
  0
LINE
  5
B4
  8
1
  6
CONTINUOUS
 62
     7
 10
758.3794600215765
 20
229.3082960901242
 30
0.0
 11
758.3794600215765
 21
225.8082960901242
 31
0.0
  0
LINE
  5
B5
  8
1
  6
CONTINUOUS
 62
     7
 10
571.3005151117122
 20
227.8082960901238
 30
0.0
 11
709.4584049314398
 21
227.8082960901238
 31
0.0
  0
LINE
  5
B6
  8
1
  6
CONTINUOUS
 62
     7
 10
789.4823866071232
 20
253.1317866512606
 30
0.0
 11
787.7459048304531
 21
243.2837091211387
 31
0.0
  0
ARC
  5
B7
  8
1
  6
CONTINUOUS
 62
     9
 10
610.0
 20
173.6424801712942
 30
0.0
 40
3.000000000000036
 50
150.0735651333858
 51
185.703341215607
  0
LINE
  5
B8
  8
1
  6
CENTER
 62
     1
 10
659.2115757509572
 20
107.8437399748324
 30
0.0
 11
750.7884242490429
 21
107.8437399748324
 31
0.0
  0
INSERT
  5
111
  8
1
  6
CONTINUOUS
 62
     7
  2
D_FRAME_VIEW_2185
 10
0.0
 20
0.0
 30
0.0
  0
INSERT
  5
186
  8
1
  6
CONTINUOUS
 62
     7
  2
D_FRAME_VIEW_1933
 10
0.0
 20
0.0
 30
0.0
  0
INSERT
  5
1CE
  8
1
  6
CONTINUOUS
 62
     7
  2
D_FRAME_VIEW_1935
 10
0.0
 20
0.0
 30
0.0
  0
INSERT
  5
25C
  8
1
  6
CONTINUOUS
 62
     7
  2
D_FRAME_VIEW_1474
 10
0.0
 20
0.0
 30
0.0
  0
LINE
  5
25D
  8
1
  6
CENTER
 62
     1
 10
610.0
 20
190.0
 30
0.0
 11
610.0
 21
63.9446842742104
 31
0.0
  0
LINE
  5
25E
  8
1
  6
CENTER
 62
     1
 10
705.0
 20
62.05531572578955
 30
0.0
 11
705.0
 21
190.0000000000001
 31
0.0
  0
ENDSEC
  0
EOF
