  0
SECTION
  2
HEADER
  9
$ACADVER
  1
AC1006
  9
$DWGCODEPAGE
  3
ansi_932
  9
$INSBASE
 10
0.0
 20
0.0
 30
0.0
  9
$EXTMIN
 10
0.0
 20
0.0
  9
$EXTMAX
 10
834.9154905622381
 20
327.0000000000001
  9
$LIMMIN
 10
0.0
 20
0.0
  9
$LIMMAX
 10
12.0
 20
9.0
  9
$ORTHOMODE
 70
     0
  9
$REGENMODE
 70
     1
  9
$FILLMODE
 70
     1
  9
$QTEXTMODE
 70
     0
  9
$MIRRTEXT
 70
     1
  9
$DRAGMODE
 70
     2
  9
$LTSCALE
 40
1.0
  9
$OSMODE
 70
    37
  9
$ATTMODE
 70
     1
  9
$TEXTSIZE
 40
0.2
  9
$TRACEWID
 40
0.05
  9
$TEXTSTYLE
  7
STANDARD
  9
$CLAYER
  8
0
  9
$CELTYPE
  6
BYLAYER
  9
$CECOLOR
 62
   256
  9
$DIMSCALE
 40
1.0
  9
$DIMASZ
 40
3.0
  9
$DIMEXO
 40
0.0625
  9
$DIMDLI
 40
0.38
  9
$DIMRND
 40
0.0
  9
$DIMDLE
 40
0.0
  9
$DIMEXE
 40
1.5
  9
$DIMTP
 40
0.0
  9
$DIMTM
 40
0.0
  9
$DIMTXT
 40
3.0
  9
$DIMCEN
 40
0.09
  9
$DIMTSZ
 40
0.0
  9
$DIMTOL
 70
     0
  9
$DIMLIM
 70
     0
  9
$DIMTIH
 70
     1
  9
$DIMTOH
 70
     1
  9
$DIMSE1
 70
     0
  9
$DIMSE2
 70
     0
  9
$DIMTAD
 70
     1
  9
$DIMZIN
 70
     0
  9
$DIMBLK
  1

  9
$DIMASO
 70
     1
  9
$DIMSHO
 70
     1
  9
$DIMPOST
  1

  9
$DIMAPOST
  1

  9
$DIMALT
 70
     0
  9
$DIMALTD
 70
     2
  9
$DIMALTF
 40
25.4
  9
$DIMLFAC
 40
1.0
  9
$DIMTOFL
 70
     0
  9
$DIMTVP
 40
0.0
  9
$DIMTIX
 70
     0
  9
$DIMSOXD
 70
     0
  9
$DIMSAH
 70
     0
  9
$DIMBLK1
  1

  9
$DIMBLK2
  1

  9
$LUNITS
 70
     2
  9
$LUPREC
 70
     4
  9
$SKETCHINC
 40
0.1
  9
$FILLETRAD
 40
0.5
  9
$AUNITS
 70
     0
  9
$AUPREC
 70
     0
  9
$MENU
  1
.
  9
$ELEVATION
 40
0.0
  9
$THICKNESS
 40
0.0
  9
$LIMCHECK
 70
     0
  9
$CHAMFERA
 40
0.0
  9
$CHAMFERB
 40
0.0
  9
$SKPOLY
 70
     0
  9
$TDCREATE
 40
2460455.755885555
  9
$TDUPDATE
 40
2460455.755885833
  9
$TDINDWG
 40
0.0000000116
  9
$TDUSRTIMER
 40
0.0000000116
  9
$USRTIMER
 70
     1
  9
$ANGBASE
 50
0.0
  9
$ANGDIR
 70
     0
  9
$PDMODE
 70
     0
  9
$PDSIZE
 40
0.0
  9
$PLINEWID
 40
0.0
  9
$COORDS
 70
     1
  9
$SPLFRAME
 70
     0
  9
$SPLINETYPE
 70
     6
  9
$SPLINESEGS
 70
     8
  9
$ATTDIA
 70
     0
  9
$ATTREQ
 70
     1
  9
$HANDLING
 70
     1
  9
$HANDSEED
  5
58B
  9
$SURFTAB1
 70
     6
  9
$SURFTAB2
 70
     6
  9
$SURFTYPE
 70
     6
  9
$SURFU
 70
     6
  9
$SURFV
 70
     6
  9
$UCSNAME
  2

  9
$UCSORG
 10
0.0
 20
0.0
 30
0.0
  9
$UCSXDIR
 10
1.0
 20
0.0
 30
0.0
  9
$UCSYDIR
 10
0.0
 20
1.0
 30
0.0
  9
$USERI1
 70
     0
  9
$USERI2
 70
     0
  9
$USERI3
 70
     0
  9
$USERI4
 70
     0
  9
$USERI5
 70
     0
  9
$USERR1
 40
0.0
  9
$USERR2
 40
0.0
  9
$USERR3
 40
0.0
  9
$USERR4
 40
0.0
  9
$USERR5
 40
0.0
  9
$WORLDVIEW
 70
     1
  0
ENDSEC
  0
SECTION
  2
TABLES
  0
TABLE
  2
VPORT
 70
     1
  0
VPORT
  2
*ACTIVE
 70
     0
 10
0.0
 20
0.0
 11
1.0
 21
1.0
 12
417.4577452811191
 22
163.5
 13
0.0
 23
0.0
 14
0.5
 24
0.5
 15
0.5
 25
0.5
 16
0.0
 26
0.0
 36
1.0
 17
0.0
 27
0.0
 37
0.0
 40
327.0000000000001
 41
1.6
 42
50.0
 43
0.0
 44
0.0
 50
0.0
 51
0.0
 71
     0
 72
   100
 73
     1
 74
     3
 75
     0
 76
     0
 77
     0
 78
     0
  0
ENDTAB
  0
TABLE
  2
LTYPE
 70
     2
  0
LTYPE
  2
CONTINUOUS
 70
     0
  3
Solid line
 72
    65
 73
     0
 40
0.0
  0
LTYPE
  2
CENTER
 70
     0
  3

 72
    65
 73
     0
 40
0.0
  0
ENDTAB
  0
TABLE
  2
LAYER
 70
     2
  0
LAYER
  2
0
 70
     0
 62
     7
  6
CONTINUOUS
  0
LAYER
  2
1
 70
     0
 62
     7
  6
CONTINUOUS
  0
ENDTAB
  0
TABLE
  2
STYLE
 70
     2
  0
STYLE
  2
STANDARD
 70
     0
 40
0.0
 41
1.0
 50
0.0
 71
     0
 42
0.2
  3
txt
  4

  0
STYLE
  2
ＭＳ_ゴシック
 70
     0
 40
0.0
 41
1.0
 50
0.0
 71
     0
 42
0.2
  3
ＭＳ ゴシック.shx
  4

  0
ENDTAB
  0
TABLE
  2
VIEW
 70
     0
  0
ENDTAB
  0
TABLE
  2
UCS
 70
     0
  0
ENDTAB
  0
ENDSEC
  0
SECTION
  2
BLOCKS
  0
BLOCK
  8
0
  2
D_FRAME_VIEW_1474
 70
     0
 10
0.0
 20
0.0
 30
0.0
  0
LINE
  5
71
  8
1
  6
CONTINUOUS
 62
     7
 10
770.8794600215763
 20
230.8082960901238
 30
0.0
 11
770.8794600215763
 21
231.2082960901238
 31
0.0
  0
LINE
  5
72
  8
1
  6
CONTINUOUS
 62
     7
 10
509.8794600215758
 20
230.8082960901238
 30
0.0
 11
509.8794600215758
 21
231.2082960901238
 31
0.0
  0
ARC
  5
73
  8
1
  6
CONTINUOUS
 62
     7
 10
776.1292332920945
 20
247.4082960901238
 30
0.0
 40
18.10000000000009
 50
260.0000000000016
 51
269.9999999999998
  0
ARC
  5
74
  8
1
  6
CONTINUOUS
 62
     7
 10
766.9584049314399
 20
208.4082960901239
 30
0.0
 40
21.89999999999997
 50
80.00000000000004
 51
89.99999999999973
  0
LINE
  5
75
  8
1
  6
CONTINUOUS
 62
     7
 10
772.9862012763235
 20
229.5832757606033
 30
0.0
 11
770.7613000223455
 21
229.9755858810912
 31
0.0
  0
ARC
  5
76
  8
1
  6
CONTINUOUS
 62
     7
 10
730.4584049314398
 20
209.4082960901239
 30
0.0
 40
21.89999999999999
 50
79.99999999999997
 51
90.00000000000001
  0
ARC
  5
77
  8
1
  6
CONTINUOUS
 62
     7
 10
739.6292332920943
 20
248.4082960901238
 30
0.0
 40
18.1
 50
260.0000000000003
 51
270.0
  0
LINE
  5
78
  8
1
  6
CONTINUOUS
 62
     7
 10
736.4862012763231
 20
230.583275760603
 30
0.0
 11
734.2613000223456
 21
230.9755858810912
 31
0.0
  0
LINE
  5
79
  8
1
  6
CONTINUOUS
 62
     7
 10
766.95840493144
 20
230.3082960901239
 30
0.0
 11
739.6292332920943
 21
230.3082960901238
 31
0.0
  0
LINE
  5
7A
  8
1
  6
CONTINUOUS
 62
     7
 10
779.3794600215765
 20
229.3082960901242
 30
0.0
 11
776.1292332920943
 21
229.3082960901237
 31
0.0
  0
ARC
  5
7B
  8
1
  6
CONTINUOUS
 62
     7
 10
504.6296867510575
 20
247.4082960901238
 30
0.0
 40
18.10000000000009
 50
270.0000000000002
 51
279.9999999999986
  0
LINE
  5
7C
  8
1
  6
CONTINUOUS
 62
     7
 10
507.7727187668284
 20
229.5832757606033
 30
0.0
 11
509.9976200208064
 21
229.9755858810912
 31
0.0
  0
ARC
  5
7D
  8
1
  6
CONTINUOUS
 62
     7
 10
513.8005151117122
 20
208.4082960901239
 30
0.0
 40
21.89999999999999
 50
90.00000000000034
 51
99.99999999999994
  0
ARC
  5
7E
  8
1
  6
CONTINUOUS
 62
     7
 10
541.1296867510575
 20
248.4082960901238
 30
0.0
 40
18.1
 50
270.0
 51
279.9999999999998
  0
LINE
  5
7F
  8
1
  6
CONTINUOUS
 62
     7
 10
544.2727187668288
 20
230.583275760603
 30
0.0
 11
546.4976200208064
 21
230.9755858810912
 31
0.0
  0
ARC
  5
80
  8
1
  6
CONTINUOUS
 62
     7
 10
550.3005151117122
 20
209.4082960901239
 30
0.0
 40
21.89999999999999
 50
90.0
 51
100.0
  0
LINE
  5
81
  8
1
  6
CONTINUOUS
 62
     7
 10
513.800515111712
 20
230.3082960901239
 30
0.0
 11
541.1296867510575
 21
230.3082960901238
 31
0.0
  0
LINE
  5
82
  8
1
  6
CONTINUOUS
 62
     7
 10
501.3794600215754
 20
229.3082960901242
 30
0.0
 11
504.6296867510575
 21
229.3082960901237
 31
0.0
  0
LINE
  5
83
  8
1
  6
CONTINUOUS
 62
     7
 10
743.3794600215759
 20
232.1082960901238
 30
0.0
 11
750.3794600215759
 21
232.1082960901238
 31
0.0
  0
LINE
  5
84
  8
1
  6
CONTINUOUS
 62
     7
 10
758.3794600215759
 20
232.1082960901238
 30
0.0
 11
765.3794600215759
 21
232.1082960901238
 31
0.0
  0
LINE
  5
85
  8
1
  6
CONTINUOUS
 62
     7
 10
737.8794600215759
 20
230.4082960901238
 30
0.0
 11
737.8794600215759
 21
230.8082960901238
 31
0.0
  0
LINE
  5
86
  8
1
  6
CONTINUOUS
 62
     7
 10
737.8794600215759
 20
231.6082960901238
 30
0.0
 11
737.8794600215759
 21
231.2082960901238
 31
0.0
  0
ARC
  5
87
  8
1
  6
CONTINUOUS
 62
     7
 10
774.3794600215759
 20
232.3082960901238
 30
0.0
 40
1.400000000000012
 50
90.0
 51
135.572995999194
  0
LINE
  5
88
  8
1
  6
CONTINUOUS
 62
     7
 10
774.3794600215759
 20
233.3082960901238
 30
0.0
 11
777.879460021576
 21
233.3082960901238
 31
0.0
  0
ARC
  5
89
  8
1
  6
CONTINUOUS
 62
     7
 10
769.380460121596
 20
224.8082960901238
 30
0.0
 40
6.000000000000005
 50
52.63552651265809
 51
90.0
  0
ARC
  5
8A
  8
1
  6
CONTINUOUS
 62
     7
 10
777.879460021576
 20
229.7082960901238
 30
0.0
 40
1.399999999999957
 50
343.3984504009968
 51
0.0
  0
ARC
  5
8B
  8
1
  6
CONTINUOUS
 62
     7
 10
777.879460021576
 20
229.7082960901238
 30
0.0
 40
0.9999999999999423
 50
336.4218215218223
 51
0.0
  0
ARC
  5
8C
  8
1
  6
CONTINUOUS
 62
     7
 10
777.879460021576
 20
232.3082960901238
 30
0.0
 40
1.40000000000005
 50
31.87191672161674
 51
90.0
  0
ARC
  5
8D
  8
1
  6
CONTINUOUS
 62
     7
 10
769.380460121596
 20
224.8082960901238
 30
0.0
 40
5.600000000000042
 50
62.08797745975784
 51
90.00000000000001
  0
LINE
  5
8E
  8
1
  6
CONTINUOUS
 62
     7
 10
777.879460021576
 20
233.7082960901238
 30
0.0
 11
774.3794600215759
 21
233.7082960901238
 31
0.0
  0
ARC
  5
8F
  8
1
  6
CONTINUOUS
 62
     7
 10
769.380460121596
 20
237.2082960901238
 30
0.0
 40
5.599999999999998
 50
270.0
 51
315.5729959991943
  0
ARC
  5
90
  8
1
  6
CONTINUOUS
 62
     7
 10
774.3794600215759
 20
232.3082960901238
 30
0.0
 40
0.999999999999927
 50
90.0
 51
135.5729959991953
  0
ARC
  5
91
  8
1
  6
CONTINUOUS
 62
     7
 10
769.380460121596
 20
237.2082960901238
 30
0.0
 40
6.000000000000005
 50
270.0
 51
315.5729959991941
  0
LINE
  5
92
  8
1
  6
CONTINUOUS
 62
     7
 10
779.279460021576
 20
229.7082960901238
 30
0.0
 11
779.279460021576
 21
229.8475271021726
 31
0.0
  0
ARC
  5
93
  8
1
  6
CONTINUOUS
 62
     7
 10
777.879460021576
 20
232.3082960901238
 30
0.0
 40
1.000000000000001
 50
47.66595073467459
 51
90.0
  0
LINE
  5
94
  8
1
  6
CONTINUOUS
 62
     7
 10
778.879460021576
 20
229.8475271021726
 30
0.0
 11
778.879460021576
 21
229.7082960901238
 31
0.0
  0
LINE
  5
95
  8
1
  6
CONTINUOUS
 62
     7
 10
537.3794600215759
 20
232.1082960901238
 30
0.0
 11
530.3794600215759
 21
232.1082960901238
 31
0.0
  0
LINE
  5
96
  8
1
  6
CONTINUOUS
 62
     7
 10
522.3794600215759
 20
232.1082960901238
 30
0.0
 11
515.3794600215759
 21
232.1082960901238
 31
0.0
  0
LINE
  5
97
  8
1
  6
CONTINUOUS
 62
     7
 10
542.8794600215759
 20
231.6082960901238
 30
0.0
 11
542.8794600215759
 21
231.2082960901238
 31
0.0
  0
LINE
  5
98
  8
1
  6
CONTINUOUS
 62
     7
 10
506.3794600215759
 20
233.3082960901238
 30
0.0
 11
502.879460021576
 21
233.3082960901238
 31
0.0
  0
ARC
  5
99
  8
1
  6
CONTINUOUS
 62
     7
 10
502.879460021576
 20
232.3082960901238
 30
0.0
 40
1.000000000000001
 50
90.0
 51
132.3340492653249
  0
ARC
  5
9A
  8
1
  6
CONTINUOUS
 62
     7
 10
511.3784599215559
 20
224.8082960901238
 30
0.0
 40
5.599999999999991
 50
90.0
 51
117.9120225402422
  0
LINE
  5
9B
  8
1
  6
CONTINUOUS
 62
     7
 10
501.479460021576
 20
229.7082960901238
 30
0.0
 11
501.479460021576
 21
229.8475271021727
 31
0.0
  0
ARC
  5
9C
  8
1
  6
CONTINUOUS
 62
     7
 10
502.879460021576
 20
232.3082960901238
 30
0.0
 40
1.40000000000005
 50
90.0
 51
148.1280832783822
  0
ARC
  5
9D
  8
1
  6
CONTINUOUS
 62
     7
 10
502.879460021576
 20
229.7082960901238
 30
0.0
 40
1.000000000000044
 50
180.0
 51
203.5781784781777
  0
ARC
  5
9E
  8
1
  6
CONTINUOUS
 62
     7
 10
506.3794600215759
 20
232.3082960901238
 30
0.0
 40
1.000000000000026
 50
44.42700400080587
 51
90.00000000000001
  0
LINE
  5
9F
  8
1
  6
CONTINUOUS
 62
     7
 10
501.8794600215759
 20
229.8475271021727
 30
0.0
 11
501.8794600215759
 21
229.7082960901238
 31
0.0
  0
ARC
  5
A0
  8
1
  6
CONTINUOUS
 62
     7
 10
511.3784599215559
 20
237.2082960901238
 30
0.0
 40
5.599999999999998
 50
224.4270040008057
 51
270.0
  0
LINE
  5
A1
  8
1
  6
CONTINUOUS
 62
     7
 10
502.879460021576
 20
233.7082960901238
 30
0.0
 11
506.3794600215759
 21
233.7082960901238
 31
0.0
  0
ARC
  5
A2
  8
1
  6
CONTINUOUS
 62
     7
 10
506.3794600215759
 20
232.3082960901238
 30
0.0
 40
1.400000000000012
 50
44.42700400080599
 51
90.0
  0
ARC
  5
A3
  8
1
  6
CONTINUOUS
 62
     7
 10
511.3784599215559
 20
224.8082960901238
 30
0.0
 40
6.000000000000005
 50
90.0
 51
127.3644734872805
  0
ARC
  5
A4
  8
1
  6
CONTINUOUS
 62
     7
 10
511.3784599215559
 20
237.2082960901238
 30
0.0
 40
6.000000000000005
 50
224.4270040008057
 51
270.0
  0
ARC
  5
A5
  8
1
  6
CONTINUOUS
 62
     7
 10
502.879460021576
 20
229.7082960901238
 30
0.0
 40
1.400000000000068
 50
180.0
 51
196.6015495990034
  0
LINE
  5
A6
  8
1
  6
CONTINUOUS
 62
     7
 10
542.8794600215759
 20
230.4082960901238
 30
0.0
 11
542.8794600215759
 21
230.8082960901238
 31
0.0
  0
LINE
  5
A7
  8
1
  6
CONTINUOUS
 62
     7
 10
809.6756274258574
 20
251.1281911409961
 30
0.0
 11
805.1913860643289
 21
251.9188838810424
 31
0.0
  0
ARC
  5
A8
  8
1
  6
CONTINUOUS
 62
     7
 10
799.6574412819156
 20
249.8782270437528
 30
0.0
 40
10.09586370049954
 50
350.4759411721641
 51
7.112012601830713
  0
ARC
  5
A9
  8
1
  6
CONTINUOUS
 62
     7
 10
799.3761420755511
 20
250.1490451118214
 30
0.0
 40
10.42042962248431
 50
333.1488196457628
 51
349.263226580243
  0
LINE
  5
AA
  8
1
  6
CONTINUOUS
 62
     7
 10
808.6730692046546
 20
245.4424009279798
 30
0.0
 11
804.188827843126
 21
246.2330936680261
 31
0.0
  0
LINE
  5
AB
  8
1
  6
CONTINUOUS
 62
     7
 10
810.1769065364588
 20
253.9710862475042
 30
0.0
 11
805.6926651749303
 21
254.7617789875505
 31
0.0
  0
ARC
  5
AC
  8
1
  6
CONTINUOUS
 62
     7
 10
807.6110000101642
 20
252.8858624820194
 30
0.0
 40
2.785962476928619
 50
351.4588154626563
 51
22.92543200539347
  0
ARC
  5
AD
  8
1
  6
CONTINUOUS
 62
     7
 10
807.5415527739825
 20
253.0738936283228
 30
0.0
 40
2.88791149257807
 50
317.643592953374
 51
347.9721595785827
  0
ARC
  5
AE
  8
1
  6
CONTINUOUS
 62
     7
 10
806.1071626783586
 20
244.357177162495
 30
0.0
 40
2.785962476929839
 50
351.4588154626584
 51
22.92543200538228
  0
ARC
  5
AF
  8
1
  6
CONTINUOUS
 62
     7
 10
806.0377154421785
 20
244.5452083087983
 30
0.0
 40
2.887911492577749
 50
317.6435929533712
 51
347.972159578583
  0
LINE
  5
B0
  8
1
  6
CONTINUOUS
 62
     7
 10
808.171790094053
 20
242.5995058214716
 30
0.0
 11
803.6875487325245
 21
243.3901985615179
 31
0.0
  0
LINE
  5
B1
  8
1
  6
CONTINUOUS
 62
     7
 10
780.164184191663
 20
256.7979216925254
 30
0.0
 11
792.2885398446451
 21
263.7979216925254
 31
0.0
  0
LINE
  5
B2
  8
1
  6
CONTINUOUS
 62
     7
 10
780.414184191663
 20
256.3649089906331
 30
0.0
 11
792.5385398446451
 21
263.3649089906331
 31
0.0
  0
LINE
  5
B3
  8
1
  6
CONTINUOUS
 62
     7
 10
831.9154905622382
 20
247.4227624736466
 30
0.0
 11
830.8736014962366
 21
241.5139159555734
 31
0.0
  0
LINE
  5
B4
  8
1
  6
CONTINUOUS
 62
     7
 10
783.9518429653158
 20
258.2375042548246
 30
0.0
 11
783.8782858068008
 21
258.3649089906331
 31
0.0
  0
LINE
  5
B5
  8
1
  6
CONTINUOUS
 62
     7
 10
789.0744382295075
 20
261.3649089906331
 30
0.0
 11
789.1479953880224
 21
261.2375042548247
 31
0.0
  0
ARC
  5
B6
  8
1
  6
CONTINUOUS
 62
     7
 10
486.1848673109083
 20
233.0475271021727
 30
0.0
 40
3.199999999999989
 50
189.9999999999998
 51
269.9999999999999
  0
LINE
  5
B7
  8
1
  6
CONTINUOUS
 62
     7
 10
478.0845094377617
 20
260.5588738944864
 30
0.0
 11
481.2358942474008
 21
261.1145480630206
 31
0.0
  0
LINE
  5
B8
  8
1
  6
CONTINUOUS
 62
     7
 10
506.1848673109083
 20
233.0475271021727
 30
0.0
 11
506.1848673109083
 21
229.8475271021727
 31
0.0
  0
LINE
  5
B9
  8
1
  6
CONTINUOUS
 62
     7
 10
777.5386089055505
 20
250.8397801212295
 30
0.0
 11
775.9386089055504
 21
253.6110614133398
 31
0.0
  0
LINE
  5
BA
  8
1
  6
CONTINUOUS
 62
     7
 10
798.8805275383837
 20
257.4707593768754
 30
0.0
 11
794.5740527322438
 21
233.0475271021727
 31
0.0
  0
ARC
  5
BB
  8
1
  6
CONTINUOUS
 62
     7
 10
795.926104279347
 20
257.9917039098763
 30
0.0
 40
2.999999999999984
 50
350.0000000000011
 51
119.999999999999
  0
ARC
  5
BC
  8
1
  6
CONTINUOUS
 62
     7
 10
795.926104279347
 20
257.9917039098763
 30
0.0
 40
6.199999999999977
 50
350.0000000000001
 51
119.9999999999994
  0
LINE
  5
BD
  8
1
  6
CONTINUOUS
 62
     7
 10
797.7254375418828
 20
232.4918529336385
 30
0.0
 11
802.0319123480227
 21
256.9150852083413
 31
0.0
  0
ARC
  5
BE
  8
1
  6
CONTINUOUS
 62
     7
 10
794.5740527322438
 20
233.0475271021727
 30
0.0
 40
3.200000000000008
 50
270.0
 51
349.9999999999999
  0
LINE
  5
BF
  8
1
  6
CONTINUOUS
 62
     7
 10
774.5740527322438
 20
229.8475271021727
 30
0.0
 11
774.5740527322438
 21
233.0475271021727
 31
0.0
  0
LINE
  5
C0
  8
1
  6
CONTINUOUS
 62
     7
 10
802.2414922805724
 20
249.4655163448517
 30
0.0
 11
801.7205477475716
 21
246.5110930858151
 31
0.0
  0
LINE
  5
C1
  8
1
  6
CONTINUOUS
 62
     7
 10
770.1535314005118
 20
226.5287587455488
 30
0.0
 11
772.3784326544887
 21
226.1364486250606
 31
0.0
  0
ARC
  5
C2
  8
1
  6
CONTINUOUS
 62
     7
 10
776.1292332920945
 20
247.4082960901238
 30
0.0
 40
21.6000000000001
 50
260.0000000000012
 51
269.9999999999998
  0
LINE
  5
C3
  8
1
  6
CONTINUOUS
 62
     7
 10
776.1292332920951
 20
225.8082960901242
 30
0.0
 11
779.3794600215766
 21
225.8082960901242
 31
0.0
  0
LINE
  5
C4
  8
1
  6
CONTINUOUS
 62
     7
 10
739.6292332920946
 20
226.8082960901239
 30
0.0
 11
766.9584049314399
 21
226.8082960901239
 31
0.0
  0
ARC
  5
C5
  8
1
  6
CONTINUOUS
 62
     7
 10
766.9584049314399
 20
208.4082960901239
 30
0.0
 40
18.39999999999997
 50
80.00000000000004
 51
89.99999999999962
  0
LINE
  5
C6
  8
1
  6
CONTINUOUS
 62
     7
 10
733.6535314005114
 20
227.5287587455486
 30
0.0
 11
735.8784326544887
 21
227.1364486250603
 31
0.0
  0
ARC
  5
C7
  8
1
  6
CONTINUOUS
 62
     7
 10
739.6292332920943
 20
248.4082960901238
 30
0.0
 40
21.6
 50
260.0000000000003
 51
270.0000000000001
  0
ARC
  5
C8
  8
1
  6
CONTINUOUS
 62
     7
 10
730.4584049314398
 20
209.4082960901239
 30
0.0
 40
18.39999999999997
 50
80.00000000000004
 51
90.0
  0
ARC
  5
C9
  8
1
  6
CONTINUOUS
 62
     7
 10
504.6296867510575
 20
247.4082960901238
 30
0.0
 40
21.60000000000006
 50
270.0000000000001
 51
279.9999999999987
  0
LINE
  5
CA
  8
1
  6
CONTINUOUS
 62
     7
 10
508.3804873886631
 20
226.1364486250606
 30
0.0
 11
510.60538864264
 21
226.5287587455488
 31
0.0
  0
LINE
  5
CB
  8
1
  6
CONTINUOUS
 62
     7
 10
501.3794600215753
 20
225.8082960901242
 30
0.0
 11
504.6296867510568
 21
225.8082960901242
 31
0.0
  0
LINE
  5
CC
  8
1
  6
CONTINUOUS
 62
     7
 10
513.8005151117122
 20
226.8082960901239
 30
0.0
 11
541.1296867510573
 21
226.8082960901239
 31
0.0
  0
ARC
  5
CD
  8
1
  6
CONTINUOUS
 62
     7
 10
513.8005151117122
 20
208.4082960901239
 30
0.0
 40
18.39999999999999
 50
90.0000000000004
 51
100.0000000000001
  0
ARC
  5
CE
  8
1
  6
CONTINUOUS
 62
     7
 10
541.1296867510575
 20
248.4082960901238
 30
0.0
 40
21.60000000000001
 50
270.0
 51
279.9999999999997
  0
LINE
  5
CF
  8
1
  6
CONTINUOUS
 62
     7
 10
544.8804873886633
 20
227.1364486250603
 30
0.0
 11
547.1053886426406
 21
227.5287587455486
 31
0.0
  0
ARC
  5
D0
  8
1
  6
CONTINUOUS
 62
     7
 10
550.3005151117122
 20
209.4082960901239
 30
0.0
 40
18.39999999999997
 50
90.0
 51
100.0
  0
ARC
  5
D1
  8
1
  6
CONTINUOUS
 62
     7
 10
746.879460021576
 20
228.7749627567904
 30
0.0
 40
4.833333333333329
 50
43.60281897270401
 51
136.397181027296
  0
LINE
  5
D2
  8
1
  6
CONTINUOUS
 62
     7
 10
750.3794600215759
 20
231.6082960901238
 30
0.0
 11
750.3794600215759
 21
232.1082960901238
 31
0.0
  0
LINE
  5
D3
  8
1
  6
CONTINUOUS
 62
     7
 10
743.3794600215759
 20
232.1082960901238
 30
0.0
 11
743.3794600215759
 21
231.6082960901238
 31
0.0
  0
LINE
  5
D4
  8
1
  6
CONTINUOUS
 62
     7
 10
749.879460021576
 20
230.3082960901239
 30
0.0
 11
749.879460021576
 21
230.4082960901238
 31
0.0
  0
LINE
  5
D5
  8
1
  6
CONTINUOUS
 62
     7
 10
743.879460021576
 20
230.4082960901238
 30
0.0
 11
743.879460021576
 21
230.3082960901239
 31
0.0
  0
LINE
  5
D6
  8
1
  6
CONTINUOUS
 62
     7
 10
765.3794600215759
 20
231.6082960901238
 30
0.0
 11
765.3794600215759
 21
232.1082960901238
 31
0.0
  0
LINE
  5
D7
  8
1
  6
CONTINUOUS
 62
     7
 10
758.3794600215759
 20
232.1082960901238
 30
0.0
 11
758.3794600215759
 21
231.6082960901238
 31
0.0
  0
ARC
  5
D8
  8
1
  6
CONTINUOUS
 62
     7
 10
761.879460021576
 20
228.7749627567904
 30
0.0
 40
4.833333333333329
 50
43.60281897270401
 51
136.397181027296
  0
LINE
  5
D9
  8
1
  6
CONTINUOUS
 62
     7
 10
764.879460021576
 20
230.3082960901238
 30
0.0
 11
764.879460021576
 21
230.4082960901238
 31
0.0
  0
LINE
  5
DA
  8
1
  6
CONTINUOUS
 62
     7
 10
758.879460021576
 20
230.4082960901238
 30
0.0
 11
758.879460021576
 21
230.3082960901238
 31
0.0
  0
ARC
  5
DB
  8
1
  6
CONTINUOUS
 62
     7
 10
533.8794600215759
 20
228.7749627567904
 30
0.0
 40
4.833333333333409
 50
43.60281897270414
 51
136.3971810272959
  0
LINE
  5
DC
  8
1
  6
CONTINUOUS
 62
     7
 10
537.3794600215759
 20
231.6082960901238
 30
0.0
 11
537.3794600215759
 21
232.1082960901238
 31
0.0
  0
LINE
  5
DD
  8
1
  6
CONTINUOUS
 62
     7
 10
530.3794600215759
 20
232.1082960901238
 30
0.0
 11
530.3794600215759
 21
231.6082960901238
 31
0.0
  0
LINE
  5
DE
  8
1
  6
CONTINUOUS
 62
     7
 10
536.8794600215759
 20
230.3082960901239
 30
0.0
 11
536.8794600215759
 21
230.4082960901238
 31
0.0
  0
LINE
  5
DF
  8
1
  6
CONTINUOUS
 62
     7
 10
530.8794600215759
 20
230.4082960901238
 30
0.0
 11
530.8794600215759
 21
230.3082960901239
 31
0.0
  0
ARC
  5
E0
  8
1
  6
CONTINUOUS
 62
     7
 10
518.879460021576
 20
228.7749627567904
 30
0.0
 40
4.833333333333329
 50
43.60281897270401
 51
136.397181027296
  0
LINE
  5
E1
  8
1
  6
CONTINUOUS
 62
     7
 10
522.3794600215759
 20
231.6082960901238
 30
0.0
 11
522.3794600215759
 21
232.1082960901238
 31
0.0
  0
LINE
  5
E2
  8
1
  6
CONTINUOUS
 62
     7
 10
515.3794600215759
 20
232.1082960901238
 30
0.0
 11
515.3794600215759
 21
231.6082960901238
 31
0.0
  0
LINE
  5
E3
  8
1
  6
CONTINUOUS
 62
     7
 10
521.8794600215759
 20
230.3082960901238
 30
0.0
 11
521.8794600215759
 21
230.4082960901238
 31
0.0
  0
LINE
  5
E4
  8
1
  6
CONTINUOUS
 62
     7
 10
515.8794600215759
 20
230.4082960901238
 30
0.0
 11
515.8794600215759
 21
230.3082960901238
 31
0.0
  0
LINE
  5
E5
  8
1
  6
CONTINUOUS
 62
     7
 10
802.194319631143
 20
242.4080771344158
 30
0.0
 11
803.4745697100589
 21
242.1823345034488
 31
0.0
  0
LINE
  5
E6
  8
1
  6
CONTINUOUS
 62
     7
 10
805.905644197396
 20
255.9696430456197
 30
0.0
 11
804.6253941184801
 21
256.1953856765867
 31
0.0
  0
LINE
  5
E7
  8
1
  6
CONTINUOUS
 62
     7
 10
808.171790094053
 20
242.5995058214716
 30
0.0
 11
808.7459048304538
 21
243.2837091211386
 31
0.0
  0
LINE
  5
E8
  8
1
  6
CONTINUOUS
 62
     7
 10
810.4823866071231
 20
253.1317866512605
 30
0.0
 11
810.1769065364588
 21
253.9710862475042
 31
0.0
  0
LINE
  5
E9
  8
1
  6
CONTINUOUS
 62
     7
 10
780.164184191663
 20
256.7979216925254
 30
0.0
 11
780.414184191663
 21
256.3649089906331
 31
0.0
  0
LINE
  5
EA
  8
1
  6
CONTINUOUS
 62
     7
 10
792.5385398446451
 20
263.3649089906331
 30
0.0
 11
792.2885398446451
 21
263.7979216925254
 31
0.0
  0
ARC
  5
EB
  8
1
  6
CONTINUOUS
 62
     7
 10
790.5013620181542
 20
252.8934044901683
 30
0.0
 40
11.05000000000005
 50
80.69235188389385
 51
159.3076481161058
  0
LINE
  5
EC
  8
1
  6
CONTINUOUS
 62
     7
 10
831.9154905622382
 20
247.4227624736466
 30
0.0
 11
810.1523731373626
 21
251.2601872599789
 31
0.0
  0
LINE
  5
ED
  8
1
  6
CONTINUOUS
 62
     7
 10
803.9480842933857
 20
252.3541707792807
 30
0.0
 11
801.3097296987353
 21
252.8193838789937
 31
0.0
  0
LINE
  5
EE
  8
1
  6
CONTINUOUS
 62
     7
 10
801.7450522622519
 20
246.6500650944201
 30
0.0
 11
802.9061952273842
 21
246.4453242612074
 31
0.0
  0
LINE
  5
EF
  8
1
  6
CONTINUOUS
 62
     7
 10
809.110484071361
 20
245.3513407419057
 30
0.0
 11
830.8736014962366
 21
241.5139159555734
 31
0.0
  0
LINE
  5
F0
  8
1
  6
CONTINUOUS
 62
     7
 10
793.402189222478
 20
248.5273075894419
 30
0.0
 11
797.1859150941614
 21
247.8601346306595
 31
0.0
  0
LINE
  5
F1
  8
1
  6
CONTINUOUS
 62
     7
 10
798.0888856180294
 20
252.981134946323
 30
0.0
 11
794.3051597463461
 21
253.6483079051054
 31
0.0
  0
ARC
  5
F2
  8
1
  6
CONTINUOUS
 62
     7
 10
794.826104279347
 20
256.602731164142
 30
0.0
 40
2.999999999999983
 50
209.9999999999999
 51
259.9999999999998
  0
ARC
  5
F3
  8
1
  6
CONTINUOUS
 62
     7
 10
794.826104279347
 20
256.602731164142
 30
0.0
 40
8.200000000000017
 50
209.9999999999999
 51
259.9999999999995
  0
LINE
  5
F4
  8
1
  6
CONTINUOUS
 62
     7
 10
785.8982531268297
 20
255.6662229627145
 30
0.0
 11
787.7246959683146
 21
252.5027311641421
 31
0.0
  0
LINE
  5
F5
  8
1
  6
CONTINUOUS
 62
     7
 10
792.2280280679936
 20
255.1027311641421
 30
0.0
 11
790.4015852265087
 21
258.2662229627144
 31
0.0
  0
ARC
  5
F6
  8
1
  6
CONTINUOUS
 62
     7
 10
801.7490884040664
 20
249.5523404336852
 30
0.0
 40
0.4999999999999591
 50
349.9999999999994
 51
79.99999999999818
  0
ARC
  5
F7
  8
1
  6
CONTINUOUS
 62
     7
 10
801.2281438710655
 20
246.5979171746486
 30
0.0
 40
0.5000000000000282
 50
259.9999999999982
 51
349.9999999999994
  0
LINE
  5
F8
  8
1
  6
CONTINUOUS
 62
     7
 10
801.8359124928998
 20
250.0447443101913
 30
0.0
 11
800.8511047398877
 21
250.2183924878582
 31
0.0
  0
LINE
  5
F9
  8
1
  6
CONTINUOUS
 62
     7
 10
800.1565120292199
 20
246.2791614758094
 30
0.0
 11
801.1413197822321
 21
246.1055132981425
 31
0.0
  0
LINE
  5
FA
  8
1
  6
CONTINUOUS
 62
     7
 10
795.3199012517717
 20
260.9297674640309
 30
0.0
 11
798.894314566962
 21
258.4269363160576
 31
0.0
  0
ENDBLK
  8
0
  0
BLOCK
  8
0
  2
D_FRAME_VIEW_1935
 70
     0
 10
0.0
 20
0.0
 30
0.0
  0
LINE
  5
FF
  8
1
  6
CONTINUOUS
 62
     7
 10
748.3651527210133
 20
134.0190001240239
 30
0.0
 11
748.6491061023688
 21
134.2704860307316
 31
0.0
  0
ARC
  5
100
  8
1
  6
CONTINUOUS
 62
     7
 10
704.7109031972865
 20
107.7890335678045
 30
0.0
 40
51.30139373422956
 50
31.07727204617598
 51
36.71371975666318
  0
ARC
  5
101
  8
1
  6
CONTINUOUS
 62
     7
 10
727.8048424664036
 20
149.9198422591054
 30
0.0
 40
4.999999999999988
 50
41.10998499736026
 51
79.99999999999994
  0
ARC
  5
102
  8
1
  6
CONTINUOUS
 62
     7
 10
722.9088460031551
 20
156.2664422372123
 30
0.0
 40
0.4000000000000033
 50
169.9999999999998
 51
260.0000000000036
  0
LINE
  5
103
  8
1
  6
CONTINUOUS
 62
     7
 10
723.533979442756
 20
159.8117501480562
 30
0.0
 11
727.965614331311
 21
159.030333348555
 31
0.0
  0
ARC
  5
104
  8
1
  6
CONTINUOUS
 62
     7
 10
727.8961550602443
 20
158.6364102473501
 30
0.0
 40
0.4000000000000033
 50
41.10998499736007
 51
79.99999999999774
  0
LINE
  5
105
  8
1
  6
CONTINUOUS
 62
     7
 10
728.1975345879904
 20
158.899412871397
 30
0.0
 11
743.3639859092842
 21
141.5198983005377
 31
0.0
  0
LINE
  5
106
  8
1
  6
CONTINUOUS
 62
     7
 10
728.6730833547381
 20
154.8438810241664
 30
0.0
 11
722.8393867320883
 21
155.8725191360074
 31
0.0
  0
LINE
  5
107
  8
1
  6
CONTINUOUS
 62
     7
 10
736.6965109321507
 20
147.3352032443972
 30
0.0
 11
731.5720865632301
 21
153.2073750596907
 31
0.0
  0
ARC
  5
108
  8
1
  6
CONTINUOUS
 62
     7
 10
723.4645201716893
 20
159.4178270468514
 30
0.0
 40
0.400000000000013
 50
80.00000000000057
 51
170.0000000000007
  0
ARC
  5
109
  8
1
  6
CONTINUOUS
 62
     7
 10
727.8048424664036
 20
149.9198422591054
 30
0.0
 40
5.399999999999978
 50
41.10998499736031
 51
80.0
  0
ARC
  5
10A
  8
1
  6
CONTINUOUS
 62
     7
 10
704.7120614758428
 20
107.7898117665313
 30
0.0
 40
51.30000000000005
 50
36.71379638484899
 51
41.10998499736024
  0
LINE
  5
10B
  8
1
  6
CONTINUOUS
 62
     7
 10
661.6348472789869
 20
134.0190001240239
 30
0.0
 11
661.3508938976313
 21
134.2704860307316
 31
0.0
  0
ARC
  5
10C
  8
1
  6
CONTINUOUS
 62
     7
 10
705.2890968027136
 20
107.7890335678045
 30
0.0
 40
51.30139373422956
 50
143.2862802433368
 51
148.9227279538241
  0
ARC
  5
10D
  8
1
  6
CONTINUOUS
 62
     7
 10
682.1951575335966
 20
149.9198422591054
 30
0.0
 40
5.399999999999978
 50
100.0
 51
138.8900150026397
  0
LINE
  5
10E
  8
1
  6
CONTINUOUS
 62
     7
 10
681.8024654120097
 20
158.899412871397
 30
0.0
 11
666.6360140907159
 21
141.5198983005377
 31
0.0
  0
ARC
  5
10F
  8
1
  6
CONTINUOUS
 62
     7
 10
682.1038449397558
 20
158.6364102473501
 30
0.0
 40
0.4000000000000033
 50
100.0000000000023
 51
138.8900150026399
  0
ARC
  5
110
  8
1
  6
CONTINUOUS
 62
     7
 10
686.5354798283108
 20
159.4178270468514
 30
0.0
 40
0.400000000000013
 50
9.99999999999928
 51
99.99999999999946
  0
ARC
  5
111
  8
1
  6
CONTINUOUS
 62
     7
 10
687.091153996845
 20
156.2664422372123
 30
0.0
 40
0.4000000000000033
 50
279.9999999999964
 51
10.00000000000028
  0
LINE
  5
112
  8
1
  6
CONTINUOUS
 62
     7
 10
681.326916645262
 20
154.8438810241664
 30
0.0
 11
687.1606132679118
 21
155.8725191360074
 31
0.0
  0
ARC
  5
113
  8
1
  6
CONTINUOUS
 62
     7
 10
682.1951575335966
 20
149.9198422591054
 30
0.0
 40
4.999999999999988
 50
100.0000000000001
 51
138.8900150026398
  0
LINE
  5
114
  8
1
  6
CONTINUOUS
 62
     7
 10
686.4660205572441
 20
159.8117501480562
 30
0.0
 11
682.0343856686891
 21
159.030333348555
 31
0.0
  0
LINE
  5
115
  8
1
  6
CONTINUOUS
 62
     7
 10
673.3034890678495
 20
147.3352032443972
 30
0.0
 11
678.42791343677
 21
153.2073750596907
 31
0.0
  0
ARC
  5
116
  8
1
  6
CONTINUOUS
 62
     7
 10
705.2879385241573
 20
107.7898117665313
 30
0.0
 40
51.30000000000005
 50
138.8900150026398
 51
143.286203615151
  0
LINE
  5
117
  8
1
  6
CONTINUOUS
 62
     7
 10
680.1312722582396
 20
156.3760030542477
 30
0.0
 11
680.4307237726565
 21
156.1107910843863
 31
0.0
  0
LINE
  5
118
  8
1
  6
CONTINUOUS
 62
     7
 10
729.8687277417605
 20
156.3760030542477
 30
0.0
 11
729.5692762273436
 21
156.1107910843863
 31
0.0
  0
ARC
  5
119
  8
1
  6
CONTINUOUS
 62
     7
 10
704.7120614758428
 20
107.7898117665313
 30
0.0
 40
50.90000000000009
 50
40.94499421980504
 51
41.10998499736031
  0
ARC
  5
11A
  8
1
  6
CONTINUOUS
 62
     7
 10
704.7120614758428
 20
107.7898117665313
 30
0.0
 40
50.90000000000003
 50
270.3241208287832
 51
320.1825482458182
  0
ARC
  5
11B
  8
1
  6
CONTINUOUS
 62
     7
 10
705.2879385241573
 20
107.7898117665313
 30
0.0
 40
50.90000000000009
 50
138.8900150026397
 51
139.6237966680515
  0
ARC
  5
11C
  8
1
  6
CONTINUOUS
 62
     7
 10
705.2879385241573
 20
107.7898117665313
 30
0.0
 40
50.90000000000004
 50
224.0398994081342
 51
269.6758791712168
  0
ARC
  5
11D
  8
1
  6
CONTINUOUS
 62
     7
 10
704.4044846145778
 20
180.6126754907664
 30
0.0
 40
10.09586370049854
 50
0.4759411721610338
 51
17.11201260182931
  0
ARC
  5
11E
  8
1
  6
CONTINUOUS
 62
     7
 10
711.6138970587383
 20
185.1288543124116
 30
0.0
 40
2.887911492574963
 50
327.6435929533619
 51
357.9721595786035
  0
ARC
  5
11F
  8
1
  6
CONTINUOUS
 62
     7
 10
711.7149405012545
 20
176.295485129889
 30
0.0
 40
2.785962476926405
 50
1.458815462636138
 51
32.92543200539885
  0
ARC
  5
120
  8
1
  6
CONTINUOUS
 62
     7
 10
704.0804319112412
 20
180.8305321292898
 30
0.0
 40
10.42042962247658
 50
343.1488196457586
 51
359.2632265802507
  0
LINE
  5
121
  8
1
  6
CONTINUOUS
 62
     7
 10
714.0534180126149
 20
177.8097869002452
 30
0.0
 11
709.5
 21
177.8097869002452
 31
0.0
  0
ARC
  5
122
  8
1
  6
CONTINUOUS
 62
     7
 10
711.6138970587381
 20
176.4686002745673
 30
0.0
 40
2.887911492575195
 50
327.6435929533628
 51
357.9721595786015
  0
LINE
  5
123
  8
1
  6
CONTINUOUS
 62
     7
 10
714.0534180126149
 20
174.9230355542971
 30
0.0
 11
709.5
 21
174.9230355542971
 31
0.0
  0
LINE
  5
124
  8
1
  6
CONTINUOUS
 62
     7
 10
714.0534180126149
 20
186.4700409380896
 30
0.0
 11
709.5
 21
186.4700409380896
 31
0.0
  0
ARC
  5
125
  8
1
  6
CONTINUOUS
 62
     7
 10
711.7149405012545
 20
184.9557391677334
 30
0.0
 40
2.785962476926406
 50
1.458815462637279
 51
32.92543200539885
  0
LINE
  5
126
  8
1
  6
CONTINUOUS
 62
     7
 10
714.0534180126149
 20
183.5832895921415
 30
0.0
 11
709.5
 21
183.5832895921415
 31
0.0
  0
LINE
  5
127
  8
1
  6
CONTINUOUS
 62
     7
 10
683.6978886899203
 20
183.3464810288217
 30
0.0
 11
694.4225108935859
 21
192.3455075644333
 31
0.0
  0
LINE
  5
128
  8
1
  6
CONTINUOUS
 62
     7
 10
684.0192824947636
 20
182.9634588072622
 30
0.0
 11
694.7439046984292
 21
191.9624853428737
 31
0.0
  0
LINE
  5
129
  8
1
  6
CONTINUOUS
 62
     7
 10
736.2909557458686
 20
183.1002715874794
 30
0.0
 11
736.2909557458685
 21
177.1002715874794
 31
0.0
  0
LINE
  5
12A
  8
1
  6
CONTINUOUS
 62
     7
 10
691.6797269259534
 20
189.3913349041276
 30
0.0
 11
691.8584963296913
 21
189.178285824977
 31
0.0
  0
LINE
  5
12B
  8
1
  6
CONTINUOUS
 62
     7
 10
687.2622296709775
 20
185.3215601668578
 30
0.0
 11
687.0834602672395
 21
185.5346092460083
 31
0.0
  0
LINE
  5
12C
  8
1
  6
CONTINUOUS
 62
     7
 10
705.0
 20
190.6093738006888
 30
0.0
 11
708.2
 21
190.6093738006888
 31
0.0
  0
LINE
  5
12D
  8
1
  6
CONTINUOUS
 62
     7
 10
727.8961550602442
 20
158.6364102473502
 30
0.0
 11
727.3404808917101
 21
155.4850254377111
 31
0.0
  0
ARC
  5
12E
  8
1
  6
CONTINUOUS
 62
     7
 10
708.2
 20
162.1093738006888
 30
0.0
 40
3.199999999999981
 50
180.0
 51
259.9999999999999
  0
LINE
  5
12F
  8
1
  6
CONTINUOUS
 62
     7
 10
701.8000000000001
 20
186.9093738006888
 30
0.0
 11
701.8000000000001
 21
162.1093738006888
 31
0.0
  0
ARC
  5
130
  8
1
  6
CONTINUOUS
 62
     7
 10
698.8000000000001
 20
186.9093738006888
 30
0.0
 40
3.000000000000002
 50
0.0000000000005684
 51
130.0000000000001
  0
ARC
  5
131
  8
1
  6
CONTINUOUS
 62
     7
 10
698.8000000000001
 20
186.9093738006888
 30
0.0
 40
6.199999999999983
 50
0.0
 51
129.9999999999997
  0
ARC
  5
132
  8
1
  6
CONTINUOUS
 62
     7
 10
701.8000000000001
 20
162.1093738006888
 30
0.0
 40
3.200000000000022
 50
279.9999999999999
 51
0.0
  0
LINE
  5
133
  8
1
  6
CONTINUOUS
 62
     7
 10
681.9337705301203
 20
176.6731487411583
 30
0.0
 11
679.8768501791235
 21
179.124490959139
 31
0.0
  0
LINE
  5
134
  8
1
  6
CONTINUOUS
 62
     7
 10
682.65951910829
 20
155.4850254377111
 30
0.0
 11
682.1038449397558
 21
158.6364102473502
 31
0.0
  0
LINE
  5
135
  8
1
  6
CONTINUOUS
 62
     7
 10
708.2
 20
173.6965382461933
 30
0.0
 11
709.5
 21
173.6965382461933
 31
0.0
  0
LINE
  5
136
  8
1
  6
CONTINUOUS
 62
     7
 10
709.5
 20
187.6965382461934
 30
0.0
 11
708.2
 21
187.6965382461934
 31
0.0
  0
LINE
  5
137
  8
1
  6
CONTINUOUS
 62
     7
 10
714.0534180126149
 20
174.9230355542971
 30
0.0
 11
714.5
 21
175.6965382461934
 31
0.0
  0
LINE
  5
138
  8
1
  6
CONTINUOUS
 62
     7
 10
714.5
 20
185.6965382461934
 30
0.0
 11
714.0534180126149
 21
186.4700409380896
 31
0.0
  0
ARC
  5
139
  8
1
  6
CONTINUOUS
 62
     7
 10
694.5560338545731
 20
181.2963143079602
 30
0.0
 40
11.05000000000001
 50
90.69235188389403
 51
169.3076481161059
  0
LINE
  5
13A
  8
1
  6
CONTINUOUS
 62
     7
 10
683.6978886899203
 20
183.3464810288217
 30
0.0
 11
684.0192824947636
 21
182.9634588072622
 31
0.0
  0
LINE
  5
13B
  8
1
  6
CONTINUOUS
 62
     7
 10
694.7439046984293
 20
191.9624853428737
 30
0.0
 11
694.4225108935859
 21
192.3455075644333
 31
0.0
  0
LINE
  5
13C
  8
1
  6
CONTINUOUS
 62
     7
 10
736.2909557458686
 20
183.1002715874794
 30
0.0
 11
714.5
 21
183.1002715874797
 31
0.0
  0
LINE
  5
13D
  8
1
  6
CONTINUOUS
 62
     7
 10
714.5
 20
177.1002715874797
 30
0.0
 11
736.2909557458685
 21
177.1002715874794
 31
0.0
  0
LINE
  5
13E
  8
1
  6
CONTINUOUS
 62
     7
 10
698.1709557458685
 20
177.5002715874798
 30
0.0
 11
701.8000000000001
 21
177.5002715874798
 31
0.0
  0
LINE
  5
13F
  8
1
  6
CONTINUOUS
 62
     7
 10
701.8000000000001
 20
182.7002715874798
 30
0.0
 11
698.1709557458685
 21
182.7002715874798
 31
0.0
  0
ARC
  5
140
  8
1
  6
CONTINUOUS
 62
     7
 10
698.1709557458685
 20
185.7002715874798
 30
0.0
 40
3.000000000000003
 50
220.0
 51
269.9999999999993
  0
ARC
  5
141
  8
1
  6
CONTINUOUS
 62
     7
 10
698.1709557458685
 20
185.7002715874798
 30
0.0
 40
8.199999999999925
 50
220.0000000000001
 51
269.9999999999994
  0
LINE
  5
142
  8
1
  6
CONTINUOUS
 62
     7
 10
689.625567799222
 20
183.1273329927516
 30
0.0
 11
691.8893913122929
 21
180.4294131880501
 31
0.0
  0
LINE
  5
143
  8
1
  6
CONTINUOUS
 62
     7
 10
695.8728224165116
 20
183.7719087584201
 30
0.0
 11
693.6089989034407
 21
186.4698285631216
 31
0.0
  0
LINE
  5
144
  8
1
  6
CONTINUOUS
 62
     7
 10
697.6928171764959
 20
189.6975355166283
 30
0.0
 11
701.6475391896189
 21
187.853418356035
 31
0.0
  0
ENDBLK
  8
0
  0
BLOCK
  8
0
  2
D_FRAME_VIEW_1933
 70
     0
 10
0.0
 20
0.0
 30
0.0
  0
LINE
  5
191
  8
1
  6
CONTINUOUS
 62
     7
 10
779.3794600215765
 20
313.2
 30
0.0
 11
779.3794600215765
 21
306.8000000000001
 31
0.0
  0
LINE
  5
192
  8
1
  6
CONTINUOUS
 62
     7
 10
501.3794600215754
 20
320.5000000000002
 30
0.0
 11
501.3794600215754
 21
299.5000000000001
 31
0.0
  0
CIRCLE
  5
193
  8
1
  6
CONTINUOUS
 62
     7
 10
746.879460021576
 20
310.0000000000001
 30
0.0
 40
3.499999999999948
  0
CIRCLE
  5
194
  8
1
  6
CONTINUOUS
 62
     7
 10
761.879460021576
 20
310.0000000000001
 30
0.0
 40
3.499999999999948
  0
LINE
  5
195
  8
1
  6
CONTINUOUS
 62
     7
 10
779.279460021576
 20
313.2
 30
0.0
 11
779.279460021576
 21
306.8000000000001
 31
0.0
  0
LINE
  5
196
  8
1
  6
CONTINUOUS
 62
     7
 10
737.8794600215759
 20
315.0000000000001
 30
0.0
 11
737.8794600215759
 21
305.0000000000001
 31
0.0
  0
ARC
  5
197
  8
1
  6
CONTINUOUS
 62
     7
 10
742.879460021576
 20
315.0000000000001
 30
0.0
 40
5.000000000000004
 50
90.0
 51
180.0
  0
ARC
  5
198
  8
1
  6
CONTINUOUS
 62
     7
 10
742.879460021576
 20
305.0000000000001
 30
0.0
 40
5.000000000000004
 50
180.0
 51
270.0
  0
CIRCLE
  5
199
  8
1
  6
CONTINUOUS
 62
     7
 10
533.8794600215759
 20
310.0000000000001
 30
0.0
 40
3.500000000000059
  0
CIRCLE
  5
19A
  8
1
  6
CONTINUOUS
 62
     7
 10
518.879460021576
 20
310.0000000000001
 30
0.0
 40
3.499999999999948
  0
LINE
  5
19B
  8
1
  6
CONTINUOUS
 62
     7
 10
501.479460021576
 20
320.0000000000001
 30
0.0
 11
501.479460021576
 21
300.0000000000001
 31
0.0
  0
LINE
  5
19C
  8
1
  6
CONTINUOUS
 62
     7
 10
501.479460021576
 20
320.0000000000001
 30
0.0
 11
501.6848673109082
 21
320.0000000000001
 31
0.0
  0
LINE
  5
19D
  8
1
  6
CONTINUOUS
 62
     7
 10
501.479460021576
 20
300.0000000000001
 30
0.0
 11
501.6848673109082
 21
300.0000000000001
 31
0.0
  0
LINE
  5
19E
  8
1
  6
CONTINUOUS
 62
     7
 10
542.8794600215759
 20
315.0000000000001
 30
0.0
 11
542.8794600215759
 21
305.0000000000001
 31
0.0
  0
ARC
  5
19F
  8
1
  6
CONTINUOUS
 62
     7
 10
537.8794600215759
 20
315.0000000000001
 30
0.0
 40
5.000000000000004
 50
0.0
 51
90.0
  0
ARC
  5
1A0
  8
1
  6
CONTINUOUS
 62
     7
 10
537.8794600215759
 20
305.0000000000001
 30
0.0
 40
5.000000000000004
 50
270.0
 51
0.0
  0
POLYLINE
  5
1A1
  8
1
  6
CONTINUOUS
 62
     7
 66
     1
 10
0.0
 20
0.0
 30
0.0
  0
VERTEX
  5
26E
  8
1
  6
CONTINUOUS
 62
     7
 10
803.4098568748116
 20
303.0000000000001
 30
0.0
  0
VERTEX
  5
26F
  8
1
  6
CONTINUOUS
 62
     7
 10
803.6469964271015
 20
303.1345030371774
 30
0.0
  0
VERTEX
  5
270
  8
1
  6
CONTINUOUS
 62
     7
 10
803.8750228393862
 20
303.532843272421
 30
0.0
  0
VERTEX
  5
271
  8
1
  6
CONTINUOUS
 62
     7
 10
804.0851731845205
 20
304.1797127138822
 30
0.0
  0
VERTEX
  5
272
  8
1
  6
CONTINUOUS
 62
     7
 10
804.2693715025944
 20
305.0502525316942
 30
0.0
  0
VERTEX
  5
273
  8
1
  6
CONTINUOUS
 62
     7
 10
804.4205391555439
 20
306.1110083688628
 30
0.0
  0
VERTEX
  5
274
  8
1
  6
CONTINUOUS
 62
     7
 10
804.5328668552421
 20
307.3212159734445
 30
0.0
  0
VERTEX
  5
275
  8
1
  6
CONTINUOUS
 62
     7
 10
804.6020379111835
 20
308.6343677458872
 30
0.0
  0
VERTEX
  5
276
  8
1
  6
CONTINUOUS
 62
     7
 10
804.6253941184801
 20
310.0000000000001
 30
0.0
  0
VERTEX
  5
277
  8
1
  6
CONTINUOUS
 62
     7
 10
804.6020379111835
 20
311.3656322541129
 30
0.0
  0
VERTEX
  5
278
  8
1
  6
CONTINUOUS
 62
     7
 10
804.5328668552421
 20
312.6787840265557
 30
0.0
  0
VERTEX
  5
279
  8
1
  6
CONTINUOUS
 62
     7
 10
804.4205391555439
 20
313.8889916311373
 30
0.0
  0
VERTEX
  5
27A
  8
1
  6
CONTINUOUS
 62
     7
 10
804.2693715025944
 20
314.9497474683059
 30
0.0
  0
VERTEX
  5
27B
  8
1
  6
CONTINUOUS
 62
     7
 10
804.0851731845205
 20
315.8202872861179
 30
0.0
  0
VERTEX
  5
27C
  8
1
  6
CONTINUOUS
 62
     7
 10
803.8750228393862
 20
316.4671567275791
 30
0.0
  0
VERTEX
  5
27D
  8
1
  6
CONTINUOUS
 62
     7
 10
803.6469964271015
 20
316.8654969628226
 30
0.0
  0
VERTEX
  5
27E
  8
1
  6
CONTINUOUS
 62
     7
 10
803.4098568748116
 20
317.0000000000001
 30
0.0
  0
SEQEND
  5
546
  8
1
  6
CONTINUOUS
 62
     7
  0
POLYLINE
  5
1A2
  8
1
  6
CONTINUOUS
 62
     7
 66
     1
 10
0.0
 20
0.0
 30
0.0
  0
VERTEX
  5
27F
  8
1
  6
CONTINUOUS
 62
     7
 10
803.4098568748116
 20
317.0000000000001
 30
0.0
  0
VERTEX
  5
280
  8
1
  6
CONTINUOUS
 62
     7
 10
803.1827024682144
 20
316.8766849326442
 30
0.0
  0
VERTEX
  5
281
  8
1
  6
CONTINUOUS
 62
     7
 10
802.9635513647457
 20
316.5110844751015
 30
0.0
  0
VERTEX
  5
282
  8
1
  6
CONTINUOUS
 62
     7
 10
802.7601248881442
 20
315.9160797830996
 30
0.0
  0
VERTEX
  5
283
  8
1
  6
CONTINUOUS
 62
     7
 10
802.5795903383139
 20
315.1126345834019
 30
0.0
  0
VERTEX
  5
284
  8
1
  6
CONTINUOUS
 62
     7
 10
802.4283084667326
 20
314.1290565614133
 30
0.0
  0
VERTEX
  5
285
  8
1
  6
CONTINUOUS
 62
     7
 10
802.3116093688814
 20
312.9999999999999
 30
0.0
  0
SEQEND
  5
547
  8
1
  6
CONTINUOUS
 62
     7
  0
POLYLINE
  5
1A3
  8
1
  6
CONTINUOUS
 62
     7
 66
     1
 10
0.0
 20
0.0
 30
0.0
  0
VERTEX
  5
286
  8
1
  6
CONTINUOUS
 62
     7
 10
802.3116093688814
 20
307.0000000000002
 30
0.0
  0
VERTEX
  5
287
  8
1
  6
CONTINUOUS
 62
     7
 10
802.4283084667326
 20
305.8709434385868
 30
0.0
  0
VERTEX
  5
288
  8
1
  6
CONTINUOUS
 62
     7
 10
802.5795903383139
 20
304.8873654165982
 30
0.0
  0
VERTEX
  5
289
  8
1
  6
CONTINUOUS
 62
     7
 10
802.7601248881442
 20
304.0839202169005
 30
0.0
  0
VERTEX
  5
28A
  8
1
  6
CONTINUOUS
 62
     7
 10
802.9635513647457
 20
303.4889155248986
 30
0.0
  0
VERTEX
  5
28B
  8
1
  6
CONTINUOUS
 62
     7
 10
803.1827024682144
 20
303.1233150673559
 30
0.0
  0
VERTEX
  5
28C
  8
1
  6
CONTINUOUS
 62
     7
 10
803.4098568748116
 20
303.0000000000001
 30
0.0
  0
SEQEND
  5
548
  8
1
  6
CONTINUOUS
 62
     7
  0
POLYLINE
  5
1A4
  8
1
  6
CONTINUOUS
 62
     7
 66
     1
 10
0.0
 20
0.0
 30
0.0
  0
VERTEX
  5
28D
  8
1
  6
CONTINUOUS
 62
     7
 10
804.6901069537274
 20
303.0000000000001
 30
0.0
  0
VERTEX
  5
28E
  8
1
  6
CONTINUOUS
 62
     7
 10
804.9272465060174
 20
303.1345030371774
 30
0.0
  0
VERTEX
  5
28F
  8
1
  6
CONTINUOUS
 62
     7
 10
805.1552729183021
 20
303.532843272421
 30
0.0
  0
VERTEX
  5
290
  8
1
  6
CONTINUOUS
 62
     7
 10
805.3654232634364
 20
304.1797127138822
 30
0.0
  0
VERTEX
  5
291
  8
1
  6
CONTINUOUS
 62
     7
 10
805.5496215815102
 20
305.0502525316942
 30
0.0
  0
VERTEX
  5
292
  8
1
  6
CONTINUOUS
 62
     7
 10
805.7007892344598
 20
306.1110083688628
 30
0.0
  0
VERTEX
  5
293
  8
1
  6
CONTINUOUS
 62
     7
 10
805.813116934158
 20
307.3212159734445
 30
0.0
  0
VERTEX
  5
294
  8
1
  6
CONTINUOUS
 62
     7
 10
805.8822879900994
 20
308.6343677458872
 30
0.0
  0
VERTEX
  5
295
  8
1
  6
CONTINUOUS
 62
     7
 10
805.905644197396
 20
310.0000000000001
 30
0.0
  0
VERTEX
  5
296
  8
1
  6
CONTINUOUS
 62
     7
 10
805.8822879900994
 20
311.3656322541129
 30
0.0
  0
VERTEX
  5
297
  8
1
  6
CONTINUOUS
 62
     7
 10
805.813116934158
 20
312.6787840265557
 30
0.0
  0
VERTEX
  5
298
  8
1
  6
CONTINUOUS
 62
     7
 10
805.7007892344598
 20
313.8889916311373
 30
0.0
  0
VERTEX
  5
299
  8
1
  6
CONTINUOUS
 62
     7
 10
805.5496215815102
 20
314.9497474683059
 30
0.0
  0
VERTEX
  5
29A
  8
1
  6
CONTINUOUS
 62
     7
 10
805.3654232634364
 20
315.8202872861179
 30
0.0
  0
VERTEX
  5
29B
  8
1
  6
CONTINUOUS
 62
     7
 10
805.1552729183021
 20
316.4671567275791
 30
0.0
  0
VERTEX
  5
29C
  8
1
  6
CONTINUOUS
 62
     7
 10
804.9272465060174
 20
316.8654969628226
 30
0.0
  0
VERTEX
  5
29D
  8
1
  6
CONTINUOUS
 62
     7
 10
804.6901069537274
 20
317.0000000000001
 30
0.0
  0
SEQEND
  5
549
  8
1
  6
CONTINUOUS
 62
     7
  0
LINE
  5
1A5
  8
1
  6
CONTINUOUS
 62
     7
 10
810.1769065364588
 20
310.0000000000001
 30
0.0
 11
805.905644197396
 21
310.0000000000001
 31
0.0
  0
ARC
  5
1A6
  8
1
  6
CONTINUOUS
 62
     7
 10
802.8549234259806
 20
308.1888396337031
 30
0.0
 40
7.542661237426241
 50
354.7601155497141
 51
13.89375247157159
  0
ARC
  5
1A7
  8
1
  6
CONTINUOUS
 62
     7
 10
801.9541129608285
 20
308.4778282247535
 30
0.0
 40
8.468593436606916
 50
335.7528401783615
 51
353.3695395535044
  0
ARC
  5
1A8
  8
1
  6
CONTINUOUS
 62
     7
 10
802.119321317334
 20
311.5677981573425
 30
0.0
 40
8.299263310345713
 50
6.449269371743369
 51
24.42835089639034
  0
ARC
  5
1A9
  8
1
  6
CONTINUOUS
 62
     7
 10
802.7415002797533
 20
311.819742317609
 30
0.0
 40
7.65484998577711
 50
346.2477463090125
 51
5.098385669701429
  0
POLYLINE
  5
1AA
  8
1
  6
CONTINUOUS
 62
     7
 66
     1
 10
0.0
 20
0.0
 30
0.0
  0
VERTEX
  5
29E
  8
1
  6
CONTINUOUS
 62
     7
 10
810.3660643846907
 20
307.5000000000001
 30
0.0
  0
VERTEX
  5
29F
  8
1
  6
CONTINUOUS
 62
     7
 10
810.4398918733532
 20
308.4549150281253
 30
0.0
  0
VERTEX
  5
2A0
  8
1
  6
CONTINUOUS
 62
     7
 10
810.4776302926914
 20
309.4773576836618
 30
0.0
  0
VERTEX
  5
2A1
  8
1
  6
CONTINUOUS
 62
     7
 10
810.4776302926914
 20
310.5226423163383
 30
0.0
  0
VERTEX
  5
2A2
  8
1
  6
CONTINUOUS
 62
     7
 10
810.4398918733532
 20
311.5450849718748
 30
0.0
  0
VERTEX
  5
2A3
  8
1
  6
CONTINUOUS
 62
     7
 10
810.3660643846907
 20
312.5000000000001
 30
0.0
  0
SEQEND
  5
54A
  8
1
  6
CONTINUOUS
 62
     7
  0
POLYLINE
  5
1AB
  8
1
  6
CONTINUOUS
 62
     7
 66
     1
 10
0.0
 20
0.0
 30
0.0
  0
VERTEX
  5
2A4
  8
1
  6
CONTINUOUS
 62
     7
 10
810.3660643846907
 20
312.5000000000001
 30
0.0
  0
VERTEX
  5
2A5
  8
1
  6
CONTINUOUS
 62
     7
 10
810.2738262566365
 20
313.2508441890618
 30
0.0
  0
VERTEX
  5
2A6
  8
1
  6
CONTINUOUS
 62
     7
 10
810.159266721768
 20
313.8916905663476
 30
0.0
  0
VERTEX
  5
2A7
  8
1
  6
CONTINUOUS
 62
     7
 10
810.0262620957188
 20
314.4008550107228
 30
0.0
  0
VERTEX
  5
2A8
  8
1
  6
CONTINUOUS
 62
     7
 10
809.8793128149823
 20
314.7611090819859
 30
0.0
  0
SEQEND
  5
54B
  8
1
  6
CONTINUOUS
 62
     7
  0
POLYLINE
  5
1AC
  8
1
  6
CONTINUOUS
 62
     7
 66
     1
 10
0.0
 20
0.0
 30
0.0
  0
VERTEX
  5
2A9
  8
1
  6
CONTINUOUS
 62
     7
 10
809.8793128149823
 20
305.2388909180142
 30
0.0
  0
VERTEX
  5
2AA
  8
1
  6
CONTINUOUS
 62
     7
 10
810.0262620957188
 20
305.5991449892773
 30
0.0
  0
VERTEX
  5
2AB
  8
1
  6
CONTINUOUS
 62
     7
 10
810.159266721768
 20
306.1083094336525
 30
0.0
  0
VERTEX
  5
2AC
  8
1
  6
CONTINUOUS
 62
     7
 10
810.2738262566365
 20
306.7491558109383
 30
0.0
  0
VERTEX
  5
2AD
  8
1
  6
CONTINUOUS
 62
     7
 10
810.3660643846907
 20
307.5000000000001
 30
0.0
  0
SEQEND
  5
54C
  8
1
  6
CONTINUOUS
 62
     7
  0
POLYLINE
  5
1AD
  8
1
  6
CONTINUOUS
 62
     7
 66
     1
 10
0.0
 20
0.0
 30
0.0
  0
VERTEX
  5
2AE
  8
1
  6
CONTINUOUS
 62
     7
 10
780.164184191663
 20
310.0000000000001
 30
0.0
  0
VERTEX
  5
2AF
  8
1
  6
CONTINUOUS
 62
     7
 10
780.2806672387447
 20
308.6343677458872
 30
0.0
  0
VERTEX
  5
2B0
  8
1
  6
CONTINUOUS
 62
     7
 10
780.6256400018152
 20
307.3212159734445
 30
0.0
  0
VERTEX
  5
2B1
  8
1
  6
CONTINUOUS
 62
     7
 10
781.1858453710524
 20
306.1110083688628
 30
0.0
  0
VERTEX
  5
2B2
  8
1
  6
CONTINUOUS
 62
     7
 10
781.9397549682835
 20
305.0502525316942
 30
0.0
  0
VERTEX
  5
2B3
  8
1
  6
CONTINUOUS
 62
     7
 10
782.8583964704842
 20
304.1797127138822
 30
0.0
  0
VERTEX
  5
2B4
  8
1
  6
CONTINUOUS
 62
     7
 10
783.906466999905
 20
303.532843272421
 30
0.0
  0
VERTEX
  5
2B5
  8
1
  6
CONTINUOUS
 62
     7
 10
785.0436897938649
 20
303.1345030371774
 30
0.0
  0
VERTEX
  5
2B6
  8
1
  6
CONTINUOUS
 62
     7
 10
786.2263620181541
 20
303.0000000000001
 30
0.0
  0
SEQEND
  5
54D
  8
1
  6
CONTINUOUS
 62
     7
  0
POLYLINE
  5
1AE
  8
1
  6
CONTINUOUS
 62
     7
 66
     1
 10
0.0
 20
0.0
 30
0.0
  0
VERTEX
  5
2B7
  8
1
  6
CONTINUOUS
 62
     7
 10
786.2263620181541
 20
317.0000000000001
 30
0.0
  0
VERTEX
  5
2B8
  8
1
  6
CONTINUOUS
 62
     7
 10
785.0436897938649
 20
316.8654969628227
 30
0.0
  0
VERTEX
  5
2B9
  8
1
  6
CONTINUOUS
 62
     7
 10
783.906466999905
 20
316.4671567275791
 30
0.0
  0
VERTEX
  5
2BA
  8
1
  6
CONTINUOUS
 62
     7
 10
782.8583964704842
 20
315.8202872861179
 30
0.0
  0
VERTEX
  5
2BB
  8
1
  6
CONTINUOUS
 62
     7
 10
781.9397549682835
 20
314.9497474683059
 30
0.0
  0
VERTEX
  5
2BC
  8
1
  6
CONTINUOUS
 62
     7
 10
781.1858453710524
 20
313.8889916311373
 30
0.0
  0
VERTEX
  5
2BD
  8
1
  6
CONTINUOUS
 62
     7
 10
780.6256400018152
 20
312.6787840265557
 30
0.0
  0
VERTEX
  5
2BE
  8
1
  6
CONTINUOUS
 62
     7
 10
780.2806672387447
 20
311.3656322541129
 30
0.0
  0
VERTEX
  5
2BF
  8
1
  6
CONTINUOUS
 62
     7
 10
780.164184191663
 20
310.0000000000001
 30
0.0
  0
SEQEND
  5
54E
  8
1
  6
CONTINUOUS
 62
     7
  0
POLYLINE
  5
1AF
  8
1
  6
CONTINUOUS
 62
     7
 66
     1
 10
0.0
 20
0.0
 30
0.0
  0
VERTEX
  5
2C0
  8
1
  6
CONTINUOUS
 62
     7
 10
786.2263620181541
 20
303.0000000000001
 30
0.0
  0
VERTEX
  5
2C1
  8
1
  6
CONTINUOUS
 62
     7
 10
787.4090342424432
 20
303.1345030371774
 30
0.0
  0
VERTEX
  5
2C2
  8
1
  6
CONTINUOUS
 62
     7
 10
788.5462570364032
 20
303.532843272421
 30
0.0
  0
VERTEX
  5
2C3
  8
1
  6
CONTINUOUS
 62
     7
 10
789.594327565824
 20
304.1797127138822
 30
0.0
  0
VERTEX
  5
2C4
  8
1
  6
CONTINUOUS
 62
     7
 10
790.5129690680246
 20
305.0502525316942
 30
0.0
  0
VERTEX
  5
2C5
  8
1
  6
CONTINUOUS
 62
     7
 10
791.2668786652557
 20
306.1110083688628
 30
0.0
  0
VERTEX
  5
2C6
  8
1
  6
CONTINUOUS
 62
     7
 10
791.8270840344929
 20
307.3212159734445
 30
0.0
  0
VERTEX
  5
2C7
  8
1
  6
CONTINUOUS
 62
     7
 10
792.1720567975634
 20
308.6343677458872
 30
0.0
  0
VERTEX
  5
2C8
  8
1
  6
CONTINUOUS
 62
     7
 10
792.2885398446451
 20
310.0000000000001
 30
0.0
  0
VERTEX
  5
2C9
  8
1
  6
CONTINUOUS
 62
     7
 10
792.1720567975634
 20
311.3656322541129
 30
0.0
  0
VERTEX
  5
2CA
  8
1
  6
CONTINUOUS
 62
     7
 10
791.8270840344929
 20
312.6787840265557
 30
0.0
  0
VERTEX
  5
2CB
  8
1
  6
CONTINUOUS
 62
     7
 10
791.2668786652557
 20
313.8889916311373
 30
0.0
  0
VERTEX
  5
2CC
  8
1
  6
CONTINUOUS
 62
     7
 10
790.5129690680246
 20
314.9497474683059
 30
0.0
  0
VERTEX
  5
2CD
  8
1
  6
CONTINUOUS
 62
     7
 10
789.594327565824
 20
315.8202872861179
 30
0.0
  0
VERTEX
  5
2CE
  8
1
  6
CONTINUOUS
 62
     7
 10
788.5462570364032
 20
316.4671567275791
 30
0.0
  0
VERTEX
  5
2CF
  8
1
  6
CONTINUOUS
 62
     7
 10
787.4090342424432
 20
316.8654969628227
 30
0.0
  0
VERTEX
  5
2D0
  8
1
  6
CONTINUOUS
 62
     7
 10
786.2263620181541
 20
317.0000000000001
 30
0.0
  0
SEQEND
  5
54F
  8
1
  6
CONTINUOUS
 62
     7
  0
POLYLINE
  5
1B0
  8
1
  6
CONTINUOUS
 62
     7
 66
     1
 10
0.0
 20
0.0
 30
0.0
  0
VERTEX
  5
2D1
  8
1
  6
CONTINUOUS
 62
     7
 10
786.4763620181542
 20
303.0000000000001
 30
0.0
  0
VERTEX
  5
2D2
  8
1
  6
CONTINUOUS
 62
     7
 10
787.6590342424433
 20
303.1345030371774
 30
0.0
  0
VERTEX
  5
2D3
  8
1
  6
CONTINUOUS
 62
     7
 10
788.7962570364033
 20
303.5328432724211
 30
0.0
  0
VERTEX
  5
2D4
  8
1
  6
CONTINUOUS
 62
     7
 10
789.8443275658241
 20
304.1797127138822
 30
0.0
  0
VERTEX
  5
2D5
  8
1
  6
CONTINUOUS
 62
     7
 10
790.7629690680247
 20
305.0502525316942
 30
0.0
  0
VERTEX
  5
2D6
  8
1
  6
CONTINUOUS
 62
     7
 10
791.5168786652558
 20
306.1110083688629
 30
0.0
  0
VERTEX
  5
2D7
  8
1
  6
CONTINUOUS
 62
     7
 10
792.077084034493
 20
307.3212159734445
 30
0.0
  0
VERTEX
  5
2D8
  8
1
  6
CONTINUOUS
 62
     7
 10
792.4220567975635
 20
308.6343677458872
 30
0.0
  0
VERTEX
  5
2D9
  8
1
  6
CONTINUOUS
 62
     7
 10
792.5385398446452
 20
310.0000000000001
 30
0.0
  0
VERTEX
  5
2DA
  8
1
  6
CONTINUOUS
 62
     7
 10
792.4220567975635
 20
311.365632254113
 30
0.0
  0
VERTEX
  5
2DB
  8
1
  6
CONTINUOUS
 62
     7
 10
792.077084034493
 20
312.6787840265557
 30
0.0
  0
VERTEX
  5
2DC
  8
1
  6
CONTINUOUS
 62
     7
 10
791.5168786652558
 20
313.8889916311373
 30
0.0
  0
VERTEX
  5
2DD
  8
1
  6
CONTINUOUS
 62
     7
 10
790.7629690680247
 20
314.9497474683059
 30
0.0
  0
VERTEX
  5
2DE
  8
1
  6
CONTINUOUS
 62
     7
 10
789.8443275658241
 20
315.8202872861179
 30
0.0
  0
VERTEX
  5
2DF
  8
1
  6
CONTINUOUS
 62
     7
 10
788.7962570364033
 20
316.4671567275791
 30
0.0
  0
VERTEX
  5
2E0
  8
1
  6
CONTINUOUS
 62
     7
 10
787.6590342424432
 20
316.8654969628227
 30
0.0
  0
VERTEX
  5
2E1
  8
1
  6
CONTINUOUS
 62
     7
 10
786.4763620181541
 20
317.0000000000001
 30
0.0
  0
SEQEND
  5
550
  8
1
  6
CONTINUOUS
 62
     7
  0
POLYLINE
  5
1B1
  8
1
  6
CONTINUOUS
 62
     7
 66
     1
 10
0.0
 20
0.0
 30
0.0
  0
VERTEX
  5
2E2
  8
1
  6
CONTINUOUS
 62
     7
 10
831.9154905622381
 20
310.0000000000001
 30
0.0
  0
VERTEX
  5
2E3
  8
1
  6
CONTINUOUS
 62
     7
 10
831.905480759111
 20
310.5852709660484
 30
0.0
  0
VERTEX
  5
2E4
  8
1
  6
CONTINUOUS
 62
     7
 10
831.8758360208504
 20
311.1480502970953
 30
0.0
  0
VERTEX
  5
2E5
  8
1
  6
CONTINUOUS
 62
     7
 10
831.8276955781226
 20
311.6667106990589
 30
0.0
  0
VERTEX
  5
2E6
  8
1
  6
CONTINUOUS
 62
     7
 10
831.7629094411442
 20
312.1213203435597
 30
0.0
  0
VERTEX
  5
2E7
  8
1
  6
CONTINUOUS
 62
     7
 10
831.6839673048269
 20
312.4944088369077
 30
0.0
  0
VERTEX
  5
2E8
  8
1
  6
CONTINUOUS
 62
     7
 10
831.5939028711979
 20
312.7716385975339
 30
0.0
  0
VERTEX
  5
2E9
  8
1
  6
CONTINUOUS
 62
     7
 10
831.4961772659329
 20
312.9423558412097
 30
0.0
  0
VERTEX
  5
2EA
  8
1
  6
CONTINUOUS
 62
     7
 10
831.3945460292373
 20
313.0000000000001
 30
0.0
  0
SEQEND
  5
551
  8
1
  6
CONTINUOUS
 62
     7
  0
POLYLINE
  5
1B2
  8
1
  6
CONTINUOUS
 62
     7
 66
     1
 10
0.0
 20
0.0
 30
0.0
  0
VERTEX
  5
2EB
  8
1
  6
CONTINUOUS
 62
     7
 10
831.3945460292373
 20
307.0000000000001
 30
0.0
  0
VERTEX
  5
2EC
  8
1
  6
CONTINUOUS
 62
     7
 10
831.4961772659329
 20
307.0576441587904
 30
0.0
  0
VERTEX
  5
2ED
  8
1
  6
CONTINUOUS
 62
     7
 10
831.5939028711979
 20
307.2283614024662
 30
0.0
  0
VERTEX
  5
2EE
  8
1
  6
CONTINUOUS
 62
     7
 10
831.6839673048269
 20
307.5055911630924
 30
0.0
  0
VERTEX
  5
2EF
  8
1
  6
CONTINUOUS
 62
     7
 10
831.7629094411442
 20
307.8786796564404
 30
0.0
  0
VERTEX
  5
2F0
  8
1
  6
CONTINUOUS
 62
     7
 10
831.8276955781226
 20
308.3332893009413
 30
0.0
  0
VERTEX
  5
2F1
  8
1
  6
CONTINUOUS
 62
     7
 10
831.8758360208504
 20
308.8519497029048
 30
0.0
  0
VERTEX
  5
2F2
  8
1
  6
CONTINUOUS
 62
     7
 10
831.905480759111
 20
309.4147290339517
 30
0.0
  0
VERTEX
  5
2F3
  8
1
  6
CONTINUOUS
 62
     7
 10
831.9154905622381
 20
310.0000000000001
 30
0.0
  0
SEQEND
  5
552
  8
1
  6
CONTINUOUS
 62
     7
  0
POLYLINE
  5
1B3
  8
1
  6
CONTINUOUS
 62
     7
 66
     1
 10
0.0
 20
0.0
 30
0.0
  0
VERTEX
  5
2F4
  8
1
  6
CONTINUOUS
 62
     7
 10
478.0845094377617
 20
296.0000000000001
 30
0.0
  0
VERTEX
  5
2F5
  8
1
  6
CONTINUOUS
 62
     7
 10
478.0945192408888
 20
295.4147290339517
 30
0.0
  0
VERTEX
  5
2F6
  8
1
  6
CONTINUOUS
 62
     7
 10
478.1241639791494
 20
294.8519497029048
 30
0.0
  0
VERTEX
  5
2F7
  8
1
  6
CONTINUOUS
 62
     7
 10
478.1723044218772
 20
294.3332893009413
 30
0.0
  0
VERTEX
  5
2F8
  8
1
  6
CONTINUOUS
 62
     7
 10
478.2370905588556
 20
293.8786796564404
 30
0.0
  0
VERTEX
  5
2F9
  8
1
  6
CONTINUOUS
 62
     7
 10
478.316032695173
 20
293.5055911630924
 30
0.0
  0
VERTEX
  5
2FA
  8
1
  6
CONTINUOUS
 62
     7
 10
478.4060971288019
 20
293.2283614024662
 30
0.0
  0
VERTEX
  5
2FB
  8
1
  6
CONTINUOUS
 62
     7
 10
478.5038227340668
 20
293.0576441587904
 30
0.0
  0
VERTEX
  5
2FC
  8
1
  6
CONTINUOUS
 62
     7
 10
478.6054539707625
 20
293.0000000000001
 30
0.0
  0
SEQEND
  5
553
  8
1
  6
CONTINUOUS
 62
     7
  0
POLYLINE
  5
1B4
  8
1
  6
CONTINUOUS
 62
     7
 66
     1
 10
0.0
 20
0.0
 30
0.0
  0
VERTEX
  5
2FD
  8
1
  6
CONTINUOUS
 62
     7
 10
481.2358942474007
 20
296.0000000000001
 30
0.0
  0
VERTEX
  5
2FE
  8
1
  6
CONTINUOUS
 62
     7
 10
481.2459040505278
 20
295.4147290339517
 30
0.0
  0
VERTEX
  5
2FF
  8
1
  6
CONTINUOUS
 62
     7
 10
481.2755487887885
 20
294.8519497029048
 30
0.0
  0
VERTEX
  5
300
  8
1
  6
CONTINUOUS
 62
     7
 10
481.3236892315163
 20
294.3332893009413
 30
0.0
  0
VERTEX
  5
301
  8
1
  6
CONTINUOUS
 62
     7
 10
481.3884753684946
 20
293.8786796564404
 30
0.0
  0
VERTEX
  5
302
  8
1
  6
CONTINUOUS
 62
     7
 10
481.467417504812
 20
293.5055911630924
 30
0.0
  0
VERTEX
  5
303
  8
1
  6
CONTINUOUS
 62
     7
 10
481.557481938441
 20
293.2283614024662
 30
0.0
  0
VERTEX
  5
304
  8
1
  6
CONTINUOUS
 62
     7
 10
481.6552075437059
 20
293.0576441587904
 30
0.0
  0
VERTEX
  5
305
  8
1
  6
CONTINUOUS
 62
     7
 10
481.7568387804016
 20
293.0000000000001
 30
0.0
  0
SEQEND
  5
554
  8
1
  6
CONTINUOUS
 62
     7
  0
POLYLINE
  5
1B5
  8
1
  6
CONTINUOUS
 62
     7
 66
     1
 10
0.0
 20
0.0
 30
0.0
  0
VERTEX
  5
306
  8
1
  6
CONTINUOUS
 62
     7
 10
483.4064964682374
 20
323.7500000000001
 30
0.0
  0
VERTEX
  5
307
  8
1
  6
CONTINUOUS
 62
     7
 10
483.3133345012664
 20
323.697159521109
 30
0.0
  0
VERTEX
  5
308
  8
1
  6
CONTINUOUS
 62
     7
 10
483.2237526964402
 20
323.5406687144061
 30
0.0
  0
VERTEX
  5
309
  8
1
  6
CONTINUOUS
 62
     7
 10
483.1411936322803
 20
323.2865414338321
 30
0.0
  0
VERTEX
  5
30A
  8
1
  6
CONTINUOUS
 62
     7
 10
483.0688300073227
 20
322.9445436482631
 30
0.0
  0
VERTEX
  5
30B
  8
1
  6
CONTINUOUS
 62
     7
 10
483.0094427150925
 20
322.527818140804
 30
0.0
  0
VERTEX
  5
30C
  8
1
  6
CONTINUOUS
 62
     7
 10
482.9653139759254
 20
322.0523794390041
 30
0.0
  0
VERTEX
  5
30D
  8
1
  6
CONTINUOUS
 62
     7
 10
482.9381396325198
 20
321.5364983855444
 30
0.0
  0
VERTEX
  5
30E
  8
1
  6
CONTINUOUS
 62
     7
 10
482.9289639796533
 20
321.0000000000001
 30
0.0
  0
SEQEND
  5
555
  8
1
  6
CONTINUOUS
 62
     7
  0
POLYLINE
  5
1B6
  8
1
  6
CONTINUOUS
 62
     7
 66
     1
 10
0.0
 20
0.0
 30
0.0
  0
VERTEX
  5
30F
  8
1
  6
CONTINUOUS
 62
     7
 10
485.0302351792351
 20
302.6689011017642
 30
0.0
  0
VERTEX
  5
310
  8
1
  6
CONTINUOUS
 62
     7
 10
485.0437728904262
 20
302.5975490669421
 30
0.0
  0
VERTEX
  5
311
  8
1
  6
CONTINUOUS
 62
     7
 10
485.0596123956292
 20
302.5441768714085
 30
0.0
  0
VERTEX
  5
312
  8
1
  6
CONTINUOUS
 62
     7
 10
485.0770460514158
 20
302.5111689636001
 30
0.0
  0
VERTEX
  5
313
  8
1
  6
CONTINUOUS
 62
     7
 10
485.0952949943185
 20
302.5000000000001
 30
0.0
  0
SEQEND
  5
556
  8
1
  6
CONTINUOUS
 62
     7
  0
LINE
  5
1B7
  8
1
  6
CONTINUOUS
 62
     7
 10
485.0952949943185
 20
302.5000000000001
 30
0.0
 11
486.1848673109083
 21
302.5000000000001
 31
0.0
  0
LINE
  5
1B8
  8
1
  6
CONTINUOUS
 62
     7
 10
486.1848673109083
 20
293.0000000000001
 30
0.0
 11
486.1848673109083
 21
302.5000000000001
 31
0.0
  0
LINE
  5
1B9
  8
1
  6
CONTINUOUS
 62
     7
 10
481.2358942474008
 20
296.0000000000001
 30
0.0
 11
481.2358942474008
 21
324.0000000000001
 31
0.0
  0
POLYLINE
  5
1BA
  8
1
  6
CONTINUOUS
 62
     7
 66
     1
 10
0.0
 20
0.0
 30
0.0
  0
VERTEX
  5
314
  8
1
  6
CONTINUOUS
 62
     7
 10
481.7568387804016
 20
327.0000000000001
 30
0.0
  0
VERTEX
  5
315
  8
1
  6
CONTINUOUS
 62
     7
 10
481.6552075437059
 20
326.9423558412097
 30
0.0
  0
VERTEX
  5
316
  8
1
  6
CONTINUOUS
 62
     7
 10
481.557481938441
 20
326.7716385975339
 30
0.0
  0
VERTEX
  5
317
  8
1
  6
CONTINUOUS
 62
     7
 10
481.467417504812
 20
326.4944088369077
 30
0.0
  0
VERTEX
  5
318
  8
1
  6
CONTINUOUS
 62
     7
 10
481.3884753684946
 20
326.1213203435597
 30
0.0
  0
VERTEX
  5
319
  8
1
  6
CONTINUOUS
 62
     7
 10
481.3236892315163
 20
325.6667106990589
 30
0.0
  0
VERTEX
  5
31A
  8
1
  6
CONTINUOUS
 62
     7
 10
481.2755487887885
 20
325.1480502970953
 30
0.0
  0
VERTEX
  5
31B
  8
1
  6
CONTINUOUS
 62
     7
 10
481.2459040505278
 20
324.5852709660484
 30
0.0
  0
VERTEX
  5
31C
  8
1
  6
CONTINUOUS
 62
     7
 10
481.2358942474007
 20
324.0000000000001
 30
0.0
  0
SEQEND
  5
557
  8
1
  6
CONTINUOUS
 62
     7
  0
LINE
  5
1BB
  8
1
  6
CONTINUOUS
 62
     7
 10
486.1848673109083
 20
327.0000000000001
 30
0.0
 11
486.1848673109083
 21
317.5000000000001
 31
0.0
  0
LINE
  5
1BC
  8
1
  6
CONTINUOUS
 62
     7
 10
485.0952949943185
 20
317.5000000000001
 30
0.0
 11
486.1848673109083
 21
317.5000000000001
 31
0.0
  0
POLYLINE
  5
1BD
  8
1
  6
CONTINUOUS
 62
     7
 66
     1
 10
0.0
 20
0.0
 30
0.0
  0
VERTEX
  5
31D
  8
1
  6
CONTINUOUS
 62
     7
 10
485.0952949943185
 20
317.5000000000001
 30
0.0
  0
VERTEX
  5
31E
  8
1
  6
CONTINUOUS
 62
     7
 10
485.0770460514158
 20
317.4888310364
 30
0.0
  0
VERTEX
  5
31F
  8
1
  6
CONTINUOUS
 62
     7
 10
485.0596123956292
 20
317.4558231285916
 30
0.0
  0
VERTEX
  5
320
  8
1
  6
CONTINUOUS
 62
     7
 10
485.0437728904262
 20
317.402450933058
 30
0.0
  0
VERTEX
  5
321
  8
1
  6
CONTINUOUS
 62
     7
 10
485.0302351792351
 20
317.331098898236
 30
0.0
  0
SEQEND
  5
558
  8
1
  6
CONTINUOUS
 62
     7
  0
LINE
  5
1BE
  8
1
  6
CONTINUOUS
 62
     7
 10
484.422210057777
 20
313.3689011017642
 30
0.0
 11
485.0302351792351
 21
317.3310988982359
 31
0.0
  0
POLYLINE
  5
1BF
  8
1
  6
CONTINUOUS
 62
     7
 66
     1
 10
0.0
 20
0.0
 30
0.0
  0
VERTEX
  5
322
  8
1
  6
CONTINUOUS
 62
     7
 10
484.3571502426936
 20
313.2
 30
0.0
  0
VERTEX
  5
323
  8
1
  6
CONTINUOUS
 62
     7
 10
484.3753991855963
 20
313.2111689636001
 30
0.0
  0
VERTEX
  5
324
  8
1
  6
CONTINUOUS
 62
     7
 10
484.3928328413829
 20
313.2441768714085
 30
0.0
  0
VERTEX
  5
325
  8
1
  6
CONTINUOUS
 62
     7
 10
484.4086723465859
 20
313.2975490669421
 30
0.0
  0
VERTEX
  5
326
  8
1
  6
CONTINUOUS
 62
     7
 10
484.422210057777
 20
313.3689011017642
 30
0.0
  0
SEQEND
  5
559
  8
1
  6
CONTINUOUS
 62
     7
  0
LINE
  5
1C0
  8
1
  6
CONTINUOUS
 62
     7
 10
482.6077148509695
 20
313.2
 30
0.0
 11
484.3571502426936
 21
313.2
 31
0.0
  0
POLYLINE
  5
1C1
  8
1
  6
CONTINUOUS
 62
     7
 66
     1
 10
0.0
 20
0.0
 30
0.0
  0
VERTEX
  5
327
  8
1
  6
CONTINUOUS
 62
     7
 10
482.6077148509695
 20
313.2
 30
0.0
  0
VERTEX
  5
328
  8
1
  6
CONTINUOUS
 62
     7
 10
482.4993081984941
 20
313.1385128972904
 30
0.0
  0
VERTEX
  5
329
  8
1
  6
CONTINUOUS
 62
     7
 10
482.3950675528782
 20
312.9564145040362
 30
0.0
  0
VERTEX
  5
32A
  8
1
  6
CONTINUOUS
 62
     7
 10
482.298998823674
 20
312.6607027593682
 30
0.0
  0
VERTEX
  5
32B
  8
1
  6
CONTINUOUS
 62
     7
 10
482.2147938782688
 20
312.262741699797
 30
0.0
  0
VERTEX
  5
32C
  8
1
  6
CONTINUOUS
 62
     7
 10
482.1456886654918
 20
311.7778247456628
 30
0.0
  0
VERTEX
  5
32D
  8
1
  6
CONTINUOUS
 62
     7
 10
482.0943388599155
 20
311.2245869835683
 30
0.0
  0
VERTEX
  5
32E
  8
1
  6
CONTINUOUS
 62
     7
 10
482.0627178057709
 20
310.6242890304517
 30
0.0
  0
VERTEX
  5
32F
  8
1
  6
CONTINUOUS
 62
     7
 10
482.0520406824353
 20
310.0000000000001
 30
0.0
  0
VERTEX
  5
330
  8
1
  6
CONTINUOUS
 62
     7
 10
482.0627178057709
 20
309.3757109695484
 30
0.0
  0
VERTEX
  5
331
  8
1
  6
CONTINUOUS
 62
     7
 10
482.0943388599155
 20
308.7754130164318
 30
0.0
  0
VERTEX
  5
332
  8
1
  6
CONTINUOUS
 62
     7
 10
482.1456886654918
 20
308.2221752543373
 30
0.0
  0
VERTEX
  5
333
  8
1
  6
CONTINUOUS
 62
     7
 10
482.2147938782688
 20
307.7372583002031
 30
0.0
  0
VERTEX
  5
334
  8
1
  6
CONTINUOUS
 62
     7
 10
482.298998823674
 20
307.3392972406319
 30
0.0
  0
VERTEX
  5
335
  8
1
  6
CONTINUOUS
 62
     7
 10
482.3950675528782
 20
307.043585495964
 30
0.0
  0
VERTEX
  5
336
  8
1
  6
CONTINUOUS
 62
     7
 10
482.4993081984941
 20
306.8614871027098
 30
0.0
  0
VERTEX
  5
337
  8
1
  6
CONTINUOUS
 62
     7
 10
482.6077148509695
 20
306.8000000000001
 30
0.0
  0
SEQEND
  5
55A
  8
1
  6
CONTINUOUS
 62
     7
  0
LINE
  5
1C2
  8
1
  6
CONTINUOUS
 62
     7
 10
482.6077148509695
 20
306.8000000000001
 30
0.0
 11
484.3571502426936
 21
306.8000000000001
 31
0.0
  0
POLYLINE
  5
1C3
  8
1
  6
CONTINUOUS
 62
     7
 66
     1
 10
0.0
 20
0.0
 30
0.0
  0
VERTEX
  5
338
  8
1
  6
CONTINUOUS
 62
     7
 10
484.422210057777
 20
306.631098898236
 30
0.0
  0
VERTEX
  5
339
  8
1
  6
CONTINUOUS
 62
     7
 10
484.4086723465859
 20
306.702450933058
 30
0.0
  0
VERTEX
  5
33A
  8
1
  6
CONTINUOUS
 62
     7
 10
484.3928328413829
 20
306.7558231285916
 30
0.0
  0
VERTEX
  5
33B
  8
1
  6
CONTINUOUS
 62
     7
 10
484.3753991855963
 20
306.7888310364
 30
0.0
  0
VERTEX
  5
33C
  8
1
  6
CONTINUOUS
 62
     7
 10
484.3571502426936
 20
306.8000000000001
 30
0.0
  0
SEQEND
  5
55B
  8
1
  6
CONTINUOUS
 62
     7
  0
LINE
  5
1C4
  8
1
  6
CONTINUOUS
 62
     7
 10
484.422210057777
 20
306.6310988982359
 30
0.0
 11
485.0302351792351
 21
302.6689011017642
 31
0.0
  0
POLYLINE
  5
1C5
  8
1
  6
CONTINUOUS
 62
     7
 66
     1
 10
0.0
 20
0.0
 30
0.0
  0
VERTEX
  5
33D
  8
1
  6
CONTINUOUS
 62
     7
 10
482.9289639796533
 20
299.0000000000001
 30
0.0
  0
VERTEX
  5
33E
  8
1
  6
CONTINUOUS
 62
     7
 10
482.9381396325198
 20
298.4635016144557
 30
0.0
  0
VERTEX
  5
33F
  8
1
  6
CONTINUOUS
 62
     7
 10
482.9653139759254
 20
297.947620560996
 30
0.0
  0
VERTEX
  5
340
  8
1
  6
CONTINUOUS
 62
     7
 10
483.0094427150925
 20
297.4721818591962
 30
0.0
  0
VERTEX
  5
341
  8
1
  6
CONTINUOUS
 62
     7
 10
483.0688300073227
 20
297.055456351737
 30
0.0
  0
VERTEX
  5
342
  8
1
  6
CONTINUOUS
 62
     7
 10
483.1411936322803
 20
296.713458566168
 30
0.0
  0
VERTEX
  5
343
  8
1
  6
CONTINUOUS
 62
     7
 10
483.2237526964402
 20
296.459331285594
 30
0.0
  0
VERTEX
  5
344
  8
1
  6
CONTINUOUS
 62
     7
 10
483.3133345012664
 20
296.3028404788911
 30
0.0
  0
VERTEX
  5
345
  8
1
  6
CONTINUOUS
 62
     7
 10
483.4064964682374
 20
296.25
 30
0.0
  0
SEQEND
  5
55C
  8
1
  6
CONTINUOUS
 62
     7
  0
POLYLINE
  5
1C6
  8
1
  6
CONTINUOUS
 62
     7
 66
     1
 10
0.0
 20
0.0
 30
0.0
  0
VERTEX
  5
346
  8
1
  6
CONTINUOUS
 62
     7
 10
478.6054539707625
 20
327.0000000000001
 30
0.0
  0
VERTEX
  5
347
  8
1
  6
CONTINUOUS
 62
     7
 10
478.5038227340668
 20
326.9423558412097
 30
0.0
  0
VERTEX
  5
348
  8
1
  6
CONTINUOUS
 62
     7
 10
478.4060971288019
 20
326.7716385975339
 30
0.0
  0
VERTEX
  5
349
  8
1
  6
CONTINUOUS
 62
     7
 10
478.316032695173
 20
326.4944088369077
 30
0.0
  0
VERTEX
  5
34A
  8
1
  6
CONTINUOUS
 62
     7
 10
478.2370905588556
 20
326.1213203435597
 30
0.0
  0
VERTEX
  5
34B
  8
1
  6
CONTINUOUS
 62
     7
 10
478.1723044218772
 20
325.6667106990589
 30
0.0
  0
VERTEX
  5
34C
  8
1
  6
CONTINUOUS
 62
     7
 10
478.1241639791494
 20
325.1480502970953
 30
0.0
  0
VERTEX
  5
34D
  8
1
  6
CONTINUOUS
 62
     7
 10
478.0945192408888
 20
324.5852709660484
 30
0.0
  0
VERTEX
  5
34E
  8
1
  6
CONTINUOUS
 62
     7
 10
478.0845094377617
 20
324.0000000000001
 30
0.0
  0
SEQEND
  5
55D
  8
1
  6
CONTINUOUS
 62
     7
  0
LINE
  5
1C7
  8
1
  6
CONTINUOUS
 62
     7
 10
478.0845094377617
 20
296.0000000000001
 30
0.0
 11
478.0845094377617
 21
324.0000000000001
 31
0.0
  0
POLYLINE
  5
1C8
  8
1
  6
CONTINUOUS
 62
     7
 66
     1
 10
0.0
 20
0.0
 30
0.0
  0
VERTEX
  5
34F
  8
1
  6
CONTINUOUS
 62
     7
 10
483.4064964682374
 20
301.7500000000001
 30
0.0
  0
VERTEX
  5
350
  8
1
  6
CONTINUOUS
 62
     7
 10
483.3133345012664
 20
301.697159521109
 30
0.0
  0
VERTEX
  5
351
  8
1
  6
CONTINUOUS
 62
     7
 10
483.2237526964402
 20
301.5406687144061
 30
0.0
  0
VERTEX
  5
352
  8
1
  6
CONTINUOUS
 62
     7
 10
483.1411936322803
 20
301.2865414338321
 30
0.0
  0
VERTEX
  5
353
  8
1
  6
CONTINUOUS
 62
     7
 10
483.0688300073227
 20
300.9445436482631
 30
0.0
  0
VERTEX
  5
354
  8
1
  6
CONTINUOUS
 62
     7
 10
483.0094427150925
 20
300.527818140804
 30
0.0
  0
VERTEX
  5
355
  8
1
  6
CONTINUOUS
 62
     7
 10
482.9653139759254
 20
300.0523794390041
 30
0.0
  0
VERTEX
  5
356
  8
1
  6
CONTINUOUS
 62
     7
 10
482.9381396325198
 20
299.5364983855444
 30
0.0
  0
VERTEX
  5
357
  8
1
  6
CONTINUOUS
 62
     7
 10
482.9289639796533
 20
299.0000000000001
 30
0.0
  0
SEQEND
  5
55E
  8
1
  6
CONTINUOUS
 62
     7
  0
POLYLINE
  5
1C9
  8
1
  6
CONTINUOUS
 62
     7
 66
     1
 10
0.0
 20
0.0
 30
0.0
  0
VERTEX
  5
358
  8
1
  6
CONTINUOUS
 62
     7
 10
483.4064964682374
 20
296.25
 30
0.0
  0
VERTEX
  5
359
  8
1
  6
CONTINUOUS
 62
     7
 10
483.4996584352084
 20
296.3028404788911
 30
0.0
  0
VERTEX
  5
35A
  8
1
  6
CONTINUOUS
 62
     7
 10
483.5892402400346
 20
296.459331285594
 30
0.0
  0
VERTEX
  5
35B
  8
1
  6
CONTINUOUS
 62
     7
 10
483.6717993041945
 20
296.713458566168
 30
0.0
  0
VERTEX
  5
35C
  8
1
  6
CONTINUOUS
 62
     7
 10
483.7441629291521
 20
297.055456351737
 30
0.0
  0
VERTEX
  5
35D
  8
1
  6
CONTINUOUS
 62
     7
 10
483.8035502213822
 20
297.4721818591962
 30
0.0
  0
VERTEX
  5
35E
  8
1
  6
CONTINUOUS
 62
     7
 10
483.8476789605494
 20
297.947620560996
 30
0.0
  0
VERTEX
  5
35F
  8
1
  6
CONTINUOUS
 62
     7
 10
483.874853303955
 20
298.4635016144557
 30
0.0
  0
VERTEX
  5
360
  8
1
  6
CONTINUOUS
 62
     7
 10
483.8840289568215
 20
299.0000000000001
 30
0.0
  0
VERTEX
  5
361
  8
1
  6
CONTINUOUS
 62
     7
 10
483.874853303955
 20
299.5364983855444
 30
0.0
  0
VERTEX
  5
362
  8
1
  6
CONTINUOUS
 62
     7
 10
483.8476789605494
 20
300.0523794390041
 30
0.0
  0
VERTEX
  5
363
  8
1
  6
CONTINUOUS
 62
     7
 10
483.8035502213822
 20
300.527818140804
 30
0.0
  0
VERTEX
  5
364
  8
1
  6
CONTINUOUS
 62
     7
 10
483.7441629291521
 20
300.9445436482631
 30
0.0
  0
VERTEX
  5
365
  8
1
  6
CONTINUOUS
 62
     7
 10
483.6717993041945
 20
301.2865414338321
 30
0.0
  0
VERTEX
  5
366
  8
1
  6
CONTINUOUS
 62
     7
 10
483.5892402400345
 20
301.5406687144061
 30
0.0
  0
VERTEX
  5
367
  8
1
  6
CONTINUOUS
 62
     7
 10
483.4996584352084
 20
301.697159521109
 30
0.0
  0
VERTEX
  5
368
  8
1
  6
CONTINUOUS
 62
     7
 10
483.4064964682374
 20
301.7500000000001
 30
0.0
  0
SEQEND
  5
55F
  8
1
  6
CONTINUOUS
 62
     7
  0
POLYLINE
  5
1CA
  8
1
  6
CONTINUOUS
 62
     7
 66
     1
 10
0.0
 20
0.0
 30
0.0
  0
VERTEX
  5
369
  8
1
  6
CONTINUOUS
 62
     7
 10
482.9289639796533
 20
321.0000000000001
 30
0.0
  0
VERTEX
  5
36A
  8
1
  6
CONTINUOUS
 62
     7
 10
482.9381396325198
 20
320.4635016144557
 30
0.0
  0
VERTEX
  5
36B
  8
1
  6
CONTINUOUS
 62
     7
 10
482.9653139759254
 20
319.947620560996
 30
0.0
  0
VERTEX
  5
36C
  8
1
  6
CONTINUOUS
 62
     7
 10
483.0094427150925
 20
319.4721818591962
 30
0.0
  0
VERTEX
  5
36D
  8
1
  6
CONTINUOUS
 62
     7
 10
483.0688300073227
 20
319.055456351737
 30
0.0
  0
VERTEX
  5
36E
  8
1
  6
CONTINUOUS
 62
     7
 10
483.1411936322803
 20
318.713458566168
 30
0.0
  0
VERTEX
  5
36F
  8
1
  6
CONTINUOUS
 62
     7
 10
483.2237526964402
 20
318.459331285594
 30
0.0
  0
VERTEX
  5
370
  8
1
  6
CONTINUOUS
 62
     7
 10
483.3133345012664
 20
318.3028404788911
 30
0.0
  0
VERTEX
  5
371
  8
1
  6
CONTINUOUS
 62
     7
 10
483.4064964682374
 20
318.25
 30
0.0
  0
SEQEND
  5
560
  8
1
  6
CONTINUOUS
 62
     7
  0
POLYLINE
  5
1CB
  8
1
  6
CONTINUOUS
 62
     7
 66
     1
 10
0.0
 20
0.0
 30
0.0
  0
VERTEX
  5
372
  8
1
  6
CONTINUOUS
 62
     7
 10
483.4064964682374
 20
318.25
 30
0.0
  0
VERTEX
  5
373
  8
1
  6
CONTINUOUS
 62
     7
 10
483.4996584352084
 20
318.3028404788911
 30
0.0
  0
VERTEX
  5
374
  8
1
  6
CONTINUOUS
 62
     7
 10
483.5892402400346
 20
318.459331285594
 30
0.0
  0
VERTEX
  5
375
  8
1
  6
CONTINUOUS
 62
     7
 10
483.6717993041945
 20
318.713458566168
 30
0.0
  0
VERTEX
  5
376
  8
1
  6
CONTINUOUS
 62
     7
 10
483.7441629291521
 20
319.055456351737
 30
0.0
  0
VERTEX
  5
377
  8
1
  6
CONTINUOUS
 62
     7
 10
483.8035502213822
 20
319.4721818591962
 30
0.0
  0
VERTEX
  5
378
  8
1
  6
CONTINUOUS
 62
     7
 10
483.8476789605494
 20
319.947620560996
 30
0.0
  0
VERTEX
  5
379
  8
1
  6
CONTINUOUS
 62
     7
 10
483.874853303955
 20
320.4635016144557
 30
0.0
  0
VERTEX
  5
37A
  8
1
  6
CONTINUOUS
 62
     7
 10
483.8840289568215
 20
321.0000000000001
 30
0.0
  0
VERTEX
  5
37B
  8
1
  6
CONTINUOUS
 62
     7
 10
483.874853303955
 20
321.5364983855444
 30
0.0
  0
VERTEX
  5
37C
  8
1
  6
CONTINUOUS
 62
     7
 10
483.8476789605494
 20
322.0523794390041
 30
0.0
  0
VERTEX
  5
37D
  8
1
  6
CONTINUOUS
 62
     7
 10
483.8035502213822
 20
322.527818140804
 30
0.0
  0
VERTEX
  5
37E
  8
1
  6
CONTINUOUS
 62
     7
 10
483.7441629291521
 20
322.9445436482631
 30
0.0
  0
VERTEX
  5
37F
  8
1
  6
CONTINUOUS
 62
     7
 10
483.6717993041945
 20
323.2865414338321
 30
0.0
  0
VERTEX
  5
380
  8
1
  6
CONTINUOUS
 62
     7
 10
483.5892402400346
 20
323.5406687144061
 30
0.0
  0
VERTEX
  5
381
  8
1
  6
CONTINUOUS
 62
     7
 10
483.4996584352084
 20
323.697159521109
 30
0.0
  0
VERTEX
  5
382
  8
1
  6
CONTINUOUS
 62
     7
 10
483.4064964682374
 20
323.7500000000001
 30
0.0
  0
SEQEND
  5
561
  8
1
  6
CONTINUOUS
 62
     7
  0
LINE
  5
1CC
  8
1
  6
CONTINUOUS
 62
     7
 10
501.6848673109082
 20
299.5000000000001
 30
0.0
 11
498.6848673109084
 21
299.5000000000001
 31
0.0
  0
LINE
  5
1CD
  8
1
  6
CONTINUOUS
 62
     7
 10
501.6848673109082
 20
320.5000000000001
 30
0.0
 11
501.6848673109082
 21
299.5000000000001
 31
0.0
  0
LINE
  5
1CE
  8
1
  6
CONTINUOUS
 62
     7
 10
501.6848673109082
 20
320.5000000000001
 30
0.0
 11
498.6848673109084
 21
320.5000000000001
 31
0.0
  0
LINE
  5
1CF
  8
1
  6
CONTINUOUS
 62
     7
 10
498.6848673109084
 20
320.5000000000001
 30
0.0
 11
498.6848673109084
 21
299.5000000000001
 31
0.0
  0
LINE
  5
1D0
  8
1
  6
CONTINUOUS
 62
     7
 10
493.5093055901141
 20
320.2466643547022
 30
0.0
 11
486.1848673109083
 21
317.5000000000001
 31
0.0
  0
ARC
  5
1D1
  8
1
  6
CONTINUOUS
 62
     7
 10
503.1848673109083
 20
324.0000000000001
 30
0.0
 40
3.000000000000003
 50
0.0
 51
90.0
  0
LINE
  5
1D2
  8
1
  6
CONTINUOUS
 62
     7
 10
506.1848673109083
 20
296.0000000000001
 30
0.0
 11
506.1848673109083
 21
300.0000000000001
 31
0.0
  0
LINE
  5
1D3
  8
1
  6
CONTINUOUS
 62
     7
 10
506.1848673109083
 20
320.0000000000001
 30
0.0
 11
506.1848673109083
 21
324.0000000000001
 31
0.0
  0
ARC
  5
1D4
  8
1
  6
CONTINUOUS
 62
     7
 10
503.1848673109083
 20
296.0000000000001
 30
0.0
 40
3.000000000000003
 50
270.0
 51
0.0
  0
LINE
  5
1D5
  8
1
  6
CONTINUOUS
 62
     7
 10
493.5093055901141
 20
299.7533356452979
 30
0.0
 11
486.1848673109083
 21
302.5000000000001
 31
0.0
  0
ARC
  5
1D6
  8
1
  6
CONTINUOUS
 62
     7
 10
493.6848673109083
 20
300.2215002340824
 30
0.0
 40
0.5000000000000004
 50
249.4439547804168
 51
0.0000000000003979
  0
LINE
  5
1D7
  8
1
  6
CONTINUOUS
 62
     7
 10
494.1848673109083
 20
319.7784997659177
 30
0.0
 11
494.1848673109083
 21
300.2215002340824
 31
0.0
  0
ARC
  5
1D8
  8
1
  6
CONTINUOUS
 62
     7
 10
493.6848673109083
 20
319.7784997659177
 30
0.0
 40
0.5000000000000004
 50
359.9999999999996
 51
110.5560452195833
  0
LINE
  5
1D9
  8
1
  6
CONTINUOUS
 62
     7
 10
801.5921627871558
 20
301.2236067977501
 30
0.0
 11
801.5921627871558
 21
300.7763932022501
 31
0.0
  0
POLYLINE
  5
1DA
  8
1
  6
CONTINUOUS
 62
     7
 66
     1
 10
0.0
 20
0.0
 30
0.0
  0
VERTEX
  5
383
  8
1
  6
CONTINUOUS
 62
     7
 10
801.5921627871556
 20
301.22360679775
 30
0.0
  0
VERTEX
  5
384
  8
1
  6
CONTINUOUS
 62
     7
 10
801.0478009592034
 20
302.1996474140368
 30
0.0
  0
VERTEX
  5
385
  8
1
  6
CONTINUOUS
 62
     7
 10
800.3367947686471
 20
302.7982709416962
 30
0.0
  0
VERTEX
  5
386
  8
1
  6
CONTINUOUS
 62
     7
 10
799.4822781847234
 20
303.0000000000001
 30
0.0
  0
VERTEX
  5
387
  8
1
  6
CONTINUOUS
 62
     7
 10
798.5120545664296
 20
302.7982709416963
 30
0.0
  0
VERTEX
  5
388
  8
1
  6
CONTINUOUS
 62
     7
 10
797.4576920261625
 20
302.1996474140369
 30
0.0
  0
VERTEX
  5
389
  8
1
  6
CONTINUOUS
 62
     7
 10
796.3534962997865
 20
301.2236067977501
 30
0.0
  0
SEQEND
  5
562
  8
1
  6
CONTINUOUS
 62
     7
  0
POLYLINE
  5
1DB
  8
1
  6
CONTINUOUS
 62
     7
 66
     1
 10
0.0
 20
0.0
 30
0.0
  0
VERTEX
  5
38A
  8
1
  6
CONTINUOUS
 62
     7
 10
796.3534962997865
 20
300.7763932022501
 30
0.0
  0
VERTEX
  5
38B
  8
1
  6
CONTINUOUS
 62
     7
 10
796.3411593200209
 20
300.7896586576827
 30
0.0
  0
VERTEX
  5
38C
  8
1
  6
CONTINUOUS
 62
     7
 10
796.3293403862949
 20
300.8034459703381
 30
0.0
  0
VERTEX
  5
38D
  8
1
  6
CONTINUOUS
 62
     7
 10
796.3181114980591
 20
300.817737967056
 30
0.0
  0
VERTEX
  5
38E
  8
1
  6
CONTINUOUS
 62
     7
 10
796.3075446547647
 20
300.8325174746755
 30
0.0
  0
VERTEX
  5
38F
  8
1
  6
CONTINUOUS
 62
     7
 10
796.2977118558626
 20
300.8477673200362
 30
0.0
  0
VERTEX
  5
390
  8
1
  6
CONTINUOUS
 62
     7
 10
796.2886851008037
 20
300.8634703299774
 30
0.0
  0
VERTEX
  5
391
  8
1
  6
CONTINUOUS
 62
     7
 10
796.2825048659748
 20
300.8754942901268
 30
0.0
  0
VERTEX
  5
392
  8
1
  6
CONTINUOUS
 62
     7
 10
796.2768245788396
 20
300.8877769346084
 30
0.0
  0
VERTEX
  5
393
  8
1
  6
CONTINUOUS
 62
     7
 10
796.2716780252064
 20
300.9002917220104
 30
0.0
  0
VERTEX
  5
394
  8
1
  6
CONTINUOUS
 62
     7
 10
796.2670989908835
 20
300.913012110921
 30
0.0
  0
VERTEX
  5
395
  8
1
  6
CONTINUOUS
 62
     7
 10
796.2629863917485
 20
300.9263845250221
 30
0.0
  0
VERTEX
  5
396
  8
1
  6
CONTINUOUS
 62
     7
 10
796.2595290738121
 20
300.9399596824511
 30
0.0
  0
VERTEX
  5
397
  8
1
  6
CONTINUOUS
 62
     7
 10
796.2567537385487
 20
300.9536895330366
 30
0.0
  0
VERTEX
  5
398
  8
1
  6
CONTINUOUS
 62
     7
 10
796.2546870874329
 20
300.9675260266072
 30
0.0
  0
VERTEX
  5
399
  8
1
  6
CONTINUOUS
 62
     7
 10
796.2534726038331
 20
300.9797413541354
 30
0.0
  0
VERTEX
  5
39A
  8
1
  6
CONTINUOUS
 62
     7
 10
796.2528204259406
 20
300.992012813851
 30
0.0
  0
VERTEX
  5
39B
  8
1
  6
CONTINUOUS
 62
     7
 10
796.2527332640656
 20
301.0043012004466
 30
0.0
  0
VERTEX
  5
39C
  8
1
  6
CONTINUOUS
 62
     7
 10
796.2532138285175
 20
301.0165673086153
 30
0.0
  0
VERTEX
  5
39D
  8
1
  6
CONTINUOUS
 62
     7
 10
796.2543117669758
 20
301.0292356809451
 30
0.0
  0
VERTEX
  5
39E
  8
1
  6
CONTINUOUS
 62
     7
 10
796.2560100473626
 20
301.0418516334813
 30
0.0
  0
VERTEX
  5
39F
  8
1
  6
CONTINUOUS
 62
     7
 10
796.2582937707518
 20
301.0543753218136
 30
0.0
  0
VERTEX
  5
3A0
  8
1
  6
CONTINUOUS
 62
     7
 10
796.2611480382177
 20
301.0667669015317
 30
0.0
  0
VERTEX
  5
3A1
  8
1
  6
CONTINUOUS
 62
     7
 10
796.2652421444943
 20
301.0812137603518
 30
0.0
  0
VERTEX
  5
3A2
  8
1
  6
CONTINUOUS
 62
     7
 10
796.2700930142415
 20
301.0954584339611
 30
0.0
  0
VERTEX
  5
3A3
  8
1
  6
CONTINUOUS
 62
     7
 10
796.2756551243289
 20
301.109463077735
 30
0.0
  0
VERTEX
  5
3A4
  8
1
  6
CONTINUOUS
 62
     7
 10
796.2818829516261
 20
301.1231898470489
 30
0.0
  0
VERTEX
  5
3A5
  8
1
  6
CONTINUOUS
 62
     7
 10
796.2887309730029
 20
301.1366008972783
 30
0.0
  0
VERTEX
  5
3A6
  8
1
  6
CONTINUOUS
 62
     7
 10
796.2961536653287
 20
301.1496583837986
 30
0.0
  0
VERTEX
  5
3A7
  8
1
  6
CONTINUOUS
 62
     7
 10
796.3061854497508
 20
301.1654805756765
 30
0.0
  0
VERTEX
  5
3A8
  8
1
  6
CONTINUOUS
 62
     7
 10
796.3170130961513
 20
301.1808019197448
 30
0.0
  0
VERTEX
  5
3A9
  8
1
  6
CONTINUOUS
 62
     7
 10
796.3285591137866
 20
301.1956070092693
 30
0.0
  0
VERTEX
  5
3AA
  8
1
  6
CONTINUOUS
 62
     7
 10
796.3407460119129
 20
301.2098804375158
 30
0.0
  0
VERTEX
  5
3AB
  8
1
  6
CONTINUOUS
 62
     7
 10
796.3534962997865
 20
301.2236067977501
 30
0.0
  0
SEQEND
  5
563
  8
1
  6
CONTINUOUS
 62
     7
  0
POLYLINE
  5
1DC
  8
1
  6
CONTINUOUS
 62
     7
 66
     1
 10
0.0
 20
0.0
 30
0.0
  0
VERTEX
  5
3AC
  8
1
  6
CONTINUOUS
 62
     7
 10
796.3534962997865
 20
300.77639320225
 30
0.0
  0
VERTEX
  5
3AD
  8
1
  6
CONTINUOUS
 62
     7
 10
797.4576920261625
 20
299.8003525859632
 30
0.0
  0
VERTEX
  5
3AE
  8
1
  6
CONTINUOUS
 62
     7
 10
798.5120545664296
 20
299.2017290583039
 30
0.0
  0
VERTEX
  5
3AF
  8
1
  6
CONTINUOUS
 62
     7
 10
799.4822781847234
 20
299.0000000000001
 30
0.0
  0
VERTEX
  5
3B0
  8
1
  6
CONTINUOUS
 62
     7
 10
800.3367947686471
 20
299.201729058304
 30
0.0
  0
VERTEX
  5
3B1
  8
1
  6
CONTINUOUS
 62
     7
 10
801.0478009592034
 20
299.8003525859633
 30
0.0
  0
VERTEX
  5
3B2
  8
1
  6
CONTINUOUS
 62
     7
 10
801.5921627871556
 20
300.7763932022501
 30
0.0
  0
SEQEND
  5
564
  8
1
  6
CONTINUOUS
 62
     7
  0
LINE
  5
1DD
  8
1
  6
CONTINUOUS
 62
     7
 10
792.826104279347
 20
312.7
 30
0.0
 11
792.826104279347
 21
307.3000000000001
 31
0.0
  0
LINE
  5
1DE
  8
1
  6
CONTINUOUS
 62
     7
 10
801.5921627871558
 20
319.22360679775
 30
0.0
 11
801.5921627871558
 21
318.7763932022501
 31
0.0
  0
POLYLINE
  5
1DF
  8
1
  6
CONTINUOUS
 62
     7
 66
     1
 10
0.0
 20
0.0
 30
0.0
  0
VERTEX
  5
3B3
  8
1
  6
CONTINUOUS
 62
     7
 10
801.5921627871556
 20
319.2236067977499
 30
0.0
  0
VERTEX
  5
3B4
  8
1
  6
CONTINUOUS
 62
     7
 10
801.0478009592034
 20
320.1996474140367
 30
0.0
  0
VERTEX
  5
3B5
  8
1
  6
CONTINUOUS
 62
     7
 10
800.336794768647
 20
320.7982709416961
 30
0.0
  0
VERTEX
  5
3B6
  8
1
  6
CONTINUOUS
 62
     7
 10
799.4822781847234
 20
321.0
 30
0.0
  0
VERTEX
  5
3B7
  8
1
  6
CONTINUOUS
 62
     7
 10
798.5120545664296
 20
320.7982709416962
 30
0.0
  0
VERTEX
  5
3B8
  8
1
  6
CONTINUOUS
 62
     7
 10
797.4576920261625
 20
320.1996474140368
 30
0.0
  0
VERTEX
  5
3B9
  8
1
  6
CONTINUOUS
 62
     7
 10
796.3534962997865
 20
319.22360679775
 30
0.0
  0
SEQEND
  5
565
  8
1
  6
CONTINUOUS
 62
     7
  0
POLYLINE
  5
1E0
  8
1
  6
CONTINUOUS
 62
     7
 66
     1
 10
0.0
 20
0.0
 30
0.0
  0
VERTEX
  5
3BA
  8
1
  6
CONTINUOUS
 62
     7
 10
796.3534962997865
 20
318.7763932022501
 30
0.0
  0
VERTEX
  5
3BB
  8
1
  6
CONTINUOUS
 62
     7
 10
796.3411593200209
 20
318.7896586576827
 30
0.0
  0
VERTEX
  5
3BC
  8
1
  6
CONTINUOUS
 62
     7
 10
796.3293403862949
 20
318.8034459703381
 30
0.0
  0
VERTEX
  5
3BD
  8
1
  6
CONTINUOUS
 62
     7
 10
796.3181114980591
 20
318.817737967056
 30
0.0
  0
VERTEX
  5
3BE
  8
1
  6
CONTINUOUS
 62
     7
 10
796.3075446547647
 20
318.8325174746756
 30
0.0
  0
VERTEX
  5
3BF
  8
1
  6
CONTINUOUS
 62
     7
 10
796.2977118558626
 20
318.8477673200362
 30
0.0
  0
VERTEX
  5
3C0
  8
1
  6
CONTINUOUS
 62
     7
 10
796.2886851008037
 20
318.8634703299774
 30
0.0
  0
VERTEX
  5
3C1
  8
1
  6
CONTINUOUS
 62
     7
 10
796.2825048659748
 20
318.8754942901268
 30
0.0
  0
VERTEX
  5
3C2
  8
1
  6
CONTINUOUS
 62
     7
 10
796.2768245788396
 20
318.8877769346084
 30
0.0
  0
VERTEX
  5
3C3
  8
1
  6
CONTINUOUS
 62
     7
 10
796.2716780252064
 20
318.9002917220104
 30
0.0
  0
VERTEX
  5
3C4
  8
1
  6
CONTINUOUS
 62
     7
 10
796.2670989908835
 20
318.9130121109209
 30
0.0
  0
VERTEX
  5
3C5
  8
1
  6
CONTINUOUS
 62
     7
 10
796.2629863917485
 20
318.926384525022
 30
0.0
  0
VERTEX
  5
3C6
  8
1
  6
CONTINUOUS
 62
     7
 10
796.2595290738121
 20
318.9399596824511
 30
0.0
  0
VERTEX
  5
3C7
  8
1
  6
CONTINUOUS
 62
     7
 10
796.2567537385487
 20
318.9536895330366
 30
0.0
  0
VERTEX
  5
3C8
  8
1
  6
CONTINUOUS
 62
     7
 10
796.2546870874329
 20
318.9675260266072
 30
0.0
  0
VERTEX
  5
3C9
  8
1
  6
CONTINUOUS
 62
     7
 10
796.2534726038332
 20
318.9797413541354
 30
0.0
  0
VERTEX
  5
3CA
  8
1
  6
CONTINUOUS
 62
     7
 10
796.2528204259406
 20
318.9920128138509
 30
0.0
  0
VERTEX
  5
3CB
  8
1
  6
CONTINUOUS
 62
     7
 10
796.2527332640656
 20
319.0043012004466
 30
0.0
  0
VERTEX
  5
3CC
  8
1
  6
CONTINUOUS
 62
     7
 10
796.2532138285173
 20
319.0165673086153
 30
0.0
  0
VERTEX
  5
3CD
  8
1
  6
CONTINUOUS
 62
     7
 10
796.2543117669758
 20
319.0292356809451
 30
0.0
  0
VERTEX
  5
3CE
  8
1
  6
CONTINUOUS
 62
     7
 10
796.2560100473626
 20
319.0418516334813
 30
0.0
  0
VERTEX
  5
3CF
  8
1
  6
CONTINUOUS
 62
     7
 10
796.2582937707518
 20
319.0543753218136
 30
0.0
  0
VERTEX
  5
3D0
  8
1
  6
CONTINUOUS
 62
     7
 10
796.2611480382177
 20
319.0667669015317
 30
0.0
  0
VERTEX
  5
3D1
  8
1
  6
CONTINUOUS
 62
     7
 10
796.2652421444943
 20
319.0812137603519
 30
0.0
  0
VERTEX
  5
3D2
  8
1
  6
CONTINUOUS
 62
     7
 10
796.2700930142415
 20
319.0954584339611
 30
0.0
  0
VERTEX
  5
3D3
  8
1
  6
CONTINUOUS
 62
     7
 10
796.2756551243289
 20
319.109463077735
 30
0.0
  0
VERTEX
  5
3D4
  8
1
  6
CONTINUOUS
 62
     7
 10
796.2818829516261
 20
319.1231898470488
 30
0.0
  0
VERTEX
  5
3D5
  8
1
  6
CONTINUOUS
 62
     7
 10
796.2887309730029
 20
319.1366008972782
 30
0.0
  0
VERTEX
  5
3D6
  8
1
  6
CONTINUOUS
 62
     7
 10
796.2961536653287
 20
319.1496583837987
 30
0.0
  0
VERTEX
  5
3D7
  8
1
  6
CONTINUOUS
 62
     7
 10
796.3061854497508
 20
319.1654805756764
 30
0.0
  0
VERTEX
  5
3D8
  8
1
  6
CONTINUOUS
 62
     7
 10
796.3170130961513
 20
319.1808019197447
 30
0.0
  0
VERTEX
  5
3D9
  8
1
  6
CONTINUOUS
 62
     7
 10
796.3285591137866
 20
319.1956070092692
 30
0.0
  0
VERTEX
  5
3DA
  8
1
  6
CONTINUOUS
 62
     7
 10
796.3407460119129
 20
319.2098804375157
 30
0.0
  0
VERTEX
  5
3DB
  8
1
  6
CONTINUOUS
 62
     7
 10
796.3534962997865
 20
319.22360679775
 30
0.0
  0
SEQEND
  5
566
  8
1
  6
CONTINUOUS
 62
     7
  0
POLYLINE
  5
1E1
  8
1
  6
CONTINUOUS
 62
     7
 66
     1
 10
0.0
 20
0.0
 30
0.0
  0
VERTEX
  5
3DC
  8
1
  6
CONTINUOUS
 62
     7
 10
796.3534962997865
 20
318.7763932022501
 30
0.0
  0
VERTEX
  5
3DD
  8
1
  6
CONTINUOUS
 62
     7
 10
797.4576920261625
 20
317.8003525859633
 30
0.0
  0
VERTEX
  5
3DE
  8
1
  6
CONTINUOUS
 62
     7
 10
798.5120545664296
 20
317.201729058304
 30
0.0
  0
VERTEX
  5
3DF
  8
1
  6
CONTINUOUS
 62
     7
 10
799.4822781847234
 20
317.0000000000001
 30
0.0
  0
VERTEX
  5
3E0
  8
1
  6
CONTINUOUS
 62
     7
 10
800.3367947686471
 20
317.201729058304
 30
0.0
  0
VERTEX
  5
3E1
  8
1
  6
CONTINUOUS
 62
     7
 10
801.0478009592034
 20
317.8003525859634
 30
0.0
  0
VERTEX
  5
3E2
  8
1
  6
CONTINUOUS
 62
     7
 10
801.5921627871556
 20
318.7763932022502
 30
0.0
  0
SEQEND
  5
567
  8
1
  6
CONTINUOUS
 62
     7
  0
POLYLINE
  5
1E2
  8
1
  6
CONTINUOUS
 62
     7
 66
     1
 10
0.0
 20
0.0
 30
0.0
  0
VERTEX
  5
3E3
  8
1
  6
CONTINUOUS
 62
     7
 10
792.826104279347
 20
312.7
 30
0.0
  0
VERTEX
  5
3E4
  8
1
  6
CONTINUOUS
 62
     7
 10
792.8177840616983
 20
312.7975451610081
 30
0.0
  0
VERTEX
  5
3E5
  8
1
  6
CONTINUOUS
 62
     7
 10
792.7931431500504
 20
312.8913417161826
 30
0.0
  0
VERTEX
  5
3E6
  8
1
  6
CONTINUOUS
 62
     7
 10
792.7531284808191
 20
312.9777851165098
 30
0.0
  0
VERTEX
  5
3E7
  8
1
  6
CONTINUOUS
 62
     7
 10
792.6992777953026
 20
313.0535533905933
 30
0.0
  0
VERTEX
  5
3E8
  8
1
  6
CONTINUOUS
 62
     7
 10
792.6336605451454
 20
313.1157348061513
 30
0.0
  0
VERTEX
  5
3E9
  8
1
  6
CONTINUOUS
 62
     7
 10
792.5587983644725
 20
313.1619397662557
 30
0.0
  0
VERTEX
  5
3EA
  8
1
  6
CONTINUOUS
 62
     7
 10
792.4775681649039
 20
313.1903926402017
 30
0.0
  0
VERTEX
  5
3EB
  8
1
  6
CONTINUOUS
 62
     7
 10
792.3930915774547
 20
313.2
 30
0.0
  0
SEQEND
  5
568
  8
1
  6
CONTINUOUS
 62
     7
  0
LINE
  5
1E3
  8
1
  6
CONTINUOUS
 62
     7
 10
792.3930915774548
 20
306.8000000000001
 30
0.0
 11
791.8680222448376
 21
306.8000000000001
 31
0.0
  0
LINE
  5
1E4
  8
1
  6
CONTINUOUS
 62
     7
 10
780.8347017914706
 20
306.8000000000001
 30
0.0
 11
776.804634309335
 21
306.8000000000001
 31
0.0
  0
POLYLINE
  5
1E5
  8
1
  6
CONTINUOUS
 62
     7
 66
     1
 10
0.0
 20
0.0
 30
0.0
  0
VERTEX
  5
3EC
  8
1
  6
CONTINUOUS
 62
     7
 10
792.3930915774547
 20
306.8000000000001
 30
0.0
  0
VERTEX
  5
3ED
  8
1
  6
CONTINUOUS
 62
     7
 10
792.4775681649039
 20
306.8096073597985
 30
0.0
  0
VERTEX
  5
3EE
  8
1
  6
CONTINUOUS
 62
     7
 10
792.5587983644725
 20
306.8380602337444
 30
0.0
  0
VERTEX
  5
3EF
  8
1
  6
CONTINUOUS
 62
     7
 10
792.6336605451454
 20
306.8842651938488
 30
0.0
  0
VERTEX
  5
3F0
  8
1
  6
CONTINUOUS
 62
     7
 10
792.6992777953026
 20
306.9464466094068
 30
0.0
  0
VERTEX
  5
3F1
  8
1
  6
CONTINUOUS
 62
     7
 10
792.7531284808191
 20
307.0222148834903
 30
0.0
  0
VERTEX
  5
3F2
  8
1
  6
CONTINUOUS
 62
     7
 10
792.7931431500504
 20
307.1086582838175
 30
0.0
  0
VERTEX
  5
3F3
  8
1
  6
CONTINUOUS
 62
     7
 10
792.8177840616983
 20
307.202454838992
 30
0.0
  0
VERTEX
  5
3F4
  8
1
  6
CONTINUOUS
 62
     7
 10
792.826104279347
 20
307.3000000000001
 30
0.0
  0
SEQEND
  5
569
  8
1
  6
CONTINUOUS
 62
     7
  0
POLYLINE
  5
1E6
  8
1
  6
CONTINUOUS
 62
     7
 66
     1
 10
0.0
 20
0.0
 30
0.0
  0
VERTEX
  5
3F5
  8
1
  6
CONTINUOUS
 62
     7
 10
775.9386089055504
 20
298.0000000000001
 30
0.0
  0
VERTEX
  5
3F6
  8
1
  6
CONTINUOUS
 62
     7
 10
776.0218110820374
 20
297.0245483899194
 30
0.0
  0
VERTEX
  5
3F7
  8
1
  6
CONTINUOUS
 62
     7
 10
776.2682201985162
 20
296.0865828381746
 30
0.0
  0
VERTEX
  5
3F8
  8
1
  6
CONTINUOUS
 62
     7
 10
776.6683668908286
 20
295.222148834902
 30
0.0
  0
VERTEX
  5
3F9
  8
1
  6
CONTINUOUS
 62
     7
 10
777.2068737459936
 20
294.4644660940673
 30
0.0
  0
VERTEX
  5
3FA
  8
1
  6
CONTINUOUS
 62
     7
 10
777.8630462475655
 20
293.8426519384873
 30
0.0
  0
VERTEX
  5
3FB
  8
1
  6
CONTINUOUS
 62
     7
 10
778.6116680542947
 20
293.3806023374436
 30
0.0
  0
VERTEX
  5
3FC
  8
1
  6
CONTINUOUS
 62
     7
 10
779.4239700499803
 20
293.0960735979839
 30
0.0
  0
VERTEX
  5
3FD
  8
1
  6
CONTINUOUS
 62
     7
 10
780.2687359244726
 20
293.0000000000001
 30
0.0
  0
SEQEND
  5
56A
  8
1
  6
CONTINUOUS
 62
     7
  0
LINE
  5
1E7
  8
1
  6
CONTINUOUS
 62
     7
 10
775.9386089055504
 20
298.0000000000001
 30
0.0
 11
775.9386089055504
 21
305.8000000000001
 31
0.0
  0
POLYLINE
  5
1E8
  8
1
  6
CONTINUOUS
 62
     7
 66
     1
 10
0.0
 20
0.0
 30
0.0
  0
VERTEX
  5
3FE
  8
1
  6
CONTINUOUS
 62
     7
 10
776.8046343093348
 20
306.8000000000001
 30
0.0
  0
VERTEX
  5
3FF
  8
1
  6
CONTINUOUS
 62
     7
 10
776.6356811344364
 20
306.7807852804033
 30
0.0
  0
VERTEX
  5
400
  8
1
  6
CONTINUOUS
 62
     7
 10
776.4732207352993
 20
306.7238795325113
 30
0.0
  0
VERTEX
  5
401
  8
1
  6
CONTINUOUS
 62
     7
 10
776.3234963739534
 20
306.6314696123025
 30
0.0
  0
VERTEX
  5
402
  8
1
  6
CONTINUOUS
 62
     7
 10
776.192261873639
 20
306.5071067811865
 30
0.0
  0
VERTEX
  5
403
  8
1
  6
CONTINUOUS
 62
     7
 10
776.084560502606
 20
306.3555702330195
 30
0.0
  0
VERTEX
  5
404
  8
1
  6
CONTINUOUS
 62
     7
 10
776.0045311641436
 20
306.182683432365
 30
0.0
  0
VERTEX
  5
405
  8
1
  6
CONTINUOUS
 62
     7
 10
775.9552493408478
 20
305.995090322016
 30
0.0
  0
VERTEX
  5
406
  8
1
  6
CONTINUOUS
 62
     7
 10
775.9386089055505
 20
305.7999999999998
 30
0.0
  0
SEQEND
  5
56B
  8
1
  6
CONTINUOUS
 62
     7
  0
LINE
  5
1E9
  8
1
  6
CONTINUOUS
 62
     7
 10
775.9386089055504
 20
322.0000000000001
 30
0.0
 11
775.9386089055504
 21
314.2
 31
0.0
  0
POLYLINE
  5
1EA
  8
1
  6
CONTINUOUS
 62
     7
 66
     1
 10
0.0
 20
0.0
 30
0.0
  0
VERTEX
  5
407
  8
1
  6
CONTINUOUS
 62
     7
 10
780.2687359244726
 20
327.0000000000001
 30
0.0
  0
VERTEX
  5
408
  8
1
  6
CONTINUOUS
 62
     7
 10
779.4239700499803
 20
326.9039264020162
 30
0.0
  0
VERTEX
  5
409
  8
1
  6
CONTINUOUS
 62
     7
 10
778.6116680542947
 20
326.6193976625565
 30
0.0
  0
VERTEX
  5
40A
  8
1
  6
CONTINUOUS
 62
     7
 10
777.8630462475655
 20
326.1573480615128
 30
0.0
  0
VERTEX
  5
40B
  8
1
  6
CONTINUOUS
 62
     7
 10
777.2068737459936
 20
325.5355339059328
 30
0.0
  0
VERTEX
  5
40C
  8
1
  6
CONTINUOUS
 62
     7
 10
776.6683668908286
 20
324.7778511650981
 30
0.0
  0
VERTEX
  5
40D
  8
1
  6
CONTINUOUS
 62
     7
 10
776.2682201985162
 20
323.9134171618255
 30
0.0
  0
VERTEX
  5
40E
  8
1
  6
CONTINUOUS
 62
     7
 10
776.0218110820374
 20
322.9754516100807
 30
0.0
  0
VERTEX
  5
40F
  8
1
  6
CONTINUOUS
 62
     7
 10
775.9386089055504
 20
322.0000000000001
 30
0.0
  0
SEQEND
  5
56C
  8
1
  6
CONTINUOUS
 62
     7
  0
LINE
  5
1EB
  8
1
  6
CONTINUOUS
 62
     7
 10
792.3930915774548
 20
313.2
 30
0.0
 11
791.8680222448376
 21
313.2
 31
0.0
  0
LINE
  5
1EC
  8
1
  6
CONTINUOUS
 62
     7
 10
780.8347017914706
 20
313.2
 30
0.0
 11
776.804634309335
 21
313.2
 31
0.0
  0
POLYLINE
  5
1ED
  8
1
  6
CONTINUOUS
 62
     7
 66
     1
 10
0.0
 20
0.0
 30
0.0
  0
VERTEX
  5
410
  8
1
  6
CONTINUOUS
 62
     7
 10
775.9386089055505
 20
314.2000000000003
 30
0.0
  0
VERTEX
  5
411
  8
1
  6
CONTINUOUS
 62
     7
 10
775.9552493408478
 20
314.0049096779841
 30
0.0
  0
VERTEX
  5
412
  8
1
  6
CONTINUOUS
 62
     7
 10
776.0045311641436
 20
313.8173165676351
 30
0.0
  0
VERTEX
  5
413
  8
1
  6
CONTINUOUS
 62
     7
 10
776.084560502606
 20
313.6444297669806
 30
0.0
  0
VERTEX
  5
414
  8
1
  6
CONTINUOUS
 62
     7
 10
776.192261873639
 20
313.4928932188136
 30
0.0
  0
VERTEX
  5
415
  8
1
  6
CONTINUOUS
 62
     7
 10
776.3234963739534
 20
313.3685303876976
 30
0.0
  0
VERTEX
  5
416
  8
1
  6
CONTINUOUS
 62
     7
 10
776.4732207352993
 20
313.2761204674888
 30
0.0
  0
VERTEX
  5
417
  8
1
  6
CONTINUOUS
 62
     7
 10
776.6356811344364
 20
313.2192147195968
 30
0.0
  0
VERTEX
  5
418
  8
1
  6
CONTINUOUS
 62
     7
 10
776.8046343093348
 20
313.2
 30
0.0
  0
SEQEND
  5
56D
  8
1
  6
CONTINUOUS
 62
     7
  0
LINE
  5
1EE
  8
1
  6
CONTINUOUS
 62
     7
 10
779.0740527322437
 20
313.2
 30
0.0
 11
779.0740527322437
 21
306.8000000000001
 31
0.0
  0
ARC
  5
1EF
  8
1
  6
CONTINUOUS
 62
     7
 10
777.5740527322438
 20
324.0000000000001
 30
0.0
 40
3.000000000000003
 50
90.0
 51
180.0
  0
LINE
  5
1F0
  8
1
  6
CONTINUOUS
 62
     7
 10
774.5740527322438
 20
296.0000000000001
 30
0.0
 11
774.5740527322438
 21
300.0000000000001
 31
0.0
  0
LINE
  5
1F1
  8
1
  6
CONTINUOUS
 62
     7
 10
774.5740527322438
 20
320.0000000000001
 30
0.0
 11
774.5740527322438
 21
324.0000000000001
 31
0.0
  0
ARC
  5
1F2
  8
1
  6
CONTINUOUS
 62
     7
 10
777.5740527322438
 20
296.0000000000001
 30
0.0
 40
3.000000000000003
 50
180.0
 51
270.0
  0
LINE
  5
1F3
  8
1
  6
CONTINUOUS
 62
     7
 10
803.4098568748116
 20
303.0000000000001
 30
0.0
 11
804.6901069537274
 21
303.0000000000001
 31
0.0
  0
LINE
  5
1F4
  8
1
  6
CONTINUOUS
 62
     7
 10
804.6901069537274
 20
317.0000000000001
 30
0.0
 11
803.4098568748116
 21
317.0000000000001
 31
0.0
  0
LINE
  5
1F5
  8
1
  6
CONTINUOUS
 62
     7
 10
809.8793128149822
 20
314.7611090819858
 30
0.0
 11
809.7499740831508
 21
315.0000000000001
 31
0.0
  0
LINE
  5
1F6
  8
1
  6
CONTINUOUS
 62
     7
 10
809.7499740831508
 20
305.0000000000001
 30
0.0
 11
809.8793128149822
 21
305.2388909180143
 31
0.0
  0
LINE
  5
1F7
  8
1
  6
CONTINUOUS
 62
     7
 10
786.2263620181541
 20
303.0000000000001
 30
0.0
 11
786.4763620181541
 21
303.0000000000001
 31
0.0
  0
LINE
  5
1F8
  8
1
  6
CONTINUOUS
 62
     7
 10
786.4763620181541
 20
317.0000000000001
 30
0.0
 11
786.2263620181541
 21
317.0000000000001
 31
0.0
  0
LINE
  5
1F9
  8
1
  6
CONTINUOUS
 62
     7
 10
792.826104279347
 20
307.4
 30
0.0
 11
792.1048609299422
 21
307.4
 31
0.0
  0
LINE
  5
1FA
  8
1
  6
CONTINUOUS
 62
     7
 10
792.1048609299422
 20
312.6
 30
0.0
 11
792.826104279347
 21
312.6
 31
0.0
  0
LINE
  5
1FB
  8
1
  6
CONTINUOUS
 62
     7
 10
831.3945460292373
 20
313.0000000000001
 30
0.0
 11
810.3087384294563
 21
313.0000000000001
 31
0.0
  0
LINE
  5
1FC
  8
1
  6
CONTINUOUS
 62
     7
 10
810.3087384294563
 20
307.0000000000001
 30
0.0
 11
831.3945460292373
 21
307.0000000000001
 31
0.0
  0
LINE
  5
1FD
  8
1
  6
CONTINUOUS
 62
     7
 10
802.1261042793469
 20
293.0000000000001
 30
0.0
 11
802.1261042793469
 21
327.0000000000001
 31
0.0
  0
LINE
  5
1FE
  8
1
  6
CONTINUOUS
 62
     7
 10
802.1263177617745
 20
319.663166384568
 30
0.0
 11
802.2490884040662
 21
321.0000000000001
 31
0.0
  0
LINE
  5
1FF
  8
1
  6
CONTINUOUS
 62
     7
 10
802.2490884040662
 20
321.0000000000001
 30
0.0
 11
802.1262287268024
 21
322.3372010392093
 31
0.0
  0
LINE
  5
200
  8
1
  6
CONTINUOUS
 62
     7
 10
802.1263177617745
 20
297.6631663845679
 30
0.0
 11
802.2490884040662
 21
299.0000000000001
 31
0.0
  0
LINE
  5
201
  8
1
  6
CONTINUOUS
 62
     7
 10
802.2490884040662
 20
299.0000000000001
 30
0.0
 11
802.1262287268024
 21
300.3372010392093
 31
0.0
  0
ENDBLK
  8
0
  0
BLOCK
  8
0
  2
D_FRAME_VIEW_2185
 70
     0
 10
0.0
 20
0.0
 30
0.0
  0
ARC
  5
206
  8
1
  6
CONTINUOUS
 62
     9
 10
610.0
 20
180.6965382461934
 30
0.0
 40
3.000000000000038
 50
354.2966587843929
 51
29.92643486661445
  0
POLYLINE
  5
207
  8
1
  6
CONTINUOUS
 62
     7
 66
     1
 10
0.0
 20
0.0
 30
0.0
  0
VERTEX
  5
41B
  8
1
  6
CONTINUOUS
 62
     7
 10
599.4999999999999
 20
155.1001263034071
 30
0.0
  0
VERTEX
  5
41C
  8
1
  6
CONTINUOUS
 62
     7
 10
599.4942355841208
 20
155.1550868289821
 30
0.0
  0
VERTEX
  5
41D
  8
1
  6
CONTINUOUS
 62
     7
 10
599.4771638597533
 20
155.2079352523816
 30
0.0
  0
VERTEX
  5
41E
  8
1
  6
CONTINUOUS
 62
     7
 10
599.4494408836906
 20
155.2566406383319
 30
0.0
  0
VERTEX
  5
41F
  8
1
  6
CONTINUOUS
 62
     7
 10
599.4121320343559
 20
155.2993312661653
 30
0.0
  0
VERTEX
  5
420
  8
1
  6
CONTINUOUS
 62
     7
 10
599.3666710699058
 20
155.3343665589953
 30
0.0
  0
VERTEX
  5
421
  8
1
  6
CONTINUOUS
 62
     7
 10
599.3148050297094
 20
155.3604001301665
 30
0.0
  0
VERTEX
  5
422
  8
1
  6
CONTINUOUS
 62
     7
 10
599.2585270966048
 20
155.3764315241386
 30
0.0
  0
VERTEX
  5
423
  8
1
  6
CONTINUOUS
 62
     7
 10
599.1999999999999
 20
155.3818446634317
 30
0.0
  0
SEQEND
  5
56E
  8
1
  6
CONTINUOUS
 62
     7
  0
LINE
  5
208
  8
1
  6
CONTINUOUS
 62
     7
 10
599.5
 20
155.1001263034071
 30
0.0
 11
599.5
 21
57.40937380068875
 31
0.0
  0
LINE
  5
209
  8
1
  6
CONTINUOUS
 62
     7
 10
620.4999999999999
 20
155.1001263034071
 30
0.0
 11
620.4999999999999
 21
57.40937380068875
 31
0.0
  0
POLYLINE
  5
20A
  8
1
  6
CONTINUOUS
 62
     7
 66
     1
 10
0.0
 20
0.0
 30
0.0
  0
VERTEX
  5
424
  8
1
  6
CONTINUOUS
 62
     7
 10
620.8
 20
155.3818446634318
 30
0.0
  0
VERTEX
  5
425
  8
1
  6
CONTINUOUS
 62
     7
 10
620.7414729033951
 20
155.3764315241387
 30
0.0
  0
VERTEX
  5
426
  8
1
  6
CONTINUOUS
 62
     7
 10
620.6851949702904
 20
155.3604001301666
 30
0.0
  0
VERTEX
  5
427
  8
1
  6
CONTINUOUS
 62
     7
 10
620.6333289300941
 20
155.3343665589954
 30
0.0
  0
VERTEX
  5
428
  8
1
  6
CONTINUOUS
 62
     7
 10
620.5878679656439
 20
155.2993312661654
 30
0.0
  0
VERTEX
  5
429
  8
1
  6
CONTINUOUS
 62
     7
 10
620.5505591163092
 20
155.2566406383319
 30
0.0
  0
VERTEX
  5
42A
  8
1
  6
CONTINUOUS
 62
     7
 10
620.5228361402465
 20
155.2079352523816
 30
0.0
  0
VERTEX
  5
42B
  8
1
  6
CONTINUOUS
 62
     7
 10
620.505764415879
 20
155.1550868289822
 30
0.0
  0
VERTEX
  5
42C
  8
1
  6
CONTINUOUS
 62
     7
 10
620.4999999999999
 20
155.1001263034071
 30
0.0
  0
SEQEND
  5
56F
  8
1
  6
CONTINUOUS
 62
     7
  0
LINE
  5
20B
  8
1
  6
CONTINUOUS
 62
     7
 10
620.8
 20
155.3818446634318
 30
0.0
 11
621.8
 21
155.3818446634318
 31
0.0
  0
POLYLINE
  5
20C
  8
1
  6
CONTINUOUS
 62
     7
 66
     1
 10
0.0
 20
0.0
 30
0.0
  0
VERTEX
  5
42D
  8
1
  6
CONTINUOUS
 62
     7
 10
622.1
 20
155.1001263034071
 30
0.0
  0
VERTEX
  5
42E
  8
1
  6
CONTINUOUS
 62
     7
 10
622.094235584121
 20
155.1550868289822
 30
0.0
  0
VERTEX
  5
42F
  8
1
  6
CONTINUOUS
 62
     7
 10
622.0771638597535
 20
155.2079352523816
 30
0.0
  0
VERTEX
  5
430
  8
1
  6
CONTINUOUS
 62
     7
 10
622.0494408836907
 20
155.2566406383319
 30
0.0
  0
VERTEX
  5
431
  8
1
  6
CONTINUOUS
 62
     7
 10
622.012132034356
 20
155.2993312661654
 30
0.0
  0
VERTEX
  5
432
  8
1
  6
CONTINUOUS
 62
     7
 10
621.9666710699058
 20
155.3343665589954
 30
0.0
  0
VERTEX
  5
433
  8
1
  6
CONTINUOUS
 62
     7
 10
621.9148050297096
 20
155.3604001301666
 30
0.0
  0
VERTEX
  5
434
  8
1
  6
CONTINUOUS
 62
     7
 10
621.8585270966048
 20
155.3764315241387
 30
0.0
  0
VERTEX
  5
435
  8
1
  6
CONTINUOUS
 62
     7
 10
621.8
 20
155.3818446634318
 30
0.0
  0
SEQEND
  5
570
  8
1
  6
CONTINUOUS
 62
     7
  0
LINE
  5
20D
  8
1
  6
CONTINUOUS
 62
     7
 10
622.1
 20
155.1001263034071
 30
0.0
 11
622.1
 21
57.40937380068876
 31
0.0
  0
POLYLINE
  5
20E
  8
1
  6
CONTINUOUS
 62
     7
 66
     1
 10
0.0
 20
0.0
 30
0.0
  0
VERTEX
  5
436
  8
1
  6
CONTINUOUS
 62
     7
 10
598.1999999999999
 20
155.3818446634318
 30
0.0
  0
VERTEX
  5
437
  8
1
  6
CONTINUOUS
 62
     7
 10
598.1414729033951
 20
155.3764315241387
 30
0.0
  0
VERTEX
  5
438
  8
1
  6
CONTINUOUS
 62
     7
 10
598.0851949702903
 20
155.3604001301666
 30
0.0
  0
VERTEX
  5
439
  8
1
  6
CONTINUOUS
 62
     7
 10
598.0333289300941
 20
155.3343665589954
 30
0.0
  0
VERTEX
  5
43A
  8
1
  6
CONTINUOUS
 62
     7
 10
597.9878679656439
 20
155.2993312661654
 30
0.0
  0
VERTEX
  5
43B
  8
1
  6
CONTINUOUS
 62
     7
 10
597.9505591163091
 20
155.2566406383319
 30
0.0
  0
VERTEX
  5
43C
  8
1
  6
CONTINUOUS
 62
     7
 10
597.9228361402464
 20
155.2079352523816
 30
0.0
  0
VERTEX
  5
43D
  8
1
  6
CONTINUOUS
 62
     7
 10
597.9057644158789
 20
155.1550868289822
 30
0.0
  0
VERTEX
  5
43E
  8
1
  6
CONTINUOUS
 62
     7
 10
597.8999999999999
 20
155.1001263034071
 30
0.0
  0
SEQEND
  5
571
  8
1
  6
CONTINUOUS
 62
     7
  0
LINE
  5
20F
  8
1
  6
CONTINUOUS
 62
     7
 10
597.9
 20
155.1001263034071
 30
0.0
 11
597.9
 21
57.40937380068876
 31
0.0
  0
LINE
  5
210
  8
1
  6
CONTINUOUS
 62
     7
 10
599.1999999999999
 20
155.3818446634318
 30
0.0
 11
598.1999999999999
 21
155.3818446634318
 31
0.0
  0
LINE
  5
211
  8
1
  6
CONTINUOUS
 62
     7
 10
599.4999999999999
 20
154.9123140633906
 30
0.0
 11
600.0
 21
154.9123140633906
 31
0.0
  0
LINE
  5
212
  8
1
  6
CONTINUOUS
 62
     7
 10
620.0
 20
154.9123140633906
 30
0.0
 11
620.4999999999999
 21
154.9123140633906
 31
0.0
  0
ARC
  5
213
  8
1
  6
CONTINUOUS
 62
     7
 10
604.6841122906901
 20
138.701991509415
 30
0.0
 40
4.711822546860187
 50
186.2169375970418
 51
273.8440789601723
  0
ARC
  5
214
  8
1
  6
CONTINUOUS
 62
     7
 10
604.6927049638253
 20
138.9824038690084
 30
0.0
 40
4.721927567628454
 50
186.3776643046944
 51
273.7313491318472
  0
ARC
  5
215
  8
1
  6
CONTINUOUS
 62
     7
 10
615.3180105209321
 20
138.9696089515485
 30
0.0
 40
4.70987122078415
 50
266.1284432564623
 51
353.7625433069956
  0
LINE
  5
216
  8
1
  6
CONTINUOUS
 62
     7
 10
605.0
 20
134.2704860307316
 30
0.0
 11
615.0
 21
134.2704860307316
 31
0.0
  0
ARC
  5
217
  8
1
  6
CONTINUOUS
 62
     7
 10
615.3053260567937
 20
138.714592016449
 30
0.0
 40
4.723700350291603
 50
266.2939861715231
 51
353.644997271263
  0
LINE
  5
218
  8
1
  6
CONTINUOUS
 62
     7
 10
605.0
 20
134.0007696822506
 30
0.0
 11
615.0
 21
134.0007696822506
 31
0.0
  0
LINE
  5
219
  8
1
  6
CONTINUOUS
 62
     7
 10
600.0
 20
56.89062619931122
 30
0.0
 11
620.0
 21
56.89062619931122
 31
0.0
  0
ARC
  5
21A
  8
1
  6
CONTINUOUS
 62
     7
 10
610.0
 20
180.6965382461934
 30
0.0
 40
6.999999999999985
 50
242.7971055877856
 51
297.2028944122143
  0
POLYLINE
  5
21B
  8
1
  6
CONTINUOUS
 62
     7
 66
     1
 10
0.0
 20
0.0
 30
0.0
  0
VERTEX
  5
43F
  8
1
  6
CONTINUOUS
 62
     7
 10
610.0
 20
183.3464810288217
 30
0.0
  0
VERTEX
  5
440
  8
1
  6
CONTINUOUS
 62
     7
 10
611.3656322541129
 20
183.4329379145846
 30
0.0
  0
VERTEX
  5
441
  8
1
  6
CONTINUOUS
 62
     7
 10
612.6787840265556
 20
183.6889860822388
 30
0.0
  0
VERTEX
  5
442
  8
1
  6
CONTINUOUS
 62
     7
 10
613.8889916311372
 20
184.1047857442949
 30
0.0
  0
VERTEX
  5
443
  8
1
  6
CONTINUOUS
 62
     7
 10
614.9497474683059
 20
184.6643579529232
 30
0.0
  0
VERTEX
  5
444
  8
1
  6
CONTINUOUS
 62
     7
 10
615.8202872861178
 20
185.3461986619579
 30
0.0
  0
VERTEX
  5
445
  8
1
  6
CONTINUOUS
 62
     7
 10
616.467156727579
 20
186.1241051153313
 30
0.0
  0
VERTEX
  5
446
  8
1
  6
CONTINUOUS
 62
     7
 10
616.8654969628226
 20
186.9681828042955
 30
0.0
  0
VERTEX
  5
447
  8
1
  6
CONTINUOUS
 62
     7
 10
617.0
 20
187.8459942966275
 30
0.0
  0
SEQEND
  5
572
  8
1
  6
CONTINUOUS
 62
     7
  0
POLYLINE
  5
21C
  8
1
  6
CONTINUOUS
 62
     7
 66
     1
 10
0.0
 20
0.0
 30
0.0
  0
VERTEX
  5
448
  8
1
  6
CONTINUOUS
 62
     7
 10
603.0
 20
187.8459942966275
 30
0.0
  0
VERTEX
  5
449
  8
1
  6
CONTINUOUS
 62
     7
 10
603.1345030371774
 20
186.9681828042955
 30
0.0
  0
VERTEX
  5
44A
  8
1
  6
CONTINUOUS
 62
     7
 10
603.532843272421
 20
186.1241051153313
 30
0.0
  0
VERTEX
  5
44B
  8
1
  6
CONTINUOUS
 62
     7
 10
604.1797127138822
 20
185.3461986619579
 30
0.0
  0
VERTEX
  5
44C
  8
1
  6
CONTINUOUS
 62
     7
 10
605.0502525316941
 20
184.6643579529232
 30
0.0
  0
VERTEX
  5
44D
  8
1
  6
CONTINUOUS
 62
     7
 10
606.1110083688628
 20
184.1047857442949
 30
0.0
  0
VERTEX
  5
44E
  8
1
  6
CONTINUOUS
 62
     7
 10
607.3212159734444
 20
183.6889860822388
 30
0.0
  0
VERTEX
  5
44F
  8
1
  6
CONTINUOUS
 62
     7
 10
608.6343677458871
 20
183.4329379145846
 30
0.0
  0
VERTEX
  5
450
  8
1
  6
CONTINUOUS
 62
     7
 10
610.0
 20
183.3464810288217
 30
0.0
  0
SEQEND
  5
573
  8
1
  6
CONTINUOUS
 62
     7
  0
POLYLINE
  5
21D
  8
1
  6
CONTINUOUS
 62
     7
 66
     1
 10
0.0
 20
0.0
 30
0.0
  0
VERTEX
  5
451
  8
1
  6
CONTINUOUS
 62
     7
 10
617.0
 20
187.8459942966275
 30
0.0
  0
VERTEX
  5
452
  8
1
  6
CONTINUOUS
 62
     7
 10
616.8654969628226
 20
188.7238057889596
 30
0.0
  0
VERTEX
  5
453
  8
1
  6
CONTINUOUS
 62
     7
 10
616.467156727579
 20
189.5678834779237
 30
0.0
  0
VERTEX
  5
454
  8
1
  6
CONTINUOUS
 62
     7
 10
615.8202872861178
 20
190.3457899312972
 30
0.0
  0
VERTEX
  5
455
  8
1
  6
CONTINUOUS
 62
     7
 10
614.9497474683059
 20
191.0276306403318
 30
0.0
  0
VERTEX
  5
456
  8
1
  6
CONTINUOUS
 62
     7
 10
613.8889916311372
 20
191.5872028489601
 30
0.0
  0
VERTEX
  5
457
  8
1
  6
CONTINUOUS
 62
     7
 10
612.6787840265556
 20
192.0030025110162
 30
0.0
  0
VERTEX
  5
458
  8
1
  6
CONTINUOUS
 62
     7
 10
611.3656322541129
 20
192.2590506786705
 30
0.0
  0
VERTEX
  5
459
  8
1
  6
CONTINUOUS
 62
     7
 10
610.0
 20
192.3455075644333
 30
0.0
  0
VERTEX
  5
45A
  8
1
  6
CONTINUOUS
 62
     7
 10
608.6343677458871
 20
192.2590506786705
 30
0.0
  0
VERTEX
  5
45B
  8
1
  6
CONTINUOUS
 62
     7
 10
607.3212159734444
 20
192.0030025110162
 30
0.0
  0
VERTEX
  5
45C
  8
1
  6
CONTINUOUS
 62
     7
 10
606.1110083688627
 20
191.5872028489601
 30
0.0
  0
VERTEX
  5
45D
  8
1
  6
CONTINUOUS
 62
     7
 10
605.0502525316941
 20
191.0276306403318
 30
0.0
  0
VERTEX
  5
45E
  8
1
  6
CONTINUOUS
 62
     7
 10
604.1797127138822
 20
190.3457899312971
 30
0.0
  0
VERTEX
  5
45F
  8
1
  6
CONTINUOUS
 62
     7
 10
603.532843272421
 20
189.5678834779237
 30
0.0
  0
VERTEX
  5
460
  8
1
  6
CONTINUOUS
 62
     7
 10
603.1345030371774
 20
188.7238057889596
 30
0.0
  0
VERTEX
  5
461
  8
1
  6
CONTINUOUS
 62
     7
 10
603.0
 20
187.8459942966275
 30
0.0
  0
SEQEND
  5
574
  8
1
  6
CONTINUOUS
 62
     7
  0
POLYLINE
  5
21E
  8
1
  6
CONTINUOUS
 62
     7
 66
     1
 10
0.0
 20
0.0
 30
0.0
  0
VERTEX
  5
462
  8
1
  6
CONTINUOUS
 62
     7
 10
603.0
 20
187.462972075068
 30
0.0
  0
VERTEX
  5
463
  8
1
  6
CONTINUOUS
 62
     7
 10
603.1345030371774
 20
186.5851605827359
 30
0.0
  0
VERTEX
  5
464
  8
1
  6
CONTINUOUS
 62
     7
 10
603.532843272421
 20
185.7410828937718
 30
0.0
  0
VERTEX
  5
465
  8
1
  6
CONTINUOUS
 62
     7
 10
604.1797127138822
 20
184.9631764403983
 30
0.0
  0
VERTEX
  5
466
  8
1
  6
CONTINUOUS
 62
     7
 10
605.0502525316941
 20
184.2813357313637
 30
0.0
  0
VERTEX
  5
467
  8
1
  6
CONTINUOUS
 62
     7
 10
606.1110083688628
 20
183.7217635227353
 30
0.0
  0
VERTEX
  5
468
  8
1
  6
CONTINUOUS
 62
     7
 10
607.3212159734444
 20
183.3059638606792
 30
0.0
  0
VERTEX
  5
469
  8
1
  6
CONTINUOUS
 62
     7
 10
608.6343677458871
 20
183.049915693025
 30
0.0
  0
VERTEX
  5
46A
  8
1
  6
CONTINUOUS
 62
     7
 10
610.0
 20
182.9634588072622
 30
0.0
  0
SEQEND
  5
575
  8
1
  6
CONTINUOUS
 62
     7
  0
POLYLINE
  5
21F
  8
1
  6
CONTINUOUS
 62
     7
 66
     1
 10
0.0
 20
0.0
 30
0.0
  0
VERTEX
  5
46B
  8
1
  6
CONTINUOUS
 62
     7
 10
610.0
 20
182.9634588072622
 30
0.0
  0
VERTEX
  5
46C
  8
1
  6
CONTINUOUS
 62
     7
 10
611.3656322541129
 20
183.049915693025
 30
0.0
  0
VERTEX
  5
46D
  8
1
  6
CONTINUOUS
 62
     7
 10
612.6787840265556
 20
183.3059638606792
 30
0.0
  0
VERTEX
  5
46E
  8
1
  6
CONTINUOUS
 62
     7
 10
613.8889916311372
 20
183.7217635227353
 30
0.0
  0
VERTEX
  5
46F
  8
1
  6
CONTINUOUS
 62
     7
 10
614.9497474683059
 20
184.2813357313637
 30
0.0
  0
VERTEX
  5
470
  8
1
  6
CONTINUOUS
 62
     7
 10
615.8202872861178
 20
184.9631764403983
 30
0.0
  0
VERTEX
  5
471
  8
1
  6
CONTINUOUS
 62
     7
 10
616.467156727579
 20
185.7410828937718
 30
0.0
  0
VERTEX
  5
472
  8
1
  6
CONTINUOUS
 62
     7
 10
616.8654969628226
 20
186.5851605827359
 30
0.0
  0
VERTEX
  5
473
  8
1
  6
CONTINUOUS
 62
     7
 10
617.0
 20
187.462972075068
 30
0.0
  0
SEQEND
  5
576
  8
1
  6
CONTINUOUS
 62
     7
  0
LINE
  5
220
  8
1
  6
CONTINUOUS
 62
     7
 10
607.5
 20
183.2364759166514
 30
0.0
 11
607.598761631126
 21
183.2364759166514
 31
0.0
  0
LINE
  5
221
  8
1
  6
CONTINUOUS
 62
     7
 10
612.4012383688739
 20
183.2364759166514
 30
0.0
 11
612.4999999999999
 21
183.2364759166514
 31
0.0
  0
POLYLINE
  5
222
  8
1
  6
CONTINUOUS
 62
     7
 66
     1
 10
0.0
 20
0.0
 30
0.0
  0
VERTEX
  5
474
  8
1
  6
CONTINUOUS
 62
     7
 10
612.4999999999999
 20
183.2364759166514
 30
0.0
  0
VERTEX
  5
475
  8
1
  6
CONTINUOUS
 62
     7
 10
612.5937557559148
 20
183.2421766696901
 30
0.0
  0
VERTEX
  5
476
  8
1
  6
CONTINUOUS
 62
     7
 10
612.6841855086376
 20
183.2590766935127
 30
0.0
  0
VERTEX
  5
477
  8
1
  6
CONTINUOUS
 62
     7
 10
612.7680812455691
 20
183.2865764565745
 30
0.0
  0
VERTEX
  5
478
  8
1
  6
CONTINUOUS
 62
     7
 10
612.8424667495572
 20
183.3237003995742
 30
0.0
  0
VERTEX
  5
479
  8
1
  6
CONTINUOUS
 62
     7
 10
612.9047031807645
 20
183.3691315436051
 30
0.0
  0
SEQEND
  5
577
  8
1
  6
CONTINUOUS
 62
     7
  0
POLYLINE
  5
223
  8
1
  6
CONTINUOUS
 62
     7
 66
     1
 10
0.0
 20
0.0
 30
0.0
  0
VERTEX
  5
47A
  8
1
  6
CONTINUOUS
 62
     7
 10
607.0952968192355
 20
183.3691315436051
 30
0.0
  0
VERTEX
  5
47B
  8
1
  6
CONTINUOUS
 62
     7
 10
607.1575332504427
 20
183.3237003995742
 30
0.0
  0
VERTEX
  5
47C
  8
1
  6
CONTINUOUS
 62
     7
 10
607.2319187544309
 20
183.2865764565746
 30
0.0
  0
VERTEX
  5
47D
  8
1
  6
CONTINUOUS
 62
     7
 10
607.3158144913623
 20
183.2590766935128
 30
0.0
  0
VERTEX
  5
47E
  8
1
  6
CONTINUOUS
 62
     7
 10
607.4062442440851
 20
183.2421766696901
 30
0.0
  0
VERTEX
  5
47F
  8
1
  6
CONTINUOUS
 62
     7
 10
607.5
 20
183.2364759166514
 30
0.0
  0
SEQEND
  5
578
  8
1
  6
CONTINUOUS
 62
     7
  0
ARC
  5
224
  8
1
  6
CONTINUOUS
 62
     7
 10
610.0
 20
180.1002715874798
 30
0.0
 40
2.600000000000047
 50
180.0
 51
0.0
  0
ARC
  5
225
  8
1
  6
CONTINUOUS
 62
     7
 10
610.0
 20
180.1002715874798
 30
0.0
 40
3.000000000000038
 50
150.0735651333857
 51
29.92643486661438
  0
ARC
  5
226
  8
1
  6
CONTINUOUS
 62
     7
 10
610.0
 20
182.7093738006888
 30
0.0
 40
3.199999999999981
 50
166.9100444220733
 51
180.0
  0
ARC
  5
227
  8
1
  6
CONTINUOUS
 62
     7
 10
610.0
 20
182.7093738006888
 30
0.0
 40
3.199999999999976
 50
0.0
 51
13.08995557792679
  0
POLYLINE
  5
228
  8
1
  6
CONTINUOUS
 62
     7
 66
     1
 10
0.0
 20
0.0
 30
0.0
  0
VERTEX
  5
480
  8
1
  6
CONTINUOUS
 62
     7
 10
613.1999999999999
 20
177.3159363508447
 30
0.0
  0
VERTEX
  5
481
  8
1
  6
CONTINUOUS
 62
     7
 10
613.2192147195967
 20
177.190534709083
 30
0.0
  0
VERTEX
  5
482
  8
1
  6
CONTINUOUS
 62
     7
 10
613.2761204674887
 20
177.0699521820881
 30
0.0
  0
VERTEX
  5
483
  8
1
  6
CONTINUOUS
 62
     7
 10
613.3685303876974
 20
176.9588226887491
 30
0.0
  0
VERTEX
  5
484
  8
1
  6
CONTINUOUS
 62
     7
 10
613.4928932188134
 20
176.8614168731727
 30
0.0
  0
VERTEX
  5
485
  8
1
  6
CONTINUOUS
 62
     7
 10
613.6444297669804
 20
176.7814779862258
 30
0.0
  0
VERTEX
  5
486
  8
1
  6
CONTINUOUS
 62
     7
 10
613.8173165676349
 20
176.7220780345035
 30
0.0
  0
VERTEX
  5
487
  8
1
  6
CONTINUOUS
 62
     7
 10
614.0049096779838
 20
176.6854997248386
 30
0.0
  0
VERTEX
  5
488
  8
1
  6
CONTINUOUS
 62
     7
 10
614.1999999999999
 20
176.6731487411582
 30
0.0
  0
SEQEND
  5
579
  8
1
  6
CONTINUOUS
 62
     7
  0
POLYLINE
  5
229
  8
1
  6
CONTINUOUS
 62
     7
 66
     1
 10
0.0
 20
0.0
 30
0.0
  0
VERTEX
  5
489
  8
1
  6
CONTINUOUS
 62
     7
 10
613.1999999999999
 20
179.7672785688254
 30
0.0
  0
VERTEX
  5
48A
  8
1
  6
CONTINUOUS
 62
     7
 10
613.2192147195967
 20
179.6418769270637
 30
0.0
  0
VERTEX
  5
48B
  8
1
  6
CONTINUOUS
 62
     7
 10
613.2761204674887
 20
179.5212944000689
 30
0.0
  0
VERTEX
  5
48C
  8
1
  6
CONTINUOUS
 62
     7
 10
613.3685303876973
 20
179.4101649067298
 30
0.0
  0
VERTEX
  5
48D
  8
1
  6
CONTINUOUS
 62
     7
 10
613.4928932188134
 20
179.3127590911535
 30
0.0
  0
VERTEX
  5
48E
  8
1
  6
CONTINUOUS
 62
     7
 10
613.6444297669802
 20
179.2328202042065
 30
0.0
  0
VERTEX
  5
48F
  8
1
  6
CONTINUOUS
 62
     7
 10
613.8173165676347
 20
179.1734202524842
 30
0.0
  0
VERTEX
  5
490
  8
1
  6
CONTINUOUS
 62
     7
 10
614.0049096779836
 20
179.1368419428193
 30
0.0
  0
VERTEX
  5
491
  8
1
  6
CONTINUOUS
 62
     7
 10
614.1999999999998
 20
179.1244909591389
 30
0.0
  0
SEQEND
  5
57A
  8
1
  6
CONTINUOUS
 62
     7
  0
POLYLINE
  5
22A
  8
1
  6
CONTINUOUS
 62
     7
 66
     1
 10
0.0
 20
0.0
 30
0.0
  0
VERTEX
  5
492
  8
1
  6
CONTINUOUS
 62
     7
 10
593.0
 20
182.3384290075716
 30
0.0
  0
VERTEX
  5
493
  8
1
  6
CONTINUOUS
 62
     7
 10
593.0960735979838
 20
181.711420798763
 30
0.0
  0
VERTEX
  5
494
  8
1
  6
CONTINUOUS
 62
     7
 10
593.3806023374435
 20
181.1085081637886
 30
0.0
  0
VERTEX
  5
495
  8
1
  6
CONTINUOUS
 62
     7
 10
593.8426519384873
 20
180.5528606970933
 30
0.0
  0
VERTEX
  5
496
  8
1
  6
CONTINUOUS
 62
     7
 10
594.4644660940672
 20
180.0658316192114
 30
0.0
  0
VERTEX
  5
497
  8
1
  6
CONTINUOUS
 62
     7
 10
595.222148834902
 20
179.6661371844769
 30
0.0
  0
VERTEX
  5
498
  8
1
  6
CONTINUOUS
 62
     7
 10
596.0865828381745
 20
179.3691374258654
 30
0.0
  0
VERTEX
  5
499
  8
1
  6
CONTINUOUS
 62
     7
 10
597.0245483899193
 20
179.186245877541
 30
0.0
  0
VERTEX
  5
49A
  8
1
  6
CONTINUOUS
 62
     7
 10
598.0
 20
179.1244909591389
 30
0.0
  0
SEQEND
  5
57B
  8
1
  6
CONTINUOUS
 62
     7
  0
POLYLINE
  5
22B
  8
1
  6
CONTINUOUS
 62
     7
 66
     1
 10
0.0
 20
0.0
 30
0.0
  0
VERTEX
  5
49B
  8
1
  6
CONTINUOUS
 62
     7
 10
593.0
 20
179.8870867895909
 30
0.0
  0
VERTEX
  5
49C
  8
1
  6
CONTINUOUS
 62
     7
 10
593.0960735979838
 20
179.2600785807823
 30
0.0
  0
VERTEX
  5
49D
  8
1
  6
CONTINUOUS
 62
     7
 10
593.3806023374435
 20
178.6571659458079
 30
0.0
  0
VERTEX
  5
49E
  8
1
  6
CONTINUOUS
 62
     7
 10
593.8426519384873
 20
178.1015184791126
 30
0.0
  0
VERTEX
  5
49F
  8
1
  6
CONTINUOUS
 62
     7
 10
594.4644660940672
 20
177.6144894012307
 30
0.0
  0
VERTEX
  5
4A0
  8
1
  6
CONTINUOUS
 62
     7
 10
595.222148834902
 20
177.2147949664962
 30
0.0
  0
VERTEX
  5
4A1
  8
1
  6
CONTINUOUS
 62
     7
 10
596.0865828381745
 20
176.9177952078847
 30
0.0
  0
VERTEX
  5
4A2
  8
1
  6
CONTINUOUS
 62
     7
 10
597.0245483899193
 20
176.7349036595602
 30
0.0
  0
VERTEX
  5
4A3
  8
1
  6
CONTINUOUS
 62
     7
 10
598.0
 20
176.6731487411582
 30
0.0
  0
SEQEND
  5
57C
  8
1
  6
CONTINUOUS
 62
     7
  0
LINE
  5
22C
  8
1
  6
CONTINUOUS
 62
     7
 10
598.0
 20
176.6731487411583
 30
0.0
 11
605.8
 21
176.6731487411583
 31
0.0
  0
LINE
  5
22D
  8
1
  6
CONTINUOUS
 62
     7
 10
598.0
 20
179.124490959139
 30
0.0
 11
605.8
 21
179.124490959139
 31
0.0
  0
LINE
  5
22E
  8
1
  6
CONTINUOUS
 62
     7
 10
622.0
 20
179.124490959139
 30
0.0
 11
614.1999999999999
 21
179.124490959139
 31
0.0
  0
LINE
  5
22F
  8
1
  6
CONTINUOUS
 62
     7
 10
622.0
 20
176.6731487411583
 30
0.0
 11
614.1999999999999
 21
176.6731487411583
 31
0.0
  0
POLYLINE
  5
230
  8
1
  6
CONTINUOUS
 62
     7
 66
     1
 10
0.0
 20
0.0
 30
0.0
  0
VERTEX
  5
4A4
  8
1
  6
CONTINUOUS
 62
     7
 10
622.0
 20
176.6731487411582
 30
0.0
  0
VERTEX
  5
4A5
  8
1
  6
CONTINUOUS
 62
     7
 10
622.9754516100807
 20
176.7349036595602
 30
0.0
  0
VERTEX
  5
4A6
  8
1
  6
CONTINUOUS
 62
     7
 10
623.9134171618255
 20
176.9177952078847
 30
0.0
  0
VERTEX
  5
4A7
  8
1
  6
CONTINUOUS
 62
     7
 10
624.777851165098
 20
177.2147949664962
 30
0.0
  0
VERTEX
  5
4A8
  8
1
  6
CONTINUOUS
 62
     7
 10
625.5355339059328
 20
177.6144894012307
 30
0.0
  0
VERTEX
  5
4A9
  8
1
  6
CONTINUOUS
 62
     7
 10
626.1573480615127
 20
178.1015184791126
 30
0.0
  0
VERTEX
  5
4AA
  8
1
  6
CONTINUOUS
 62
     7
 10
626.6193976625565
 20
178.6571659458079
 30
0.0
  0
VERTEX
  5
4AB
  8
1
  6
CONTINUOUS
 62
     7
 10
626.9039264020162
 20
179.2600785807823
 30
0.0
  0
VERTEX
  5
4AC
  8
1
  6
CONTINUOUS
 62
     7
 10
627.0
 20
179.8870867895909
 30
0.0
  0
SEQEND
  5
57D
  8
1
  6
CONTINUOUS
 62
     7
  0
POLYLINE
  5
231
  8
1
  6
CONTINUOUS
 62
     7
 66
     1
 10
0.0
 20
0.0
 30
0.0
  0
VERTEX
  5
4AD
  8
1
  6
CONTINUOUS
 62
     7
 10
622.0
 20
179.1244909591389
 30
0.0
  0
VERTEX
  5
4AE
  8
1
  6
CONTINUOUS
 62
     7
 10
622.9754516100807
 20
179.186245877541
 30
0.0
  0
VERTEX
  5
4AF
  8
1
  6
CONTINUOUS
 62
     7
 10
623.9134171618255
 20
179.3691374258654
 30
0.0
  0
VERTEX
  5
4B0
  8
1
  6
CONTINUOUS
 62
     7
 10
624.777851165098
 20
179.6661371844769
 30
0.0
  0
VERTEX
  5
4B1
  8
1
  6
CONTINUOUS
 62
     7
 10
625.5355339059328
 20
180.0658316192114
 30
0.0
  0
VERTEX
  5
4B2
  8
1
  6
CONTINUOUS
 62
     7
 10
626.1573480615127
 20
180.5528606970933
 30
0.0
  0
VERTEX
  5
4B3
  8
1
  6
CONTINUOUS
 62
     7
 10
626.6193976625565
 20
181.1085081637887
 30
0.0
  0
VERTEX
  5
4B4
  8
1
  6
CONTINUOUS
 62
     7
 10
626.9039264020162
 20
181.711420798763
 30
0.0
  0
VERTEX
  5
4B5
  8
1
  6
CONTINUOUS
 62
     7
 10
627.0
 20
182.3384290075716
 30
0.0
  0
SEQEND
  5
57E
  8
1
  6
CONTINUOUS
 62
     7
  0
POLYLINE
  5
232
  8
1
  6
CONTINUOUS
 62
     7
 66
     1
 10
0.0
 20
0.0
 30
0.0
  0
VERTEX
  5
4B6
  8
1
  6
CONTINUOUS
 62
     7
 10
605.8000000000001
 20
179.1244909591389
 30
0.0
  0
VERTEX
  5
4B7
  8
1
  6
CONTINUOUS
 62
     7
 10
605.9950903220163
 20
179.1368419428193
 30
0.0
  0
VERTEX
  5
4B8
  8
1
  6
CONTINUOUS
 62
     7
 10
606.1826834323651
 20
179.1734202524842
 30
0.0
  0
VERTEX
  5
4B9
  8
1
  6
CONTINUOUS
 62
     7
 10
606.3555702330196
 20
179.2328202042065
 30
0.0
  0
VERTEX
  5
4BA
  8
1
  6
CONTINUOUS
 62
     7
 10
606.5071067811865
 20
179.3127590911535
 30
0.0
  0
VERTEX
  5
4BB
  8
1
  6
CONTINUOUS
 62
     7
 10
606.6314696123026
 20
179.4101649067298
 30
0.0
  0
VERTEX
  5
4BC
  8
1
  6
CONTINUOUS
 62
     7
 10
606.7238795325112
 20
179.5212944000689
 30
0.0
  0
VERTEX
  5
4BD
  8
1
  6
CONTINUOUS
 62
     7
 10
606.7807852804032
 20
179.6418769270637
 30
0.0
  0
VERTEX
  5
4BE
  8
1
  6
CONTINUOUS
 62
     7
 10
606.8
 20
179.7672785688254
 30
0.0
  0
SEQEND
  5
57F
  8
1
  6
CONTINUOUS
 62
     7
  0
POLYLINE
  5
233
  8
1
  6
CONTINUOUS
 62
     7
 66
     1
 10
0.0
 20
0.0
 30
0.0
  0
VERTEX
  5
4BF
  8
1
  6
CONTINUOUS
 62
     7
 10
605.8
 20
176.6731487411582
 30
0.0
  0
VERTEX
  5
4C0
  8
1
  6
CONTINUOUS
 62
     7
 10
605.995090322016
 20
176.6854997248386
 30
0.0
  0
VERTEX
  5
4C1
  8
1
  6
CONTINUOUS
 62
     7
 10
606.182683432365
 20
176.7220780345035
 30
0.0
  0
VERTEX
  5
4C2
  8
1
  6
CONTINUOUS
 62
     7
 10
606.3555702330195
 20
176.7814779862258
 30
0.0
  0
VERTEX
  5
4C3
  8
1
  6
CONTINUOUS
 62
     7
 10
606.5071067811865
 20
176.8614168731727
 30
0.0
  0
VERTEX
  5
4C4
  8
1
  6
CONTINUOUS
 62
     7
 10
606.6314696123025
 20
176.9588226887491
 30
0.0
  0
VERTEX
  5
4C5
  8
1
  6
CONTINUOUS
 62
     7
 10
606.7238795325112
 20
177.0699521820881
 30
0.0
  0
VERTEX
  5
4C6
  8
1
  6
CONTINUOUS
 62
     7
 10
606.7807852804032
 20
177.190534709083
 30
0.0
  0
VERTEX
  5
4C7
  8
1
  6
CONTINUOUS
 62
     7
 10
606.8
 20
177.3159363508447
 30
0.0
  0
SEQEND
  5
580
  8
1
  6
CONTINUOUS
 62
     7
  0
LINE
  5
234
  8
1
  6
CONTINUOUS
 62
     7
 10
624.0
 20
158.6364102473502
 30
0.0
 11
620.0
 21
158.6364102473502
 31
0.0
  0
LINE
  5
235
  8
1
  6
CONTINUOUS
 62
     7
 10
600.0
 20
158.6364102473502
 30
0.0
 11
596.0
 21
158.6364102473502
 31
0.0
  0
LINE
  5
236
  8
1
  6
CONTINUOUS
 62
     7
 10
624.0
 20
155.4850254377111
 30
0.0
 11
620.0
 21
155.4850254377111
 31
0.0
  0
LINE
  5
237
  8
1
  6
CONTINUOUS
 62
     7
 10
600.0
 20
155.4850254377111
 30
0.0
 11
596.0
 21
155.4850254377111
 31
0.0
  0
POLYLINE
  5
238
  8
1
  6
CONTINUOUS
 62
     7
 66
     1
 10
0.0
 20
0.0
 30
0.0
  0
VERTEX
  5
4C8
  8
1
  6
CONTINUOUS
 62
     7
 10
620.2784997659176
 20
160.8070124681868
 30
0.0
  0
VERTEX
  5
4C9
  8
1
  6
CONTINUOUS
 62
     7
 10
620.2704765409752
 20
160.8225040393491
 30
0.0
  0
VERTEX
  5
4CA
  8
1
  6
CONTINUOUS
 62
     7
 10
620.2466643547021
 20
160.8374984410708
 30
0.0
  0
SEQEND
  5
581
  8
1
  6
CONTINUOUS
 62
     7
  0
LINE
  5
239
  8
1
  6
CONTINUOUS
 62
     7
 10
617.4999999999999
 20
162.1093738006888
 30
0.0
 11
620.2466643547021
 21
160.8374984410708
 31
0.0
  0
POLYLINE
  5
23A
  8
1
  6
CONTINUOUS
 62
     7
 66
     1
 10
0.0
 20
0.0
 30
0.0
  0
VERTEX
  5
4CB
  8
1
  6
CONTINUOUS
 62
     7
 10
624.0
 20
158.6364102473502
 30
0.0
  0
VERTEX
  5
4CC
  8
1
  6
CONTINUOUS
 62
     7
 10
624.5852709660484
 20
158.6464200504772
 30
0.0
  0
VERTEX
  5
4CD
  8
1
  6
CONTINUOUS
 62
     7
 10
625.1480502970953
 20
158.6760647887379
 30
0.0
  0
VERTEX
  5
4CE
  8
1
  6
CONTINUOUS
 62
     7
 10
625.6667106990589
 20
158.7242052314657
 30
0.0
  0
VERTEX
  5
4CF
  8
1
  6
CONTINUOUS
 62
     7
 10
626.1213203435597
 20
158.788991368444
 30
0.0
  0
VERTEX
  5
4D0
  8
1
  6
CONTINUOUS
 62
     7
 10
626.4944088369076
 20
158.8679335047614
 30
0.0
  0
VERTEX
  5
4D1
  8
1
  6
CONTINUOUS
 62
     7
 10
626.7716385975339
 20
158.9579979383904
 30
0.0
  0
VERTEX
  5
4D2
  8
1
  6
CONTINUOUS
 62
     7
 10
626.9423558412097
 20
159.0557235436553
 30
0.0
  0
VERTEX
  5
4D3
  8
1
  6
CONTINUOUS
 62
     7
 10
627.0
 20
159.157354780351
 30
0.0
  0
SEQEND
  5
582
  8
1
  6
CONTINUOUS
 62
     7
  0
POLYLINE
  5
23B
  8
1
  6
CONTINUOUS
 62
     7
 66
     1
 10
0.0
 20
0.0
 30
0.0
  0
VERTEX
  5
4D4
  8
1
  6
CONTINUOUS
 62
     7
 10
593.0
 20
159.157354780351
 30
0.0
  0
VERTEX
  5
4D5
  8
1
  6
CONTINUOUS
 62
     7
 10
593.0576441587903
 20
159.0557235436553
 30
0.0
  0
VERTEX
  5
4D6
  8
1
  6
CONTINUOUS
 62
     7
 10
593.2283614024661
 20
158.9579979383904
 30
0.0
  0
VERTEX
  5
4D7
  8
1
  6
CONTINUOUS
 62
     7
 10
593.5055911630924
 20
158.8679335047614
 30
0.0
  0
VERTEX
  5
4D8
  8
1
  6
CONTINUOUS
 62
     7
 10
593.8786796564403
 20
158.788991368444
 30
0.0
  0
VERTEX
  5
4D9
  8
1
  6
CONTINUOUS
 62
     7
 10
594.3332893009411
 20
158.7242052314657
 30
0.0
  0
VERTEX
  5
4DA
  8
1
  6
CONTINUOUS
 62
     7
 10
594.8519497029047
 20
158.6760647887379
 30
0.0
  0
VERTEX
  5
4DB
  8
1
  6
CONTINUOUS
 62
     7
 10
595.4147290339516
 20
158.6464200504772
 30
0.0
  0
VERTEX
  5
4DC
  8
1
  6
CONTINUOUS
 62
     7
 10
596.0
 20
158.6364102473502
 30
0.0
  0
SEQEND
  5
583
  8
1
  6
CONTINUOUS
 62
     7
  0
LINE
  5
23C
  8
1
  6
CONTINUOUS
 62
     7
 10
602.5
 20
162.1093738006888
 30
0.0
 11
599.7533356452979
 21
160.8374984410708
 31
0.0
  0
POLYLINE
  5
23D
  8
1
  6
CONTINUOUS
 62
     7
 66
     1
 10
0.0
 20
0.0
 30
0.0
  0
VERTEX
  5
4DD
  8
1
  6
CONTINUOUS
 62
     7
 10
599.7533356452977
 20
160.8374984410708
 30
0.0
  0
VERTEX
  5
4DE
  8
1
  6
CONTINUOUS
 62
     7
 10
599.7295234590247
 20
160.8225040393491
 30
0.0
  0
VERTEX
  5
4DF
  8
1
  6
CONTINUOUS
 62
     7
 10
599.7215002340823
 20
160.8070124681868
 30
0.0
  0
SEQEND
  5
584
  8
1
  6
CONTINUOUS
 62
     7
  0
LINE
  5
23E
  8
1
  6
CONTINUOUS
 62
     7
 10
600.2215002340822
 20
160.7201883793533
 30
0.0
 11
619.7784997659177
 21
160.7201883793533
 31
0.0
  0
LINE
  5
23F
  8
1
  6
CONTINUOUS
 62
     7
 10
599.5
 20
159.4178270468512
 30
0.0
 11
600.0
 21
159.4178270468512
 31
0.0
  0
LINE
  5
240
  8
1
  6
CONTINUOUS
 62
     7
 10
620.0
 20
159.4178270468512
 30
0.0
 11
620.4999999999999
 21
159.4178270468512
 31
0.0
  0
LINE
  5
241
  8
1
  6
CONTINUOUS
 62
     7
 10
620.4999999999999
 20
159.9387715798521
 30
0.0
 11
620.4999999999999
 21
159.4178270468512
 31
0.0
  0
LINE
  5
242
  8
1
  6
CONTINUOUS
 62
     7
 10
599.5
 20
159.9387715798521
 30
0.0
 11
620.4999999999999
 21
159.9387715798521
 31
0.0
  0
LINE
  5
243
  8
1
  6
CONTINUOUS
 62
     7
 10
599.5
 20
159.9387715798521
 30
0.0
 11
599.5
 21
159.4178270468512
 31
0.0
  0
POLYLINE
  5
244
  8
1
  6
CONTINUOUS
 62
     7
 66
     1
 10
0.0
 20
0.0
 30
0.0
  0
VERTEX
  5
4E0
  8
1
  6
CONTINUOUS
 62
     7
 10
593.0
 20
156.0059699707119
 30
0.0
  0
VERTEX
  5
4E1
  8
1
  6
CONTINUOUS
 62
     7
 10
593.0576441587903
 20
155.9043387340163
 30
0.0
  0
VERTEX
  5
4E2
  8
1
  6
CONTINUOUS
 62
     7
 10
593.2283614024661
 20
155.8066131287514
 30
0.0
  0
VERTEX
  5
4E3
  8
1
  6
CONTINUOUS
 62
     7
 10
593.5055911630924
 20
155.7165486951224
 30
0.0
  0
VERTEX
  5
4E4
  8
1
  6
CONTINUOUS
 62
     7
 10
593.8786796564403
 20
155.637606558805
 30
0.0
  0
VERTEX
  5
4E5
  8
1
  6
CONTINUOUS
 62
     7
 10
594.3332893009411
 20
155.5728204218266
 30
0.0
  0
VERTEX
  5
4E6
  8
1
  6
CONTINUOUS
 62
     7
 10
594.8519497029047
 20
155.5246799790988
 30
0.0
  0
VERTEX
  5
4E7
  8
1
  6
CONTINUOUS
 62
     7
 10
595.4147290339516
 20
155.4950352408382
 30
0.0
  0
VERTEX
  5
4E8
  8
1
  6
CONTINUOUS
 62
     7
 10
596.0
 20
155.4850254377111
 30
0.0
  0
SEQEND
  5
585
  8
1
  6
CONTINUOUS
 62
     7
  0
POLYLINE
  5
245
  8
1
  6
CONTINUOUS
 62
     7
 66
     1
 10
0.0
 20
0.0
 30
0.0
  0
VERTEX
  5
4E9
  8
1
  6
CONTINUOUS
 62
     7
 10
624.0
 20
155.4850254377111
 30
0.0
  0
VERTEX
  5
4EA
  8
1
  6
CONTINUOUS
 62
     7
 10
624.5852709660484
 20
155.4950352408382
 30
0.0
  0
VERTEX
  5
4EB
  8
1
  6
CONTINUOUS
 62
     7
 10
625.1480502970953
 20
155.5246799790988
 30
0.0
  0
VERTEX
  5
4EC
  8
1
  6
CONTINUOUS
 62
     7
 10
625.6667106990589
 20
155.5728204218266
 30
0.0
  0
VERTEX
  5
4ED
  8
1
  6
CONTINUOUS
 62
     7
 10
626.1213203435597
 20
155.637606558805
 30
0.0
  0
VERTEX
  5
4EE
  8
1
  6
CONTINUOUS
 62
     7
 10
626.4944088369076
 20
155.7165486951224
 30
0.0
  0
VERTEX
  5
4EF
  8
1
  6
CONTINUOUS
 62
     7
 10
626.7716385975339
 20
155.8066131287514
 30
0.0
  0
VERTEX
  5
4F0
  8
1
  6
CONTINUOUS
 62
     7
 10
626.9423558412097
 20
155.9043387340163
 30
0.0
  0
VERTEX
  5
4F1
  8
1
  6
CONTINUOUS
 62
     7
 10
627.0
 20
156.0059699707119
 30
0.0
  0
SEQEND
  5
586
  8
1
  6
CONTINUOUS
 62
     7
  0
POLYLINE
  5
246
  8
1
  6
CONTINUOUS
 62
     7
 66
     1
 10
0.0
 20
0.0
 30
0.0
  0
VERTEX
  5
4F2
  8
1
  6
CONTINUOUS
 62
     7
 10
619.7784997659177
 20
160.7201883793533
 30
0.0
  0
VERTEX
  5
4F3
  8
1
  6
CONTINUOUS
 62
     7
 10
619.8760449269257
 20
160.7218566798745
 30
0.0
  0
VERTEX
  5
4F4
  8
1
  6
CONTINUOUS
 62
     7
 10
619.9698414821002
 20
160.7267974695846
 30
0.0
  0
VERTEX
  5
4F5
  8
1
  6
CONTINUOUS
 62
     7
 10
620.0562848824275
 20
160.7348208767059
 30
0.0
  0
VERTEX
  5
4F6
  8
1
  6
CONTINUOUS
 62
     7
 10
620.1320531565109
 20
160.7456185662023
 30
0.0
  0
VERTEX
  5
4F7
  8
1
  6
CONTINUOUS
 62
     7
 10
620.1942345720689
 20
160.7587755889219
 30
0.0
  0
VERTEX
  5
4F8
  8
1
  6
CONTINUOUS
 62
     7
 10
620.2404395321732
 20
160.77378632786
 30
0.0
  0
VERTEX
  5
4F9
  8
1
  6
CONTINUOUS
 62
     7
 10
620.2688924061192
 20
160.7900739287375
 30
0.0
  0
VERTEX
  5
4FA
  8
1
  6
CONTINUOUS
 62
     7
 10
620.2784997659176
 20
160.8070124681868
 30
0.0
  0
SEQEND
  5
587
  8
1
  6
CONTINUOUS
 62
     7
  0
POLYLINE
  5
247
  8
1
  6
CONTINUOUS
 62
     7
 66
     1
 10
0.0
 20
0.0
 30
0.0
  0
VERTEX
  5
4FB
  8
1
  6
CONTINUOUS
 62
     7
 10
599.7215002340823
 20
160.8070124681868
 30
0.0
  0
VERTEX
  5
4FC
  8
1
  6
CONTINUOUS
 62
     7
 10
599.7311075938807
 20
160.7900739287375
 30
0.0
  0
VERTEX
  5
4FD
  8
1
  6
CONTINUOUS
 62
     7
 10
599.7595604678266
 20
160.77378632786
 30
0.0
  0
VERTEX
  5
4FE
  8
1
  6
CONTINUOUS
 62
     7
 10
599.805765427931
 20
160.7587755889219
 30
0.0
  0
VERTEX
  5
4FF
  8
1
  6
CONTINUOUS
 62
     7
 10
599.867946843489
 20
160.7456185662023
 30
0.0
  0
VERTEX
  5
500
  8
1
  6
CONTINUOUS
 62
     7
 10
599.9437151175724
 20
160.7348208767059
 30
0.0
  0
VERTEX
  5
501
  8
1
  6
CONTINUOUS
 62
     7
 10
600.0301585178997
 20
160.7267974695846
 30
0.0
  0
VERTEX
  5
502
  8
1
  6
CONTINUOUS
 62
     7
 10
600.1239550730742
 20
160.7218566798745
 30
0.0
  0
VERTEX
  5
503
  8
1
  6
CONTINUOUS
 62
     7
 10
600.2215002340822
 20
160.7201883793533
 30
0.0
  0
SEQEND
  5
588
  8
1
  6
CONTINUOUS
 62
     7
  0
LINE
  5
248
  8
1
  6
CONTINUOUS
 62
     7
 10
617.4999999999999
 20
160.7201883793533
 30
0.0
 11
617.4999999999999
 21
161.6093738006888
 31
0.0
  0
POLYLINE
  5
249
  8
1
  6
CONTINUOUS
 62
     7
 66
     1
 10
0.0
 20
0.0
 30
0.0
  0
VERTEX
  5
504
  8
1
  6
CONTINUOUS
 62
     7
 10
617.0
 20
162.1093738006888
 30
0.0
  0
VERTEX
  5
505
  8
1
  6
CONTINUOUS
 62
     7
 10
617.0245338371637
 20
162.1087715287914
 30
0.0
  0
VERTEX
  5
506
  8
1
  6
CONTINUOUS
 62
     7
 10
617.0490085701648
 20
162.1069661640249
 30
0.0
  0
VERTEX
  5
507
  8
1
  6
CONTINUOUS
 62
     7
 10
617.0733652372277
 20
162.1039620556712
 30
0.0
  0
VERTEX
  5
508
  8
1
  6
CONTINUOUS
 62
     7
 10
617.097545161008
 20
162.0997664408904
 30
0.0
  0
VERTEX
  5
509
  8
1
  6
CONTINUOUS
 62
     7
 10
617.1214900899516
 20
162.094389427286
 30
0.0
  0
VERTEX
  5
50A
  8
1
  6
CONTINUOUS
 62
     7
 10
617.1451423386271
 20
162.0878439685549
 30
0.0
  0
VERTEX
  5
50B
  8
1
  6
CONTINUOUS
 62
     7
 10
617.1684449266961
 20
162.0801458332803
 30
0.0
  0
VERTEX
  5
50C
  8
1
  6
CONTINUOUS
 62
     7
 10
617.1913417161825
 20
162.0713135669444
 30
0.0
  0
VERTEX
  5
50D
  8
1
  6
CONTINUOUS
 62
     7
 10
617.2137775467152
 20
162.0613684472505
 30
0.0
  0
VERTEX
  5
50E
  8
1
  6
CONTINUOUS
 62
     7
 10
617.235698368413
 20
162.0503344328629
 30
0.0
  0
VERTEX
  5
50F
  8
1
  6
CONTINUOUS
 62
     7
 10
617.2570513720966
 20
162.0382381056889
 30
0.0
  0
VERTEX
  5
510
  8
1
  6
CONTINUOUS
 62
     7
 10
617.2777851165098
 20
162.02510860684
 30
0.0
  0
VERTEX
  5
511
  8
1
  6
CONTINUOUS
 62
     7
 10
617.2978496522462
 20
162.0109775664291
 30
0.0
  0
VERTEX
  5
512
  8
1
  6
CONTINUOUS
 62
     7
 10
617.3171966420819
 20
161.9958790273701
 30
0.0
  0
VERTEX
  5
513
  8
1
  6
CONTINUOUS
 62
     7
 10
617.3357794774234
 20
161.9798493633662
 30
0.0
  0
VERTEX
  5
514
  8
1
  6
CONTINUOUS
 62
     7
 10
617.3535533905932
 20
161.962927191282
 30
0.0
  0
VERTEX
  5
515
  8
1
  6
CONTINUOUS
 62
     7
 10
617.3704755626774
 20
161.9451532781123
 30
0.0
  0
VERTEX
  5
516
  8
1
  6
CONTINUOUS
 62
     7
 10
617.3865052266814
 20
161.9265704427706
 30
0.0
  0
VERTEX
  5
517
  8
1
  6
CONTINUOUS
 62
     7
 10
617.4016037657402
 20
161.907223452935
 30
0.0
  0
VERTEX
  5
518
  8
1
  6
CONTINUOUS
 62
     7
 10
617.4157348061512
 20
161.8871589171986
 30
0.0
  0
VERTEX
  5
519
  8
1
  6
CONTINUOUS
 62
     7
 10
617.428864305
 20
161.8664251727854
 30
0.0
  0
VERTEX
  5
51A
  8
1
  6
CONTINUOUS
 62
     7
 10
617.4409606321741
 20
161.8450721691018
 30
0.0
  0
VERTEX
  5
51B
  8
1
  6
CONTINUOUS
 62
     7
 10
617.4519946465617
 20
161.8231513474039
 30
0.0
  0
VERTEX
  5
51C
  8
1
  6
CONTINUOUS
 62
     7
 10
617.4619397662556
 20
161.8007155168713
 30
0.0
  0
VERTEX
  5
51D
  8
1
  6
CONTINUOUS
 62
     7
 10
617.4707720325915
 20
161.7778187273849
 30
0.0
  0
VERTEX
  5
51E
  8
1
  6
CONTINUOUS
 62
     7
 10
617.478470167866
 20
161.754516139316
 30
0.0
  0
VERTEX
  5
51F
  8
1
  6
CONTINUOUS
 62
     7
 10
617.4850156265973
 20
161.7308638906404
 30
0.0
  0
VERTEX
  5
520
  8
1
  6
CONTINUOUS
 62
     7
 10
617.4903926402015
 20
161.7069189616969
 30
0.0
  0
VERTEX
  5
521
  8
1
  6
CONTINUOUS
 62
     7
 10
617.4945882549823
 20
161.6827390379165
 30
0.0
  0
VERTEX
  5
522
  8
1
  6
CONTINUOUS
 62
     7
 10
617.4975923633361
 20
161.6583823708536
 30
0.0
  0
VERTEX
  5
523
  8
1
  6
CONTINUOUS
 62
     7
 10
617.4993977281026
 20
161.6339076378525
 30
0.0
  0
VERTEX
  5
524
  8
1
  6
CONTINUOUS
 62
     7
 10
617.4999999999999
 20
161.6093738006888
 30
0.0
  0
SEQEND
  5
589
  8
1
  6
CONTINUOUS
 62
     7
  0
POLYLINE
  5
24A
  8
1
  6
CONTINUOUS
 62
     7
 66
     1
 10
0.0
 20
0.0
 30
0.0
  0
VERTEX
  5
525
  8
1
  6
CONTINUOUS
 62
     7
 10
603.0
 20
162.1093738006888
 30
0.0
  0
VERTEX
  5
526
  8
1
  6
CONTINUOUS
 62
     7
 10
602.9754661628363
 20
162.1087715287914
 30
0.0
  0
VERTEX
  5
527
  8
1
  6
CONTINUOUS
 62
     7
 10
602.9509914298352
 20
162.1069661640249
 30
0.0
  0
VERTEX
  5
528
  8
1
  6
CONTINUOUS
 62
     7
 10
602.9266347627723
 20
162.1039620556712
 30
0.0
  0
VERTEX
  5
529
  8
1
  6
CONTINUOUS
 62
     7
 10
602.902454838992
 20
162.0997664408904
 30
0.0
  0
VERTEX
  5
52A
  8
1
  6
CONTINUOUS
 62
     7
 10
602.8785099100484
 20
162.094389427286
 30
0.0
  0
VERTEX
  5
52B
  8
1
  6
CONTINUOUS
 62
     7
 10
602.8548576613728
 20
162.0878439685549
 30
0.0
  0
VERTEX
  5
52C
  8
1
  6
CONTINUOUS
 62
     7
 10
602.8315550733039
 20
162.0801458332803
 30
0.0
  0
VERTEX
  5
52D
  8
1
  6
CONTINUOUS
 62
     7
 10
602.8086582838174
 20
162.0713135669444
 30
0.0
  0
VERTEX
  5
52E
  8
1
  6
CONTINUOUS
 62
     7
 10
602.7862224532848
 20
162.0613684472505
 30
0.0
  0
VERTEX
  5
52F
  8
1
  6
CONTINUOUS
 62
     7
 10
602.764301631587
 20
162.0503344328629
 30
0.0
  0
VERTEX
  5
530
  8
1
  6
CONTINUOUS
 62
     7
 10
602.7429486279033
 20
162.0382381056889
 30
0.0
  0
VERTEX
  5
531
  8
1
  6
CONTINUOUS
 62
     7
 10
602.7222148834902
 20
162.02510860684
 30
0.0
  0
VERTEX
  5
532
  8
1
  6
CONTINUOUS
 62
     7
 10
602.7021503477538
 20
162.0109775664291
 30
0.0
  0
VERTEX
  5
533
  8
1
  6
CONTINUOUS
 62
     7
 10
602.6828033579181
 20
161.9958790273701
 30
0.0
  0
VERTEX
  5
534
  8
1
  6
CONTINUOUS
 62
     7
 10
602.6642205225764
 20
161.9798493633662
 30
0.0
  0
VERTEX
  5
535
  8
1
  6
CONTINUOUS
 62
     7
 10
602.6464466094067
 20
161.962927191282
 30
0.0
  0
VERTEX
  5
536
  8
1
  6
CONTINUOUS
 62
     7
 10
602.6295244373225
 20
161.9451532781123
 30
0.0
  0
VERTEX
  5
537
  8
1
  6
CONTINUOUS
 62
     7
 10
602.6134947733186
 20
161.9265704427706
 30
0.0
  0
VERTEX
  5
538
  8
1
  6
CONTINUOUS
 62
     7
 10
602.5983962342597
 20
161.907223452935
 30
0.0
  0
VERTEX
  5
539
  8
1
  6
CONTINUOUS
 62
     7
 10
602.5842651938486
 20
161.8871589171986
 30
0.0
  0
VERTEX
  5
53A
  8
1
  6
CONTINUOUS
 62
     7
 10
602.5711356949998
 20
161.8664251727854
 30
0.0
  0
VERTEX
  5
53B
  8
1
  6
CONTINUOUS
 62
     7
 10
602.5590393678258
 20
161.8450721691018
 30
0.0
  0
VERTEX
  5
53C
  8
1
  6
CONTINUOUS
 62
     7
 10
602.5480053534382
 20
161.8231513474039
 30
0.0
  0
VERTEX
  5
53D
  8
1
  6
CONTINUOUS
 62
     7
 10
602.5380602337443
 20
161.8007155168713
 30
0.0
  0
VERTEX
  5
53E
  8
1
  6
CONTINUOUS
 62
     7
 10
602.5292279674085
 20
161.7778187273849
 30
0.0
  0
VERTEX
  5
53F
  8
1
  6
CONTINUOUS
 62
     7
 10
602.5215298321339
 20
161.754516139316
 30
0.0
  0
VERTEX
  5
540
  8
1
  6
CONTINUOUS
 62
     7
 10
602.5149843734026
 20
161.7308638906404
 30
0.0
  0
VERTEX
  5
541
  8
1
  6
CONTINUOUS
 62
     7
 10
602.5096073597985
 20
161.7069189616969
 30
0.0
  0
VERTEX
  5
542
  8
1
  6
CONTINUOUS
 62
     7
 10
602.5054117450176
 20
161.6827390379165
 30
0.0
  0
VERTEX
  5
543
  8
1
  6
CONTINUOUS
 62
     7
 10
602.5024076366639
 20
161.6583823708536
 30
0.0
  0
VERTEX
  5
544
  8
1
  6
CONTINUOUS
 62
     7
 10
602.5006022718974
 20
161.6339076378525
 30
0.0
  0
VERTEX
  5
545
  8
1
  6
CONTINUOUS
 62
     7
 10
602.5
 20
161.6093738006888
 30
0.0
  0
SEQEND
  5
58A
  8
1
  6
CONTINUOUS
 62
     7
  0
LINE
  5
24B
  8
1
  6
CONTINUOUS
 62
     7
 10
602.5
 20
160.7201883793533
 30
0.0
 11
602.5
 21
161.6093738006888
 31
0.0
  0
LINE
  5
24C
  8
1
  6
CONTINUOUS
 62
     7
 10
618.7763932022501
 20
193.0748732731493
 30
0.0
 11
618.1617834407456
 21
193.1093738006888
 31
0.0
  0
LINE
  5
24D
  8
1
  6
CONTINUOUS
 62
     7
 10
600.7763932022502
 20
193.0748732731493
 30
0.0
 11
600.1617834407456
 21
193.1093738006888
 31
0.0
  0
LINE
  5
24E
  8
1
  6
CONTINUOUS
 62
     7
 10
619.22360679775
 20
193.0748732731493
 30
0.0
 11
618.77639320225
 21
193.0748732731493
 31
0.0
  0
LINE
  5
24F
  8
1
  6
CONTINUOUS
 62
     7
 10
619.8382165592545
 20
193.1093738006888
 30
0.0
 11
619.2236067977499
 21
193.0748732731493
 31
0.0
  0
LINE
  5
250
  8
1
  6
CONTINUOUS
 62
     7
 10
601.22360679775
 20
193.0748732731493
 30
0.0
 11
600.77639320225
 21
193.0748732731493
 31
0.0
  0
LINE
  5
251
  8
1
  6
CONTINUOUS
 62
     7
 10
601.8382165592544
 20
193.1093738006888
 30
0.0
 11
601.2236067977499
 21
193.0748732731493
 31
0.0
  0
ARC
  5
252
  8
1
  6
CONTINUOUS
 62
     7
 10
599.0
 20
178.1093738006888
 30
0.0
 40
1.999999999999968
 50
225.4710554572798
 51
314.1011335330016
  0
ARC
  5
253
  8
1
  6
CONTINUOUS
 62
     7
 10
610.0
 20
172.1093738006887
 30
0.0
 40
3.199999999999981
 50
179.999999999998
 51
0.0
  0
ARC
  5
254
  8
1
  6
CONTINUOUS
 62
     7
 10
621.0
 20
178.1093738006888
 30
0.0
 40
2.000000000000009
 50
225.8988664669984
 51
314.5289445427134
  0
ARC
  5
255
  8
1
  6
CONTINUOUS
 62
     7
 10
599.1999999999999
 20
57.40937380068876
 30
0.0
 40
0.3000000000000017
 50
270.000000000001
 51
359.9999999999987
  0
ARC
  5
256
  8
1
  6
CONTINUOUS
 62
     7
 10
620.8
 20
57.40937380068876
 30
0.0
 40
0.300000000000078
 50
180.0000000000014
 51
269.999999999999
  0
LINE
  5
257
  8
1
  6
CONTINUOUS
 62
     7
 10
620.8
 20
57.10937380068876
 30
0.0
 11
621.8
 21
57.10937380068876
 31
0.0
  0
ARC
  5
258
  8
1
  6
CONTINUOUS
 62
     7
 10
621.8
 20
57.40937380068876
 30
0.0
 40
0.3000000000000017
 50
269.9999999999993
 51
0.0
  0
ARC
  5
259
  8
1
  6
CONTINUOUS
 62
     7
 10
598.1999999999999
 20
57.40937380068876
 30
0.0
 40
0.299999999999967
 50
180.0
 51
270.0000000000007
  0
LINE
  5
25A
  8
1
  6
CONTINUOUS
 62
     7
 10
598.1999999999999
 20
57.10937380068876
 30
0.0
 11
599.1999999999999
 21
57.10937380068876
 31
0.0
  0
LINE
  5
25B
  8
1
  6
CONTINUOUS
 62
     7
 10
599.5
 20
57.60937380068877
 30
0.0
 11
600.0
 21
57.60937380068877
 31
0.0
  0
LINE
  5
25C
  8
1
  6
CONTINUOUS
 62
     7
 10
620.0
 20
57.60937380068877
 30
0.0
 11
620.4999999999999
 21
57.60937380068877
 31
0.0
  0
LINE
  5
25D
  8
1
  6
CONTINUOUS
 62
     7
 10
620.0
 20
159.8178270468513
 30
0.0
 11
600.0
 21
159.8178270468513
 31
0.0
  0
LINE
  5
25E
  8
1
  6
CONTINUOUS
 62
     7
 10
603.0
 20
187.8459942966275
 30
0.0
 11
603.0
 21
187.462972075068
 31
0.0
  0
LINE
  5
25F
  8
1
  6
CONTINUOUS
 62
     7
 10
617.0
 20
187.462972075068
 30
0.0
 11
617.0
 21
187.8459942966275
 31
0.0
  0
LINE
  5
260
  8
1
  6
CONTINUOUS
 62
     7
 10
600.1617834407456
 20
193.1093738006888
 30
0.0
 11
593.0
 21
193.1093738006888
 31
0.0
  0
LINE
  5
261
  8
1
  6
CONTINUOUS
 62
     7
 10
618.1617834407456
 20
193.1093738006888
 30
0.0
 11
601.8382165592544
 21
193.1093738006888
 31
0.0
  0
LINE
  5
262
  8
1
  6
CONTINUOUS
 62
     7
 10
627.0
 20
193.1093738006888
 30
0.0
 11
619.8382165592544
 21
193.1093738006888
 31
0.0
  0
ENDBLK
  8
0
  0
ENDSEC
  0
SECTION
  2
ENTITIES
  0
INSERT
  5
FB
  8
1
  6
CONTINUOUS
 62
     7
  2
D_FRAME_VIEW_1474
 10
0.0
 20
0.0
 30
0.0
  0
INSERT
  5
145
  8
1
  6
CONTINUOUS
 62
     7
  2
D_FRAME_VIEW_1935
 10
0.0
 20
0.0
 30
0.0
  0
TEXT
  5
146
  8
1
  6
CONTINUOUS
 62
     7
 10
650.345379517319
 20
204.1606352382143
 30
0.0
 40
8.0
  1
YHM-82
  0
POINT
  5
147
  8
1
 62
     1
 10
655.0
 20
310.0000000000001
 30
0.0
  0
POINT
  5
148
  8
1
 62
     7
 10
610.0
 20
180.0
 30
0.0
  0
POINT
  5
149
  8
1
 62
     1
 10
675.0
 20
200.0000000000001
 30
0.0
  0
LINE
  5
14A
  8
1
  6
CENTER
 62
     1
 10
475.0845094377617
 20
310.0000000000001
 30
0.0
 11
834.9154905622381
 21
310.0000000000001
 31
0.0
  0
LINE
  5
14C
  8
1
  6
CONTINUOUS
 62
     7
 10
680.4307237726565
 20
156.1107910843863
 30
0.0
 11
671.2790336107026
 21
145.6237015768785
 31
0.0
  0
LINE
  5
14D
  8
1
  6
CONTINUOUS
 62
     7
 10
727.8961550602442
 20
158.6364102473502
 30
0.0
 11
708.2
 21
162.1093738006888
 31
0.0
  0
LINE
  5
14E
  8
1
  6
CONTINUOUS
 62
     7
 10
612.6
 20
180.1002715874797
 30
0.0
 11
612.6
 21
183.2429693901516
 31
0.0
  0
LINE
  5
14F
  8
1
  6
CONTINUOUS
 62
     7
 10
679.8768501791235
 20
179.1244909591389
 30
0.0
 11
694.8147168199437
 21
191.6588493480264
 31
0.0
  0
LINE
  5
150
  8
1
  6
CONTINUOUS
 62
     7
 10
714.5
 20
185.6965382461934
 30
0.0
 11
714.5
 21
175.6965382461933
 31
0.0
  0
LINE
  5
151
  8
1
  6
CONTINUOUS
 62
     7
 10
802.1261042793469
 20
327.0000000000001
 30
0.0
 11
777.5740527322438
 21
327.0000000000001
 31
0.0
  0
LINE
  5
152
  8
1
  6
CONTINUOUS
 62
     7
 10
809.7499703058429
 20
305.0000000000001
 30
0.0
 11
805.5408058138237
 21
305.0000000000001
 31
0.0
  0
LINE
  5
153
  8
1
  6
CONTINUOUS
 62
     7
 10
502.879460021576
 20
320.0000000000001
 30
0.0
 11
775.9386089055504
 21
320.0000000000001
 31
0.0
  0
LINE
  5
154
  8
1
  6
CONTINUOUS
 62
     7
 10
502.879460021576
 20
300.0000000000001
 30
0.0
 11
699.3794600215759
 21
300.0000000000001
 31
0.0
  0
LINE
  5
155
  8
1
  6
CONTINUOUS
 62
     7
 10
774.5740527322438
 20
299.5000000000001
 30
0.0
 11
506.1848673109084
 21
299.5000000000001
 31
0.0
  0
LINE
  5
156
  8
1
  6
CONTINUOUS
 62
     7
 10
722.4214005507584
 20
155.3818446634318
 30
0.0
 11
721.2182755507586
 21
152.0951304631437
 31
0.0
  0
LINE
  5
157
  8
1
  6
CONTINUOUS
 62
     7
 10
735.2100475724668
 20
230.8082960901238
 30
0.0
 11
770.8794600215763
 21
230.8082960901238
 31
0.0
  0
LINE
  5
158
  8
1
  6
CONTINUOUS
 62
     7
 10
486.1848673109083
 20
233.0475271021727
 30
0.0
 11
506.1848673109083
 21
233.0475271021727
 31
0.0
  0
LINE
  5
159
  8
1
  6
CONTINUOUS
 62
     7
 10
607.4
 20
183.2429693901516
 30
0.0
 11
607.4
 21
180.1002715874797
 31
0.0
  0
LINE
  5
15A
  8
1
  6
CONTINUOUS
 62
     7
 10
727.8961550602442
 20
158.6364102473501
 30
0.0
 11
743.062606381538
 21
141.2568956764908
 31
0.0
  0
LINE
  5
15B
  8
1
  6
CONTINUOUS
 62
     7
 10
775.9386089055504
 20
300.0000000000001
 30
0.0
 11
704.379460021576
 21
300.0000000000001
 31
0.0
  0
LINE
  5
15C
  8
1
  6
CONTINUOUS
 62
     7
 10
682.103844939756
 20
158.6364102473501
 30
0.0
 11
666.9373936184621
 21
141.2568956764908
 31
0.0
  0
LINE
  5
15D
  8
1
  6
CONTINUOUS
 62
     7
 10
792.826104279347
 20
263.3610614133398
 30
0.0
 11
775.9386089055504
 21
253.6110614133397
 31
0.0
  0
LINE
  5
15E
  8
1
  6
CONTINUOUS
 62
     7
 10
738.7209663892975
 20
145.6237015768785
 30
0.0
 11
729.5692762273436
 21
156.1107910843863
 31
0.0
  0
LINE
  5
15F
  8
1
  6
CONTINUOUS
 62
     7
 10
708.2
 20
162.1093738006888
 30
0.0
 11
708.2
 21
190.6093738006888
 31
0.0
  0
LINE
  5
160
  8
1
  6
CONTINUOUS
 62
     7
 10
550.3005151117122
 20
227.8082960901243
 30
0.0
 11
730.4584049314398
 21
227.8082960901237
 31
0.0
  0
LINE
  5
161
  8
1
  6
CONTINUOUS
 62
     7
 10
687.5785994492417
 20
155.3818446634318
 30
0.0
 11
688.7817244492416
 21
152.0951304631437
 31
0.0
  0
LINE
  5
162
  8
1
  6
CONTINUOUS
 62
     7
 10
600.0
 20
159.8178270468513
 30
0.0
 11
600.0
 21
56.89062619931124
 31
0.0
  0
LINE
  5
163
  8
1
  6
CONTINUOUS
 62
     7
 10
620.0
 20
159.8178270468513
 30
0.0
 11
620.0
 21
56.89062619931124
 31
0.0
  0
LINE
  5
164
  8
1
  6
CONTINUOUS
 62
     7
 10
696.8716371709404
 20
189.2075071300457
 30
0.0
 11
681.9337705301203
 21
176.6731487411582
 31
0.0
  0
LINE
  5
165
  8
1
  6
CONTINUOUS
 62
     7
 10
705.0
 20
162.1093738006888
 30
0.0
 11
705.0
 21
190.6093738006888
 31
0.0
  0
LINE
  5
166
  8
1
  6
CONTINUOUS
 62
     7
 10
503.1848673109083
 20
293.0000000000001
 30
0.0
 11
478.6054539707625
 21
293.0000000000001
 31
0.0
  0
LINE
  5
167
  8
1
  6
CONTINUOUS
 62
     7
 10
805.5408058138237
 20
315.0000000000001
 30
0.0
 11
809.7499702995104
 21
315.0000000000001
 31
0.0
  0
LINE
  5
168
  8
1
  6
CONTINUOUS
 62
     7
 10
774.5740527322438
 20
297.9000000000001
 30
0.0
 11
506.1848673109084
 21
297.9000000000001
 31
0.0
  0
LINE
  5
169
  8
1
  6
CONTINUOUS
 62
     7
 10
794.5740527322438
 20
229.8475271021726
 30
0.0
 11
774.5740527322438
 21
229.8475271021726
 31
0.0
  0
LINE
  5
16A
  8
1
  6
CONTINUOUS
 62
     7
 10
481.2358942474008
 20
261.1145480630206
 30
0.0
 11
486.1848673109081
 21
233.0475271021727
 31
0.0
  0
LINE
  5
16B
  8
1
  6
CONTINUOUS
 62
     7
 10
627.0
 20
193.1093738006888
 30
0.0
 11
627.0
 21
156.0059699707119
 31
0.0
  0
LINE
  5
16C
  8
1
  6
CONTINUOUS
 62
     7
 10
774.5740527322438
 20
320.5000000000001
 30
0.0
 11
506.1848673109084
 21
320.5000000000001
 31
0.0
  0
LINE
  5
16D
  8
1
  6
CONTINUOUS
 62
     7
 10
503.1848673109083
 20
327.0000000000001
 30
0.0
 11
478.6054539707625
 21
327.0000000000001
 31
0.0
  0
LINE
  5
16E
  8
1
  6
CONTINUOUS
 62
     7
 10
774.5740527322438
 20
233.0475271021727
 30
0.0
 11
794.5740527322438
 21
233.0475271021727
 31
0.0
  0
LINE
  5
16F
  8
1
  6
CONTINUOUS
 62
     7
 10
483.0334825012691
 20
232.4918529336385
 30
0.0
 11
478.0845094377617
 21
260.5588738944864
 31
0.0
  0
LINE
  5
170
  8
1
  6
CONTINUOUS
 62
     7
 10
810.4823866071231
 20
253.1317866512606
 30
0.0
 11
808.7459048304532
 21
243.2837091211386
 31
0.0
  0
LINE
  5
171
  8
1
  6
CONTINUOUS
 62
     7
 10
802.194319631143
 20
242.4080771344158
 30
0.0
 11
804.6253941184801
 21
256.1953856765867
 31
0.0
  0
LINE
  5
172
  8
1
  6
CONTINUOUS
 62
     7
 10
704.379460021576
 20
227.8082960901238
 30
0.0
 11
704.379460021576
 21
231.3082960901238
 31
0.0
  0
LINE
  5
173
  8
1
  6
CONTINUOUS
 62
     7
 10
613.1999999999999
 20
172.1093738006887
 30
0.0
 11
613.1999999999999
 21
183.4611352072265
 31
0.0
  0
LINE
  5
174
  8
1
  6
CONTINUOUS
 62
     7
 10
802.1261042793469
 20
293.0000000000001
 30
0.0
 11
777.5740527322438
 21
293.0000000000001
 31
0.0
  0
LINE
  5
175
  8
1
  6
CONTINUOUS
 62
     7
 10
606.8
 20
172.1093738006887
 30
0.0
 11
606.8
 21
183.4611352072265
 31
0.0
  0
LINE
  5
176
  8
1
  6
CONTINUOUS
 62
     7
 10
774.5740527322438
 20
322.1
 30
0.0
 11
506.1848673109084
 21
322.1
 31
0.0
  0
LINE
  5
177
  8
1
  6
CONTINUOUS
 62
     7
 10
777.5386089055505
 20
250.8397801212296
 30
0.0
 11
794.426104279347
 21
260.5897801212296
 31
0.0
  0
LINE
  5
178
  8
1
  6
CONTINUOUS
 62
     7
 10
770.8794600215763
 20
231.2082960901238
 30
0.0
 11
732.5488594274763
 21
231.2082960901238
 31
0.0
  0
LINE
  5
179
  8
1
  6
CONTINUOUS
 62
     7
 10
506.1848673109083
 20
229.8475271021727
 30
0.0
 11
486.1848673109083
 21
229.8475271021729
 31
0.0
  0
LINE
  5
17A
  8
1
  6
CONTINUOUS
 62
     7
 10
593.0
 20
193.1093738006888
 30
0.0
 11
593.0
 21
156.0059699707119
 31
0.0
  0
LINE
  5
17B
  8
1
  6
CONTINUOUS
 62
     7
 10
709.5
 20
173.6965382461933
 30
0.0
 11
709.5
 21
187.6965382461934
 31
0.0
  0
LINE
  5
17C
  8
1
  6
CONTINUOUS
 62
     7
 10
702.3556741685343
 20
158.9579889910496
 30
0.0
 11
681.2574573741952
 21
155.2378041253713
 31
0.0
  0
LINE
  5
17D
  8
1
  6
CONTINUOUS
 62
     7
 10
707.6443258314658
 20
158.9579889910497
 30
0.0
 11
728.742542625805
 21
155.2378041253713
 31
0.0
  0
LINE
  5
17E
  8
1
  6
CONTINUOUS
 62
     7
 10
593.0
 20
162.1093738006888
 30
0.0
 11
627.0
 21
162.1093738006888
 31
0.0
  0
LINE
  5
17F
  8
1
  6
CONTINUOUS
 62
     7
 10
682.1038449397558
 20
158.6364102473502
 30
0.0
 11
701.8000000000001
 21
162.1093738006888
 31
0.0
  0
LINE
  5
180
  8
1
  6
CONTINUOUS
 62
     7
 10
550.3005151117122
 20
231.3082960901238
 30
0.0
 11
730.4584049314398
 21
231.3082960901238
 31
0.0
  0
LINE
  5
181
  8
1
  6
CONTINUOUS
 62
     7
 10
501.3794600215754
 20
229.3082960901242
 30
0.0
 11
501.3794600215754
 21
225.8082960901242
 31
0.0
  0
LINE
  5
182
  8
1
  6
CONTINUOUS
 62
     7
 10
769.380460121596
 20
230.4082960901238
 30
0.0
 11
737.8794600215759
 21
230.4082960901238
 31
0.0
  0
LINE
  5
183
  8
1
  6
CONTINUOUS
 62
     7
 10
769.380460121596
 20
231.6082960901238
 30
0.0
 11
737.8794600215759
 21
231.6082960901238
 31
0.0
  0
ARC
  5
184
  8
1
  6
CONTINUOUS
 62
     7
 10
705.0
 20
107.7898117665313
 30
0.0
 40
50.68043796584256
 50
110.105509787916
 51
69.89449021208401
  0
LINE
  5
185
  8
1
  6
CONTINUOUS
 62
     7
 10
511.3784599215559
 20
231.6082960901238
 30
0.0
 11
542.8794600215759
 21
231.6082960901238
 31
0.0
  0
LINE
  5
186
  8
1
  6
CONTINUOUS
 62
     7
 10
803.4745697100589
 20
242.1823345034488
 30
0.0
 11
805.905644197396
 21
255.9696430456197
 31
0.0
  0
LINE
  5
187
  8
1
  6
CONTINUOUS
 62
     7
 10
779.3794600215765
 20
229.3082960901242
 30
0.0
 11
779.3794600215765
 21
225.8082960901242
 31
0.0
  0
ARC
  5
188
  8
1
  6
CONTINUOUS
 62
     7
 10
705.0
 20
107.7898117665313
 30
0.0
 40
47.18043796584259
 50
110.105509787916
 51
69.89449021208404
  0
LINE
  5
189
  8
1
  6
CONTINUOUS
 62
     7
 10
548.2100606156756
 20
231.2082960901238
 30
0.0
 11
509.8794600215758
 21
231.2082960901238
 31
0.0
  0
ARC
  5
18A
  8
1
  6
CONTINUOUS
 62
     9
 10
610.0
 20
180.6965382461934
 30
0.0
 40
3.000000000000036
 50
150.0735651333858
 51
185.703341215607
  0
LINE
  5
18B
  8
1
  6
CONTINUOUS
 62
     7
 10
511.3784599215559
 20
230.4082960901238
 30
0.0
 11
542.8794600215759
 21
230.4082960901238
 31
0.0
  0
LINE
  5
18C
  8
1
  6
CONTINUOUS
 62
     7
 10
545.5488724706852
 20
230.8082960901238
 30
0.0
 11
509.8794600215758
 21
230.8082960901238
 31
0.0
  0
LINE
  5
18D
  8
1
  6
CONTINUOUS
 62
     7
 10
696.379460021576
 20
231.3082960901238
 30
0.0
 11
696.379460021576
 21
227.8082960901238
 31
0.0
  0
INSERT
  5
202
  8
1
  6
CONTINUOUS
 62
     7
  2
D_FRAME_VIEW_1933
 10
0.0
 20
0.0
 30
0.0
  0
INSERT
  5
263
  8
1
  6
CONTINUOUS
 62
     7
  2
D_FRAME_VIEW_2185
 10
0.0
 20
0.0
 30
0.0
  0
LINE
  5
264
  8
1
  6
CENTER
 62
     1
 10
705.0
 20
55.10937380068876
 30
0.0
 11
705.0
 21
200.0000000000001
 31
0.0
  0
LINE
  5
265
  8
1
  6
CENTER
 62
     1
 10
610.0
 20
200.0000000000001
 30
0.0
 11
610.0
 21
56.89062619931122
 31
0.0
  0
LINE
  5
266
  8
1
  6
CENTER
 62
     1
 10
652.3195620341576
 20
107.7898117665313
 30
0.0
 11
757.6804379658425
 21
107.7898117665313
 31
0.0
  0
ENDSEC
  0
EOF
