  0
SECTION
  2
HEADER
  9
$ACADVER
  1
AC1021
  9
$ACADMAINTVER
 70
    25
  9
$DWGCODEPAGE
  3
ANSI_932
  9
$INSBASE
 10
0.0
 20
0.0
 30
0.0
  9
$EXTMIN
 10
0.0
 20
0.0
 30
0.0
  9
$EXTMAX
 10
172.5
 20
185.0
 30
10.0
  9
$LIMMIN
 10
0.0
 20
0.0
  9
$LIMMAX
 10
12.0
 20
9.0
  9
$ORTHOMODE
 70
     0
  9
$REGENMODE
 70
     1
  9
$FILLMODE
 70
     1
  9
$QTEXTMODE
 70
     0
  9
$MIRRTEXT
 70
     1
  9
$LTSCALE
 40
1.0
  9
$ATTMODE
 70
     1
  9
$TEXTSIZE
 40
0.2
  9
$TRACEWID
 40
0.05
  9
$TEXTSTYLE
  7
Standard
  9
$CLAYER
  8
0
  9
$CELTYPE
  6
ByLayer
  9
$CECOLOR
 62
   256
  9
$CELTSCALE
 40
1.0
  9
$DISPSILH
 70
     0
  9
$DIMSCALE
 40
1.0
  9
$DIMASZ
 40
3.0
  9
$DIMEXO
 40
0.0625
  9
$DIMDLI
 40
0.38
  9
$DIMRND
 40
0.0
  9
$DIMDLE
 40
0.0
  9
$DIMEXE
 40
0.18
  9
$DIMTP
 40
0.0
  9
$DIMTM
 40
0.0
  9
$DIMTXT
 40
3.0
  9
$DIMCEN
 40
0.09
  9
$DIMTSZ
 40
0.0
  9
$DIMTOL
 70
     0
  9
$DIMLIM
 70
     0
  9
$DIMTIH
 70
     1
  9
$DIMTOH
 70
     1
  9
$DIMSE1
 70
     0
  9
$DIMSE2
 70
     0
  9
$DIMTAD
 70
     1
  9
$DIMZIN
 70
     0
  9
$DIMBLK
  1

  9
$DIMASO
 70
     1
  9
$DIMSHO
 70
     1
  9
$DIMPOST
  1

  9
$DIMAPOST
  1

  9
$DIMALT
 70
     0
  9
$DIMALTD
 70
     2
  9
$DIMALTF
 40
25.4
  9
$DIMLFAC
 40
1.0
  9
$DIMTOFL
 70
     0
  9
$DIMTVP
 40
0.0
  9
$DIMTIX
 70
     0
  9
$DIMSOXD
 70
     0
  9
$DIMSAH
 70
     0
  9
$DIMBLK1
  1

  9
$DIMBLK2
  1

  9
$DIMSTYLE
  2
Standard
  9
$DIMCLRD
 70
     0
  9
$DIMCLRE
 70
     0
  9
$DIMCLRT
 70
     0
  9
$DIMTFAC
 40
1.0
  9
$DIMGAP
 40
0.09
  9
$DIMJUST
 70
     0
  9
$DIMSD1
 70
     0
  9
$DIMSD2
 70
     0
  9
$DIMTOLJ
 70
     1
  9
$DIMTZIN
 70
     0
  9
$DIMALTZ
 70
     0
  9
$DIMALTTZ
 70
     0
  9
$DIMUPT
 70
     0
  9
$DIMDEC
 70
     2
  9
$DIMTDEC
 70
     4
  9
$DIMALTU
 70
     2
  9
$DIMALTTD
 70
     2
  9
$DIMTXSTY
  7
Standard
  9
$DIMAUNIT
 70
     0
  9
$DIMADEC
 70
     2
  9
$DIMALTRND
 40
0.0
  9
$DIMAZIN
 70
     0
  9
$DIMDSEP
 70
    46
  9
$DIMATFIT
 70
     3
  9
$DIMFRAC
 70
     0
  9
$DIMLDRBLK
  1

  9
$DIMLUNIT
 70
     2
  9
$DIMLWD
 70
    -2
  9
$DIMLWE
 70
    -2
  9
$DIMTMOVE
 70
     0
  9
$DIMFXL
 40
1.0
  9
$DIMFXLON
 70
     0
  9
$DIMJOGANG
 40
0.7853981633974483
  9
$DIMTFILL
 70
     0
  9
$DIMTFILLCLR
 70
     0
  9
$DIMARCSYM
 70
     0
  9
$DIMLTYPE
  6

  9
$DIMLTEX1
  6

  9
$DIMLTEX2
  6

  9
$LUNITS
 70
     2
  9
$LUPREC
 70
     4
  9
$SKETCHINC
 40
0.1
  9
$FILLETRAD
 40
0.5
  9
$AUNITS
 70
     0
  9
$AUPREC
 70
     0
  9
$MENU
  1
.
  9
$ELEVATION
 40
0.0
  9
$PELEVATION
 40
0.0
  9
$THICKNESS
 40
0.0
  9
$LIMCHECK
 70
     0
  9
$CHAMFERA
 40
0.5
  9
$CHAMFERB
 40
0.5
  9
$CHAMFERC
 40
1.0
  9
$CHAMFERD
 40
0.0
  9
$SKPOLY
 70
     0
  9
$TDCREATE
 40
2458880.446929491
  9
$TDUCREATE
 40
2458880.071929491
  9
$TDUPDATE
 40
2458880.446929502
  9
$TDUUPDATE
 40
2458880.071929502
  9
$TDINDWG
 40
0.0000000116
  9
$TDUSRTIMER
 40
0.0000000116
  9
$USRTIMER
 70
     1
  9
$ANGBASE
 50
0.0
  9
$ANGDIR
 70
     0
  9
$PDMODE
 70
     0
  9
$PDSIZE
 40
0.0
  9
$PLINEWID
 40
0.0
  9
$SPLFRAME
 70
     0
  9
$SPLINETYPE
 70
     6
  9
$SPLINESEGS
 70
     8
  9
$HANDSEED
  5
BD
  9
$SURFTAB1
 70
     6
  9
$SURFTAB2
 70
     6
  9
$SURFTYPE
 70
     6
  9
$SURFU
 70
     6
  9
$SURFV
 70
     6
  9
$UCSBASE
  2

  9
$UCSNAME
  2

  9
$UCSORG
 10
0.0
 20
0.0
 30
0.0
  9
$UCSXDIR
 10
1.0
 20
0.0
 30
0.0
  9
$UCSYDIR
 10
0.0
 20
1.0
 30
0.0
  9
$UCSORTHOREF
  2

  9
$UCSORTHOVIEW
 70
     0
  9
$UCSORGTOP
 10
0.0
 20
0.0
 30
0.0
  9
$UCSORGBOTTOM
 10
0.0
 20
0.0
 30
0.0
  9
$UCSORGLEFT
 10
0.0
 20
0.0
 30
0.0
  9
$UCSORGRIGHT
 10
0.0
 20
0.0
 30
0.0
  9
$UCSORGFRONT
 10
0.0
 20
0.0
 30
0.0
  9
$UCSORGBACK
 10
0.0
 20
0.0
 30
0.0
  9
$PUCSBASE
  2

  9
$PUCSNAME
  2

  9
$PUCSORG
 10
0.0
 20
0.0
 30
0.0
  9
$PUCSXDIR
 10
1.0
 20
0.0
 30
0.0
  9
$PUCSYDIR
 10
0.0
 20
1.0
 30
0.0
  9
$PUCSORTHOREF
  2

  9
$PUCSORTHOVIEW
 70
     0
  9
$PUCSORGTOP
 10
0.0
 20
0.0
 30
0.0
  9
$PUCSORGBOTTOM
 10
0.0
 20
0.0
 30
0.0
  9
$PUCSORGLEFT
 10
0.0
 20
0.0
 30
0.0
  9
$PUCSORGRIGHT
 10
0.0
 20
0.0
 30
0.0
  9
$PUCSORGFRONT
 10
0.0
 20
0.0
 30
0.0
  9
$PUCSORGBACK
 10
0.0
 20
0.0
 30
0.0
  9
$USERI1
 70
     0
  9
$USERI2
 70
     0
  9
$USERI3
 70
     0
  9
$USERI4
 70
     0
  9
$USERI5
 70
     0
  9
$USERR1
 40
0.0
  9
$USERR2
 40
0.0
  9
$USERR3
 40
0.0
  9
$USERR4
 40
0.0
  9
$USERR5
 40
0.0
  9
$WORLDVIEW
 70
     1
  9
$SHADEDGE
 70
     3
  9
$SHADEDIF
 70
    70
  9
$TILEMODE
 70
     1
  9
$MAXACTVP
 70
    64
  9
$PINSBASE
 10
0.0
 20
0.0
 30
0.0
  9
$PLIMCHECK
 70
     0
  9
$PEXTMIN
 10
1.000000000000000E+20
 20
1.000000000000000E+20
 30
1.000000000000000E+20
  9
$PEXTMAX
 10
-1.000000000000000E+20
 20
-1.000000000000000E+20
 30
-1.000000000000000E+20
  9
$PLIMMIN
 10
0.0
 20
0.0
  9
$PLIMMAX
 10
12.0
 20
9.0
  9
$UNITMODE
 70
     0
  9
$VISRETAIN
 70
     1
  9
$PLINEGEN
 70
     0
  9
$PSLTSCALE
 70
     1
  9
$TREEDEPTH
 70
  3020
  9
$CMLSTYLE
  2
Standard
  9
$CMLJUST
 70
     0
  9
$CMLSCALE
 40
1.0
  9
$PROXYGRAPHICS
 70
     1
  9
$MEASUREMENT
 70
     1
  9
$CELWEIGHT
370
    -1
  9
$ENDCAPS
280
     0
  9
$JOINSTYLE
280
     0
  9
$LWDISPLAY
290
     1
  9
$INSUNITS
 70
     4
  9
$HYPERLINKBASE
  1

  9
$STYLESHEET
  1

  9
$XEDIT
290
     1
  9
$CEPSNTYPE
380
     0
  9
$PSTYLEMODE
290
     1
  9
$FINGERPRINTGUID
  2
{52879256-44D4-4D6E-96D1-32BA8A889A9D}
  9
$VERSIONGUID
  2
{FAEB1C32-E019-11D5-929B-00C0DF256EC4}
  9
$EXTNAMES
290
     1
  9
$PSVPSCALE
 40
0.0
  9
$OLESTARTUP
290
     0
  9
$SORTENTS
280
   127
  9
$INDEXCTL
280
     0
  9
$HIDETEXT
280
     1
  9
$XCLIPFRAME
290
     0
  9
$HALOGAP
280
     0
  9
$OBSCOLOR
 70
   257
  9
$OBSLTYPE
280
     0
  9
$INTERSECTIONDISPLAY
280
     0
  9
$INTERSECTIONCOLOR
 70
   257
  9
$DIMASSOC
280
     2
  9
$PROJECTNAME
  1

  9
$CAMERADISPLAY
290
     0
  9
$LENSLENGTH
 40
50.0
  9
$CAMERAHEIGHT
 40
0.0
  9
$STEPSPERSEC
 40
2.0
  9
$STEPSIZE
 40
6.0
  9
$3DDWFPREC
 40
2.0
  9
$PSOLWIDTH
 40
0.25
  9
$PSOLHEIGHT
 40
4.0
  9
$LOFTANG1
 40
1.570796326794897
  9
$LOFTANG2
 40
1.570796326794897
  9
$LOFTMAG1
 40
0.0
  9
$LOFTMAG2
 40
0.0
  9
$LOFTPARAM
 70
     7
  9
$LOFTNORMALS
280
     1
  9
$LATITUDE
 40
37.795
  9
$LONGITUDE
 40
-122.394
  9
$NORTHDIRECTION
 40
0.0
  9
$TIMEZONE
 70
 -8000
  9
$LIGHTGLYPHDISPLAY
280
     1
  9
$TILEMODELIGHTSYNCH
280
     1
  9
$SOLIDHIST
280
     1
  9
$SHOWHIST
280
     1
  9
$DWFFRAME
280
     2
  9
$DGNFRAME
280
     2
  9
$REALWORLDSCALE
290
     1
  9
$INTERFERECOLOR
 62
   256
  9
$CSHADOW
280
     0
  9
$SHADOWPLANELOCATION
 40
0.0
  0
ENDSEC
  0
SECTION
  2
CLASSES
  0
CLASS
  1
ACDBDICTIONARYWDFLT
  2
AcDbDictionaryWithDefault
  3
ObjectDBX Classes
 90
        0
 91
        4
280
     0
281
     0
  0
CLASS
  1
VISUALSTYLE
  2
AcDbVisualStyle
  3
ObjectDBX Classes
 90
     4095
 91
        4
280
     0
281
     0
  0
ENDSEC
  0
SECTION
  2
TABLES
  0
TABLE
  2
VPORT
  5
8
330
0
100
AcDbSymbolTable
 70
     1
  0
VPORT
  5
29
330
8
100
AcDbSymbolTableRecord
100
AcDbViewportTableRecord
  2
*Active
 70
     0
 10
0.0
 20
0.0
 11
1.0
 21
1.0
 12
86.25
 22
92.5
 13
0.0
 23
0.0
 14
0.5
 24
0.5
 15
0.5
 25
0.5
 16
0.0
 26
0.0
 36
1.0
 17
0.0
 27
0.0
 37
0.0
 40
185.0
 41
1.6
 42
50.0
 43
0.0
 44
0.0
 50
0.0
 51
0.0
 71
     0
 72
   100
 73
     1
 74
     3
 75
     0
 76
     0
 77
     0
 78
     0
281
     0
 65
     1
110
0.0
120
0.0
130
0.0
111
1.0
121
0.0
131
0.0
112
0.0
122
1.0
132
0.0
 79
     0
146
0.0
 60
     3
 61
     5
292
     1
282
     1
141
0.0
142
0.0
 63
   250
  0
ENDTAB
  0
TABLE
  2
LTYPE
  5
5
330
0
100
AcDbSymbolTable
 70
     3
  0
LTYPE
  5
14
330
5
100
AcDbSymbolTableRecord
100
AcDbLinetypeTableRecord
  2
ByBlock
 70
     0
  3

 72
    65
 73
     0
 40
0.0
  0
LTYPE
  5
15
330
5
100
AcDbSymbolTableRecord
100
AcDbLinetypeTableRecord
  2
ByLayer
 70
     0
  3

 72
    65
 73
     0
 40
0.0
  0
LTYPE
  5
16
330
5
100
AcDbSymbolTableRecord
100
AcDbLinetypeTableRecord
  2
Continuous
 70
     0
  3
Solid line
 72
    65
 73
     0
 40
0.0
  0
LTYPE
  5
3C
330
5
100
AcDbSymbolTableRecord
100
AcDbLinetypeTableRecord
  2
________________
 70
     0
  3

 72
    65
 73
     0
 40
0.0
  0
LTYPE
  5
42
330
5
100
AcDbSymbolTableRecord
100
AcDbLinetypeTableRecord
  2
______....__....
 70
     0
  3

 72
    65
 73
     4
 40
6.0
 49
2.25
 74
     0
 49
-1.5
 74
     0
 49
0.7499999999999999
 74
     0
 49
-1.5
 74
     0
  0
ENDTAB
  0
TABLE
  2
LAYER
  5
2
330
0
100
AcDbSymbolTable
 70
     1
  0
LAYER
  5
10
330
2
100
AcDbSymbolTableRecord
100
AcDbLayerTableRecord
  2
0
 70
     0
 62
     7
  6
Continuous
370
    -3
390
F
347
0
  0
ENDTAB
  0
TABLE
  2
STYLE
  5
3
330
0
100
AcDbSymbolTable
 70
     1
  0
STYLE
  5
11
330
3
100
AcDbSymbolTableRecord
100
AcDbTextStyleTableRecord
  2
Standard
 70
     0
 40
0.0
 41
1.0
 50
0.0
 71
     0
 42
0.2
  3
txt
  4

  0
ENDTAB
  0
TABLE
  2
VIEW
  5
6
330
0
100
AcDbSymbolTable
 70
     0
  0
ENDTAB
  0
TABLE
  2
UCS
  5
7
330
0
100
AcDbSymbolTable
 70
     0
  0
ENDTAB
  0
TABLE
  2
APPID
  5
9
330
0
100
AcDbSymbolTable
 70
     1
  0
APPID
  5
12
330
9
100
AcDbSymbolTableRecord
100
AcDbRegAppTableRecord
  2
ACAD
 70
     0
  0
ENDTAB
  0
TABLE
  2
DIMSTYLE
  5
A
330
0
100
AcDbSymbolTable
 70
     1
100
AcDbDimStyleTable
  0
DIMSTYLE
105
27
330
A
100
AcDbSymbolTableRecord
100
AcDbDimStyleTableRecord
  2
Standard
 70
     0
340
11
  0
ENDTAB
  0
TABLE
  2
BLOCK_RECORD
  5
1
330
0
100
AcDbSymbolTable
 70
     1
  0
BLOCK_RECORD
  5
1F
330
1
100
AcDbSymbolTableRecord
100
AcDbBlockTableRecord
  2
*Model_Space
340
22
 70
     0
280
     1
281
     0
  0
BLOCK_RECORD
  5
1B
330
1
100
AcDbSymbolTableRecord
100
AcDbBlockTableRecord
  2
*Paper_Space
340
1E
 70
     0
280
     1
281
     0
  0
BLOCK_RECORD
  5
23
330
1
100
AcDbSymbolTableRecord
100
AcDbBlockTableRecord
  2
*Paper_Space0
340
26
 70
     0
280
     1
281
     0
  0
ENDTAB
  0
ENDSEC
  0
SECTION
  2
BLOCKS
  0
BLOCK
  5
20
330
1F
100
AcDbEntity
  8
0
100
AcDbBlockBegin
  2
*Model_Space
 70
     0
 10
0.0
 20
0.0
 30
0.0
  3
*Model_Space
  1

  0
ENDBLK
  5
21
330
1F
100
AcDbEntity
  8
0
100
AcDbBlockEnd
  0
BLOCK
  5
1C
330
1B
100
AcDbEntity
 67
     1
  8
0
100
AcDbBlockBegin
  2
*Paper_Space
 70
     0
 10
0.0
 20
0.0
 30
0.0
  3
*Paper_Space
  1

  0
ENDBLK
  5
1D
330
1B
100
AcDbEntity
 67
     1
  8
0
100
AcDbBlockEnd
  0
BLOCK
  5
24
330
23
100
AcDbEntity
  8
0
100
AcDbBlockBegin
  2
*Paper_Space0
 70
     0
 10
0.0
 20
0.0
 30
0.0
  3
*Paper_Space0
  1

  0
ENDBLK
  5
25
330
23
100
AcDbEntity
  8
0
100
AcDbBlockEnd
  0
ENDSEC
  0
SECTION
  2
ENTITIES
  0
ELLIPSE
  5
3B
330
1F
100
AcDbEntity
  8
0
  6
________________
 62
     7
370
     0
100
AcDbEllipse
 10
158.0
 20
146.5975173424574
 30
0.0
 11
-0.5000000000000004
 21
-9.079277993678661E-17
 31
0.0
210
0.0
220
0.0
230
1.0
 40
0.9475757071454113
 41
3.141592653589793
 42
4.71238898038469
  0
ELLIPSE
  5
3D
330
1F
100
AcDbEntity
  8
0
  6
________________
 62
     7
370
     0
100
AcDbEllipse
 10
152.0
 20
146.5975173424574
 30
0.0
 11
0.5000000000000004
 21
9.079277993678661E-17
 31
0.0
210
0.0
220
0.0
230
-1.0
 40
0.9475757071454112
 41
3.141592653589793
 42
4.71238898038469
  0
LINE
  5
3E
330
1F
100
AcDbEntity
  8
0
  6
________________
 62
     7
370
     0
100
AcDbLine
 10
152.0
 20
147.0713051960302
 30
0.0
 11
158.0
 21
147.0713051960302
 31
0.0
  0
LINE
  5
3F
330
1F
100
AcDbEntity
  8
0
  6
________________
 62
     7
370
     0
100
AcDbLine
 10
172.5
 20
126.7662761264257
 30
0.0
 11
172.5
 21
123.0162761264257
 31
0.0
  0
LINE
  5
40
330
1F
100
AcDbEntity
  8
0
  6
________________
 62
     7
370
     0
100
AcDbLine
 10
137.5
 20
126.7662761264257
 30
0.0
 11
137.5
 21
123.0162761264257
 31
0.0
  0
LINE
  5
41
330
1F
100
AcDbEntity
  8
0
  6
______....__....
 62
     1
420
 16711680
370
     0
100
AcDbLine
 10
76.94337654619176
 20
185.0
 30
0.0
 11
76.94337654619176
 21
120.0
 31
0.0
  0
LINE
  5
43
330
1F
100
AcDbEntity
  8
0
  6
________________
 62
     7
370
     0
100
AcDbLine
 10
93.94337654619174
 20
181.0162761264257
 30
0.0
 11
93.94337654619174
 21
176.5162761264257
 31
0.0
  0
LINE
  5
44
330
1F
100
AcDbEntity
  8
0
  6
________________
 62
     7
370
     0
100
AcDbLine
 10
93.94337654619176
 20
176.5162761264257
 30
0.0
 11
88.94337654619174
 21
176.5162761264257
 31
0.0
  0
LINE
  5
45
330
1F
100
AcDbEntity
  8
0
  6
________________
 62
     7
370
     0
100
AcDbLine
 10
88.94337654619174
 20
181.0162761264257
 30
0.0
 11
93.94337654619176
 21
181.0162761264257
 31
0.0
  0
LINE
  5
46
330
1F
100
AcDbEntity
  8
0
  6
________________
 62
     7
370
     0
100
AcDbLine
 10
88.54337654619175
 20
144.6080654942247
 30
0.0
 11
92.44049086322174
 21
142.3580654942247
 31
0.0
  0
LINE
  5
47
330
1F
100
AcDbEntity
  8
0
  6
________________
 62
     7
370
     0
100
AcDbLine
 10
86.04337654619175
 20
140.2779384753025
 30
0.0
 11
88.54337654619175
 21
144.6080654942247
 31
0.0
  0
LINE
  5
48
330
1F
100
AcDbEntity
  8
0
  6
________________
 62
     7
370
     0
100
AcDbLine
 10
92.44049086322174
 20
142.3580654942247
 30
0.0
 11
89.94049086322174
 21
138.0279384753025
 31
0.0
  0
ARC
  5
49
330
1F
100
AcDbEntity
  8
0
  6
________________
 62
     7
370
     0
100
AcDbCircle
 10
62.44337654619172
 20
173.5162761264257
 30
0.0
 40
3.000000000000003
100
AcDbArc
 50
89.99999999999962
 51
198.6345848774464
  0
LINE
  5
4A
330
1F
100
AcDbEntity
  8
0
  6
________________
 62
     7
370
     0
100
AcDbLine
 10
59.60064942475549
 20
172.5576820971042
 30
0.0
 11
74.10064942475552
 21
129.5576820971042
 31
0.0
  0
ARC
  5
4B
330
1F
100
AcDbEntity
  8
0
  6
________________
 62
     7
370
     0
100
AcDbCircle
 10
-76.94337654619176
 20
130.5162761264257
 30
0.0
 40
7.500000000000008
210
0.0
220
0.0
230
-1.0
100
AcDbArc
 50
210.0000000000004
 51
341.3654151225537
  0
ARC
  5
4C
330
1F
100
AcDbEntity
  8
0
  6
________________
 62
     7
370
     0
100
AcDbCircle
 10
-62.44337654619175
 20
173.5162761264257
 30
0.0
 40
7.499999999999996
210
0.0
220
0.0
230
-1.0
100
AcDbArc
 50
341.3654151225536
 51
90.00000000000006
  0
ARC
  5
4D
330
1F
100
AcDbEntity
  8
0
  6
________________
 62
     7
370
     0
100
AcDbCircle
 10
76.94337654619176
 20
130.5162761264257
 30
0.0
 40
3.000000000000007
100
AcDbArc
 50
198.6345848774465
 51
330.0000000000002
  0
LINE
  5
4E
330
1F
100
AcDbEntity
  8
0
  6
________________
 62
     7
370
     0
100
AcDbLine
 10
69.83655874260117
 20
128.1197910531219
 30
0.0
 11
55.33655874260117
 21
171.1197910531219
 31
0.0
  0
LINE
  5
4F
330
1F
100
AcDbEntity
  8
0
  6
________________
 62
     7
370
     0
100
AcDbLine
 10
79.54145275754506
 20
129.0162761264257
 30
0.0
 11
86.04337654619175
 21
140.2779384753025
 31
0.0
  0
LINE
  5
50
330
1F
100
AcDbEntity
  8
0
  6
________________
 62
     7
370
     0
100
AcDbLine
 10
62.44337654619176
 20
181.0162761264257
 30
0.0
 11
88.94337654619174
 21
181.0162761264257
 31
0.0
  0
LINE
  5
51
330
1F
100
AcDbEntity
  8
0
  6
________________
 62
     7
370
     0
100
AcDbLine
 10
88.94337654619174
 20
176.5162761264257
 30
0.0
 11
62.44337654619174
 21
176.5162761264257
 31
0.0
  0
LINE
  5
52
330
1F
100
AcDbEntity
  8
0
  6
________________
 62
     7
370
     0
100
AcDbLine
 10
89.94049086322174
 20
138.0279384753025
 30
0.0
 11
83.43856707457502
 21
126.7662761264257
 31
0.0
  0
LINE
  5
53
330
1F
100
AcDbEntity
  8
0
  6
________________
 62
     7
370
     0
100
AcDbLine
 10
142.5
 20
176.5162761264257
 30
0.0
 11
137.5
 21
176.5162761264257
 31
0.0
  0
LINE
  5
54
330
1F
100
AcDbEntity
  8
0
  6
________________
 62
     7
370
     0
100
AcDbLine
 10
137.5
 20
176.5162761264257
 30
0.0
 11
137.5
 21
181.0162761264257
 31
0.0
  0
LINE
  5
55
330
1F
100
AcDbEntity
  8
0
  6
________________
 62
     7
370
     0
100
AcDbLine
 10
137.5
 20
181.0162761264257
 30
0.0
 11
142.5
 21
181.0162761264257
 31
0.0
  0
LINE
  5
56
330
1F
100
AcDbEntity
  8
0
  6
________________
 62
     7
370
     0
100
AcDbLine
 10
172.5
 20
181.0162761264257
 30
0.0
 11
172.5
 21
176.5162761264257
 31
0.0
  0
LINE
  5
57
330
1F
100
AcDbEntity
  8
0
  6
________________
 62
     7
370
     0
100
AcDbLine
 10
172.5
 20
176.5162761264257
 30
0.0
 11
167.5
 21
176.5162761264257
 31
0.0
  0
LINE
  5
58
330
1F
100
AcDbEntity
  8
0
  6
________________
 62
     7
370
     0
100
AcDbLine
 10
167.5
 20
181.0162761264257
 30
0.0
 11
172.5
 21
181.0162761264257
 31
0.0
  0
LINE
  5
59
330
1F
100
AcDbEntity
  8
0
  6
________________
 62
     7
370
     0
100
AcDbLine
 10
167.5
 20
176.5162761264257
 30
0.0
 11
142.5
 21
176.5162761264257
 31
0.0
  0
LINE
  5
5A
330
1F
100
AcDbEntity
  8
0
  6
________________
 62
     7
370
     0
100
AcDbLine
 10
167.5
 20
181.0162761264257
 30
0.0
 11
142.5
 21
181.0162761264257
 31
0.0
  0
ELLIPSE
  5
5B
330
1F
100
AcDbEntity
  8
0
  6
________________
 62
     7
370
     0
100
AcDbEllipse
 10
167.5
 20
138.0279384753025
 30
0.0
 11
4.999999999999977
 21
2.474341578111852E-15
 31
0.0
210
0.0
220
0.0
230
1.0
 40
0.8660254037844386
 41
0.0
 42
1.570796326794897
  0
LINE
  5
5C
330
1F
100
AcDbEntity
  8
0
  6
________________
 62
     7
370
     0
100
AcDbLine
 10
172.5
 20
138.0279384753025
 30
0.0
 11
172.5
 21
126.7662761264257
 31
0.0
  0
LINE
  5
5D
330
1F
100
AcDbEntity
  8
0
  6
________________
 62
     7
370
     0
100
AcDbLine
 10
158.5
 20
140.6260146866558
 30
0.0
 11
158.5
 21
136.7818000849274
 31
0.0
  0
ELLIPSE
  5
5E
330
1F
100
AcDbEntity
  8
0
  6
________________
 62
     7
370
     0
100
AcDbEllipse
 10
160.5
 20
140.6260146866558
 30
0.0
 11
2.000000000000002
 21
-2.121150477449816E-16
 31
0.0
210
0.0
220
0.0
230
1.0
 40
0.8660254037844385
 41
1.570796326794897
 42
3.141592653589793
  0
LINE
  5
5F
330
1F
100
AcDbEntity
  8
0
  6
________________
 62
     7
370
     0
100
AcDbLine
 10
167.5
 20
142.3580654942247
 30
0.0
 11
160.5
 21
142.3580654942247
 31
0.0
  0
LINE
  5
60
330
1F
100
AcDbEntity
  8
0
  6
________________
 62
     7
370
     0
100
AcDbLine
 10
172.5
 20
140.2779384753025
 30
0.0
 11
172.5
 21
138.0279384753025
 31
0.0
  0
ELLIPSE
  5
61
330
1F
100
AcDbEntity
  8
0
  6
________________
 62
     7
370
     0
100
AcDbEllipse
 10
167.5
 20
140.2779384753025
 30
0.0
 11
-5.000000000000004
 21
5.302876193624545E-16
 31
0.0
210
0.0
220
0.0
230
-1.0
 40
0.8660254037844387
 41
1.570796326794897
 42
3.141592653589793
  0
LINE
  5
62
330
1F
100
AcDbEntity
  8
0
  6
________________
 62
     7
370
     0
100
AcDbLine
 10
137.5
 20
138.0279384753025
 30
0.0
 11
137.5
 21
126.7662761264257
 31
0.0
  0
ELLIPSE
  5
63
330
1F
100
AcDbEntity
  8
0
  6
________________
 62
     7
370
     0
100
AcDbEllipse
 10
142.5
 20
138.0279384753025
 30
0.0
 11
5.000000000000004
 21
-5.302876193624543E-16
 31
0.0
210
0.0
220
0.0
230
1.0
 40
0.8660254037844388
 41
1.570796326794897
 42
3.141592653589793
  0
LINE
  5
64
330
1F
100
AcDbEntity
  8
0
  6
________________
 62
     7
370
     0
100
AcDbLine
 10
142.5
 20
142.3580654942247
 30
0.0
 11
149.5
 21
142.3580654942247
 31
0.0
  0
ELLIPSE
  5
65
330
1F
100
AcDbEntity
  8
0
  6
________________
 62
     7
370
     0
100
AcDbEllipse
 10
149.5
 20
140.6260146866558
 30
0.0
 11
2.000000000000002
 21
1.273603725111090E-14
 31
0.0
210
0.0
220
0.0
230
1.0
 40
0.8660254037844387
 41
0.0
 42
1.570796326794896
  0
LINE
  5
66
330
1F
100
AcDbEntity
  8
0
  6
________________
 62
     7
370
     0
100
AcDbLine
 10
151.5
 20
140.6260146866558
 30
0.0
 11
151.5
 21
136.7818000849274
 31
0.0
  0
LINE
  5
67
330
1F
100
AcDbEntity
  8
0
  6
________________
 62
     7
370
     0
100
AcDbLine
 10
137.5
 20
138.0279384753025
 30
0.0
 11
137.5
 21
140.2779384753025
 31
0.0
  0
ELLIPSE
  5
68
330
1F
100
AcDbEntity
  8
0
  6
________________
 62
     7
370
     0
100
AcDbEllipse
 10
142.5
 20
140.2779384753025
 30
0.0
 11
-4.999999999999977
 21
5.302876193624507E-16
 31
0.0
210
0.0
220
0.0
230
-1.0
 40
0.8660254037844385
 41
0.0
 42
1.570796326794897
  0
LINE
  5
69
330
1F
100
AcDbEntity
  8
0
  6
________________
 62
     7
370
     0
100
AcDbLine
 10
142.5
 20
144.6080654942247
 30
0.0
 11
149.5
 21
144.6080654942247
 31
0.0
  0
LINE
  5
6A
330
1F
100
AcDbEntity
  8
0
  6
________________
 62
     7
370
     0
100
AcDbLine
 10
151.5
 20
142.8760146866559
 30
0.0
 11
151.5
 21
140.6260146866558
 31
0.0
  0
ELLIPSE
  5
6B
330
1F
100
AcDbEntity
  8
0
  6
________________
 62
     7
370
     0
100
AcDbEllipse
 10
149.5
 20
142.8760146866559
 30
0.0
 11
-2.000000000000002
 21
2.121150477449815E-16
 31
0.0
210
0.0
220
0.0
230
-1.0
 40
0.8660254037844386
 41
1.570796326794897
 42
3.141592653589793
  0
LINE
  5
6C
330
1F
100
AcDbEntity
  8
0
  6
________________
 62
     7
370
     0
100
AcDbLine
 10
167.5
 20
144.6080654942247
 30
0.0
 11
160.5
 21
144.6080654942247
 31
0.0
  0
LINE
  5
6D
330
1F
100
AcDbEntity
  8
0
  6
________________
 62
     7
370
     0
100
AcDbLine
 10
158.5
 20
140.6260146866558
 30
0.0
 11
158.5
 21
142.8760146866559
 31
0.0
  0
ELLIPSE
  5
6E
330
1F
100
AcDbEntity
  8
0
  6
________________
 62
     7
370
     0
100
AcDbEllipse
 10
160.5
 20
142.8760146866559
 30
0.0
 11
-2.000000000000002
 21
-3.376844163343117E-14
 31
0.0
210
0.0
220
0.0
230
-1.0
 40
0.8660254037844386
 41
0.0
 42
1.570796326794911
  0
LINE
  5
6F
330
1F
100
AcDbEntity
  8
0
  6
________________
 62
     7
370
     0
100
AcDbLine
 10
158.5
 20
148.0354083864397
 30
0.0
 11
158.5
 21
142.8760146866559
 31
0.0
  0
ELLIPSE
  5
70
330
1F
100
AcDbEntity
  8
0
  6
________________
 62
     7
370
     0
100
AcDbEllipse
 10
158.0
 20
148.0354083864397
 30
0.0
 11
0.5000000000000004
 21
9.079277993678325E-17
 31
0.0
210
0.0
220
0.0
230
-1.0
 40
0.9475757071454068
 41
-1.570796326794897
 42
0.0
  0
LINE
  5
71
330
1F
100
AcDbEntity
  8
0
  6
________________
 62
     7
370
     0
100
AcDbLine
 10
152.0
 20
148.5091962400124
 30
0.0
 11
158.0
 21
148.5091962400124
 31
0.0
  0
ELLIPSE
  5
72
330
1F
100
AcDbEntity
  8
0
  6
________________
 62
     7
370
     0
100
AcDbEllipse
 10
152.0
 20
148.0354083864397
 30
0.0
 11
-0.5000000000000004
 21
-9.079277993678325E-17
 31
0.0
210
0.0
220
0.0
230
1.0
 40
0.9475757071454068
 41
-1.570796326794897
 42
0.0
  0
LINE
  5
73
330
1F
100
AcDbEntity
  8
0
  6
________________
 62
     7
370
     0
100
AcDbLine
 10
151.5
 20
148.0354083864397
 30
0.0
 11
151.5
 21
142.8760146866559
 31
0.0
  0
LINE
  5
74
330
1F
100
AcDbEntity
  8
0
  6
________________
 62
     7
370
     0
100
AcDbLine
 10
137.5
 20
172.5576820971042
 30
0.0
 11
137.5
 21
140.2779384753025
 31
0.0
  0
LINE
  5
75
330
1F
100
AcDbEntity
  8
0
  6
________________
 62
     7
370
     0
100
AcDbLine
 10
172.5
 20
172.5576820971042
 30
0.0
 11
172.5
 21
140.2779384753025
 31
0.0
  0
LINE
  5
76
330
1F
100
AcDbEntity
  8
0
  6
________________
 62
     7
370
     0
100
AcDbLine
 10
137.5
 20
172.5576820971042
 30
0.0
 11
137.5
 21
176.5162761264257
 31
0.0
  0
LINE
  5
77
330
1F
100
AcDbEntity
  8
0
  6
________________
 62
     7
370
     0
100
AcDbLine
 10
172.5
 20
172.5576820971042
 30
0.0
 11
172.5
 21
176.5162761264257
 31
0.0
  0
LINE
  5
78
330
1F
100
AcDbEntity
  8
0
  6
________________
 62
     7
370
     0
100
AcDbLine
 10
137.5
 20
123.0162761264257
 30
0.0
 11
152.0
 21
123.0162761264257
 31
0.0
  0
LINE
  5
79
330
1F
100
AcDbEntity
  8
0
  6
________________
 62
     7
370
     0
100
AcDbLine
 10
158.0
 20
123.0162761264257
 30
0.0
 11
172.5
 21
123.0162761264257
 31
0.0
  0
LINE
  5
7A
330
1F
100
AcDbEntity
  8
0
  6
______....__....
 62
     1
420
 16711680
370
     0
100
AcDbLine
 10
76.94337654619176
 20
125.5162761264257
 30
0.0
 11
76.94337654619176
 21
135.5162761264257
 31
0.0
  0
LINE
  5
7B
330
1F
100
AcDbEntity
  8
0
  6
______....__....
 62
     1
420
 16711680
370
     0
100
AcDbLine
 10
155.0
 20
121.0162761264257
 30
0.0
 11
155.0
 21
183.0162761264257
 31
0.0
  0
LINE
  5
7C
330
1F
100
AcDbEntity
  8
0
  6
________________
 62
     7
370
     0
100
AcDbLine
 10
66.0355664133376
 20
129.2530339119205
 30
0.0
 11
66.06859449919517
 21
129.2650551520674
 31
0.0
  0
LINE
  5
7D
330
1F
100
AcDbEntity
  8
0
  6
________________
 62
     7
370
     0
100
AcDbLine
 10
63.64142541005792
 20
135.8308822574218
 30
0.0
 11
63.67445349591549
 21
135.8429034975688
 31
0.0
  0
LINE
  5
7E
330
1F
100
AcDbEntity
  8
0
  6
________________
 62
     7
370
     0
100
AcDbLine
 10
69.83512264415128
 20
126.9113370796916
 30
0.0
 11
65.04684063759194
 21
140.0670337706943
 31
0.0
  0
ARC
  5
7F
330
1F
100
AcDbEntity
  8
0
  6
________________
 62
     7
370
     0
100
AcDbCircle
 10
-72.37436789999778
 20
135.2847911776529
 30
0.0
 40
8.717797887081367
210
0.0
220
0.0
230
-1.0
100
AcDbArc
 50
316.3294211743469
 51
321.612221216506
  0
LWPOLYLINE
  5
80
330
1F
100
AcDbEntity
  8
0
  6
________________
 62
     7
370
     0
100
AcDbPolyline
 90
        6
 70
     0
 43
0.0
 10
64.85709157164955
 20
131.7505930220232
 10
64.76099056424287
 20
131.6745612000085
 10
64.72299475692486
 20
131.565651253508
 10
64.71953727156992
 20
131.458858611139
 10
64.7381172664274
 20
131.3278558886242
 42
0.1010740393958812
 10
65.5411318583009
 20
129.8712077804514
  0
LINE
  5
81
330
1F
100
AcDbEntity
  8
0
  6
________________
 62
     7
370
     0
100
AcDbLine
 10
64.85709157164956
 20
131.7505930220232
 30
0.0
 11
65.1280391050496
 21
131.8492098592287
 31
0.0
  0
ARC
  5
82
330
1F
100
AcDbEntity
  8
0
  6
________________
 62
     7
370
     0
100
AcDbCircle
 10
72.37436789999778
 20
135.2847911776529
 30
0.0
 40
8.019507466172753
100
AcDbArc
 50
194.6337448013132
 51
205.366255198687
  0
LINE
  5
83
330
1F
100
AcDbEntity
  8
0
  6
________________
 62
     7
370
     0
100
AcDbLine
 10
64.61500889006108
 20
133.2587487904075
 30
0.0
 11
64.34406135666104
 21
133.1601319532021
 31
0.0
  0
LWPOLYLINE
  5
84
330
1F
100
AcDbEntity
  8
0
  6
________________
 62
     7
370
     0
100
AcDbPolyline
 90
        6
 70
     0
 43
0.0
 10
63.66002107000972
 20
135.0395171947739
 42
0.1081647399316651
 10
64.00186708395815
 20
133.3704918644676
 10
64.06608195018622
 20
133.2757887985108
 10
64.15681742650675
 20
133.1886242480664
 10
64.26537604778181
 20
133.1483946732412
 10
64.34406135666104
 20
133.1601319532021
  0
ARC
  5
85
330
1F
100
AcDbEntity
  8
0
  6
________________
 62
     7
370
     0
100
AcDbCircle
 10
-72.37436789999778
 20
135.2847911776529
 30
0.0
 40
8.717797887081378
210
0.0
220
0.0
230
-1.0
100
AcDbArc
 50
358.3877787834936
 51
3.670578825652626
  0
LINE
  5
86
330
1F
100
AcDbEntity
  8
0
  6
________________
 62
     7
370
     0
100
AcDbLine
 10
68.69226052961396
 20
131.513227133015
 30
0.0
 11
65.51668694798498
 21
140.2380438423573
 31
0.0
  0
LINE
  5
87
330
1F
100
AcDbEntity
  8
0
  6
________________
 62
     7
370
     0
100
AcDbLine
 10
105.0566234538082
 20
124.1798762962809
 30
0.0
 11
102.0566234538083
 21
118.9837238735742
 31
0.0
  0
LINE
  5
88
330
1F
100
AcDbEntity
  8
0
  6
________________
 62
     7
370
     0
100
AcDbLine
 10
89.8227179184978
 20
137.5939779114185
 30
0.0
 11
82.82271791849791
 21
125.4696222584363
 31
0.0
  0
LINE
  5
89
330
1F
100
AcDbEntity
  8
0
  6
________________
 62
     7
370
     0
100
AcDbLine
 10
90.51553824152535
 20
137.1939779114185
 30
0.0
 11
83.51553824152548
 21
125.0696222584363
 31
0.0
  0
LINE
  5
8A
330
1F
100
AcDbEntity
  8
0
  6
________________
 62
     7
370
     0
100
AcDbLine
 10
94.01887034120449
 20
132.8619271038496
 30
0.0
 11
91.51887034120453
 21
128.5318000849274
 31
0.0
  0
LINE
  5
8B
330
1F
100
AcDbEntity
  8
0
  6
________________
 62
     7
370
     0
100
AcDbLine
 10
87.0155382415254
 20
131.1318000849274
 30
0.0
 11
91.51887034120453
 21
128.5318000849274
 31
0.0
  0
LINE
  5
8C
330
1F
100
AcDbEntity
  8
0
  6
________________
 62
     7
370
     0
100
AcDbLine
 10
89.51553824152538
 20
135.4619271038496
 30
0.0
 11
94.01887034120449
 21
132.8619271038496
 31
0.0
  0
LINE
  5
8D
330
1F
100
AcDbEntity
  8
0
  6
________________
 62
     7
370
     0
100
AcDbLine
 10
84.51553824152546
 20
126.8016730660052
 30
0.0
 11
89.01887034120456
 21
124.2016730660052
 31
0.0
  0
LINE
  5
8E
330
1F
100
AcDbEntity
  8
0
  6
________________
 62
     7
370
     0
100
AcDbLine
 10
91.51887034120453
 20
128.5318000849274
 30
0.0
 11
89.01887034120456
 21
124.2016730660052
 31
0.0
  0
ARC
  5
8F
330
1F
100
AcDbEntity
  8
0
  6
________________
 62
     7
370
     0
100
AcDbCircle
 10
72.37436789999778
 20
135.2847911776529
 30
0.0
 40
8.750000000000018
100
AcDbArc
 50
146.8698976458451
 51
176.4218215217984
  0
ARC
  5
90
330
1F
100
AcDbEntity
  8
0
  6
________________
 62
     7
370
     0
100
AcDbCircle
 10
72.37436789999778
 20
135.2847911776529
 30
0.0
 40
8.750000000000025
100
AcDbArc
 50
223.5781784782019
 51
253.130102354155
  0
LINE
  5
91
330
1F
100
AcDbEntity
  8
0
  6
________________
 62
     7
370
     0
100
AcDbLine
 10
69.8351226441513
 20
126.9113370796916
 30
0.0
 11
70.28031280719057
 21
127.0733730476261
 31
0.0
  0
LINE
  5
92
330
1F
100
AcDbEntity
  8
0
  6
________________
 62
     7
370
     0
100
AcDbLine
 10
65.51668694798498
 20
140.2380438423573
 30
0.0
 11
65.04684063759193
 21
140.0670337706944
 31
0.0
  0
LINE
  5
93
330
1F
100
AcDbEntity
  8
0
  6
________________
 62
     7
370
     0
100
AcDbLine
 10
105.0566234538082
 20
124.1798762962809
 30
0.0
 11
93.0188876617126
 21
131.1298662962808
 31
0.0
  0
LINE
  5
94
330
1F
100
AcDbEntity
  8
0
  6
________________
 62
     7
370
     0
100
AcDbLine
 10
87.82270059791573
 20
134.1298862963234
 30
0.0
 11
87.72313719075866
 21
134.187369256247
 31
0.0
  0
LINE
  5
95
330
1F
100
AcDbEntity
  8
0
  6
________________
 62
     7
370
     0
100
AcDbLine
 10
84.72313719075866
 20
128.9912168335404
 30
0.0
 11
84.82270059791578
 21
128.9337338736168
 31
0.0
  0
LINE
  5
96
330
1F
100
AcDbEntity
  8
0
  6
________________
 62
     7
370
     0
100
AcDbLine
 10
90.01888766171265
 20
125.9337138735741
 30
0.0
 11
102.0566234538083
 21
118.9837238735742
 31
0.0
  0
LINE
  5
97
330
1F
100
AcDbEntity
  8
0
  6
________________
 62
     7
370
     0
100
AcDbLine
 10
77.90398909938975
 20
133.3901340350878
 30
0.0
 11
81.02602287372865
 21
131.5876269950542
 31
0.0
  0
LINE
  5
98
330
1F
100
AcDbEntity
  8
0
  6
________________
 62
     7
370
     0
100
AcDbLine
 10
83.62602287372864
 20
136.0909590947332
 30
0.0
 11
80.50398909938968
 21
137.8934661347669
 31
0.0
  0
ARC
  5
99
330
1F
100
AcDbEntity
  8
0
  6
________________
 62
     7
370
     0
100
AcDbCircle
 10
-76.40398909938978
 20
130.7920578237345
 30
0.0
 40
2.999999999999992
210
0.0
220
0.0
230
-1.0
100
AcDbArc
 50
69.99999999999996
 51
119.9999999999992
  0
ARC
  5
9A
330
1F
100
AcDbEntity
  8
0
  6
________________
 62
     7
370
     0
100
AcDbCircle
 10
76.40398909938978
 20
130.7920578237345
 30
0.0
 40
8.200000000000005
100
AcDbArc
 50
60.00000000000075
 51
110.0
  0
LINE
  5
9B
330
1F
100
AcDbEntity
  8
0
  6
________________
 62
     7
370
     0
100
AcDbLine
 10
73.02283730221824
 20
132.7539525294561
 30
0.0
 11
75.37792866941278
 21
133.6111356860922
 31
0.0
  0
LINE
  5
9C
330
1F
100
AcDbEntity
  8
0
  6
________________
 62
     7
370
     0
100
AcDbLine
 10
73.59942392411931
 20
138.4975373141789
 30
0.0
 11
71.36080239223502
 21
137.6827457107856
 31
0.0
  0
LINE
  5
9D
330
1F
100
AcDbEntity
  8
0
  6
________________
 62
     7
370
     0
100
AcDbLine
 10
67.13098456479734
 20
136.1432179252298
 30
0.0
 11
67.02157557861797
 21
136.1033963108992
 31
0.0
  0
LINE
  5
9E
330
1F
100
AcDbEntity
  8
0
  6
________________
 62
     7
370
     0
100
AcDbLine
 10
82.82271791849793
 20
125.4696222584363
 30
0.0
 11
83.51553824152548
 21
125.0696222584363
 31
0.0
  0
LINE
  5
9F
330
1F
100
AcDbEntity
  8
0
  6
________________
 62
     7
370
     0
100
AcDbLine
 10
90.51553824152535
 20
137.1939779114185
 30
0.0
 11
89.8227179184978
 21
137.5939779114185
 31
0.0
  0
ELLIPSE
  5
A0
330
1F
100
AcDbEntity
  8
0
  6
________________
 62
     7
370
     0
100
AcDbEllipse
 10
155.0
 20
121.5818000849276
 30
0.0
 11
3.000000000000003
 21
-3.181725716174810E-16
 31
0.0
210
0.0
220
0.0
230
1.0
 40
0.8660254037844449
 41
-1.570796326794897
 42
0.0
  0
ELLIPSE
  5
A1
330
1F
100
AcDbEntity
  8
0
  6
________________
 62
     7
370
     0
100
AcDbEllipse
 10
155.0
 20
121.5818000849276
 30
0.0
 11
3.000000000000003
 21
-3.181725716174803E-16
 31
0.0
210
0.0
220
0.0
230
1.0
 40
0.866025403784444
 41
3.141592653589793
 42
4.71238898038469
  0
ELLIPSE
  5
A2
330
1F
100
AcDbEntity
  8
0
  6
________________
 62
     7
370
     0
100
AcDbEllipse
 10
155.0
 20
121.5818000849276
 30
0.0
 11
3.000000000000003
 21
-3.181725716174803E-16
 31
0.0
210
0.0
220
0.0
230
1.0
 40
0.866025403784444
 41
0.0
 42
3.141592653589793
  0
ELLIPSE
  5
A3
330
1F
100
AcDbEntity
  8
0
  6
________________
 62
     7
370
     0
100
AcDbEllipse
 10
155.0
 20
133.6601954968559
 30
0.0
 11
7.000000000000006
 21
1.177641299612657E-15
 31
0.0
210
0.0
220
0.0
230
-1.0
 40
0.939692620785908
 41
-1.570796326794897
 42
-1.047197551196598
  0
ELLIPSE
  5
A4
330
1F
100
AcDbEntity
  8
0
  6
________________
 62
     7
370
     0
100
AcDbEllipse
 10
155.0
 20
133.6601954968559
 30
0.0
 11
7.000000000000006
 21
1.177641299612657E-15
 31
0.0
210
0.0
220
0.0
230
-1.0
 40
0.9396926207859088
 41
-2.094395102393196
 42
-1.570796326794897
  0
LINE
  5
A5
330
1F
100
AcDbEntity
  8
0
  6
________________
 62
     7
370
     0
100
AcDbLine
 10
149.2264973081037
 20
128.5318000849274
 30
0.0
 11
152.0
 21
124.371546047083
 31
0.0
  0
LINE
  5
A6
330
1F
100
AcDbEntity
  8
0
  6
________________
 62
     7
370
     0
100
AcDbLine
 10
152.1132486540519
 20
132.8619271038496
 30
0.0
 11
149.2264973081037
 21
128.5318000849274
 31
0.0
  0
LINE
  5
A7
330
1F
100
AcDbEntity
  8
0
  6
________________
 62
     7
370
     0
100
AcDbLine
 10
157.8867513459481
 20
132.8619271038496
 30
0.0
 11
152.1132486540519
 21
132.8619271038496
 31
0.0
  0
LINE
  5
A8
330
1F
100
AcDbEntity
  8
0
  6
________________
 62
     7
370
     0
100
AcDbLine
 10
160.7735026918963
 20
128.5318000849274
 30
0.0
 11
157.8867513459481
 21
132.8619271038496
 31
0.0
  0
LINE
  5
A9
330
1F
100
AcDbEntity
  8
0
  6
________________
 62
     7
370
     0
100
AcDbLine
 10
158.0
 20
124.371546047083
 30
0.0
 11
160.7735026918963
 21
128.5318000849274
 31
0.0
  0
LINE
  5
AA
330
1F
100
AcDbEntity
  8
0
  6
________________
 62
     7
370
     0
100
AcDbLine
 10
149.2264973081037
 20
131.1318000849274
 30
0.0
 11
149.2264973081037
 21
128.5318000849274
 31
0.0
  0
LINE
  5
AB
330
1F
100
AcDbEntity
  8
0
  6
________________
 62
     7
370
     0
100
AcDbLine
 10
152.1132486540519
 20
135.4619271038496
 30
0.0
 11
149.2264973081037
 21
131.1318000849274
 31
0.0
  0
LINE
  5
AC
330
1F
100
AcDbEntity
  8
0
  6
________________
 62
     7
370
     0
100
AcDbLine
 10
152.1132486540519
 20
135.4619271038496
 30
0.0
 11
152.1132486540519
 21
132.8619271038496
 31
0.0
  0
LINE
  5
AD
330
1F
100
AcDbEntity
  8
0
  6
________________
 62
     7
370
     0
100
AcDbLine
 10
157.8867513459481
 20
135.4619271038496
 30
0.0
 11
157.8867513459481
 21
132.8619271038496
 31
0.0
  0
LINE
  5
AE
330
1F
100
AcDbEntity
  8
0
  6
________________
 62
     7
370
     0
100
AcDbLine
 10
160.7735026918963
 20
131.1318000849274
 30
0.0
 11
157.8867513459481
 21
135.4619271038496
 31
0.0
  0
LINE
  5
AF
330
1F
100
AcDbEntity
  8
0
  6
________________
 62
     7
370
     0
100
AcDbLine
 10
160.7735026918963
 20
131.1318000849274
 30
0.0
 11
160.7735026918963
 21
128.5318000849274
 31
0.0
  0
LINE
  5
B0
330
1F
100
AcDbEntity
  8
0
  6
________________
 62
     7
370
     0
100
AcDbLine
 10
157.8867513459481
 20
135.4619271038496
 30
0.0
 11
152.1132486540519
 21
135.4619271038496
 31
0.0
  0
ELLIPSE
  5
B1
330
1F
100
AcDbEntity
  8
0
  6
________________
 62
     7
370
     0
100
AcDbEllipse
 10
155.0
 20
131.5318000849274
 30
0.0
 11
7.000000000000006
 21
1.127611412279014E-14
 31
0.0
210
0.0
220
0.0
230
1.0
 40
0.8660254037844448
 41
0.0
 42
3.141592653589797
  0
ELLIPSE
  5
B2
330
1F
100
AcDbEntity
  8
0
  6
________________
 62
     7
370
     0
100
AcDbEllipse
 10
155.0
 20
131.1318000849274
 30
0.0
 11
7.000000000000006
 21
-7.424026671074544E-16
 31
0.0
210
0.0
220
0.0
230
1.0
 40
0.8660254037844448
 41
3.141592653589793
 42
4.045014898411324
  0
ELLIPSE
  5
B3
330
1F
100
AcDbEntity
  8
0
  6
________________
 62
     7
370
     0
100
AcDbEllipse
 10
155.0
 20
131.1318000849274
 30
0.0
 11
7.000000000000006
 21
-7.424026671074544E-16
 31
0.0
210
0.0
220
0.0
230
1.0
 40
0.8660254037844448
 41
0.0
 42
3.141592653589793
  0
ELLIPSE
  5
B4
330
1F
100
AcDbEntity
  8
0
  6
________________
 62
     7
370
     0
100
AcDbEllipse
 10
155.0
 20
131.1318000849274
 30
0.0
 11
7.000000000000006
 21
1.200487625986607E-15
 31
0.0
210
0.0
220
0.0
230
1.0
 40
0.8660254037844448
 41
-0.9034222448215347
 42
0.0
  0
LINE
  5
B5
330
1F
100
AcDbEntity
  8
0
  6
________________
 62
     7
370
     0
100
AcDbLine
 10
158.0
 20
121.5818000849276
 30
0.0
 11
158.0
 21
133.5818000849274
 31
0.0
  0
LINE
  5
B6
330
1F
100
AcDbEntity
  8
0
  6
________________
 62
     7
370
     0
100
AcDbLine
 10
152.0
 20
133.5818000849274
 30
0.0
 11
152.0
 21
121.5818000849276
 31
0.0
  0
ARC
  5
B7
330
1F
100
AcDbEntity
  8
0
  6
________________
 62
     7
370
     0
100
AcDbCircle
 10
155.0
 20
136.3920578237345
 30
0.0
 40
2.600000000000005
100
AcDbArc
 50
18.19835824147194
 51
161.801641758528
  0
LINE
  5
B8
330
1F
100
AcDbEntity
  8
0
  6
________________
 62
     7
370
     0
100
AcDbLine
 10
148.0
 20
131.5318000849274
 30
0.0
 11
148.0
 21
131.1318000849274
 31
0.0
  0
LINE
  5
B9
330
1F
100
AcDbEntity
  8
0
  6
________________
 62
     7
370
     0
100
AcDbLine
 10
162.0
 20
131.1318000849274
 30
0.0
 11
162.0
 21
131.5318000849274
 31
0.0
  0
MTEXT
  5
BA
330
1F
100
AcDbEntity
  8
0
 62
     7
100
AcDbMText
 10
110.0613636363636
 20
107.3727272727272
 30
0.0
 40
3.0
 41
0.0
 46
0.0
 71
     1
 72
     1
  1
{\FＭＳ ゴシック;YKH-TB}
 73
     1
 44
1.0
  0
ENDSEC
  0
SECTION
  2
OBJECTS
  0
DICTIONARY
  5
C
330
0
100
AcDbDictionary
281
     1
  3
ACAD_GROUP
350
D
  3
ACAD_LAYOUT
350
1A
  3
ACAD_MLEADERSTYLE
350
BC
  3
ACAD_MLINESTYLE
350
17
  3
ACAD_PLOTSETTINGS
350
19
  3
ACAD_PLOTSTYLENAME
350
E
  3
ACAD_TABLESTYLE
350
BB
  3
ACAD_VISUALSTYLE
350
2A
  0
DICTIONARY
  5
D
102
{ACAD_REACTORS
330
C
102
}
330
C
100
AcDbDictionary
281
     1
  0
DICTIONARY
  5
1A
102
{ACAD_REACTORS
330
C
102
}
330
C
100
AcDbDictionary
281
     1
  3
Layout1
350
1E
  3
Layout2
350
26
  3
Model
350
22
  0
DICTIONARY
  5
BC
102
{ACAD_REACTORS
330
C
102
}
330
C
100
AcDbDictionary
281
     1
  0
DICTIONARY
  5
17
102
{ACAD_REACTORS
330
C
102
}
330
C
100
AcDbDictionary
281
     1
  3
Standard
350
18
  0
DICTIONARY
  5
19
102
{ACAD_REACTORS
330
C
102
}
330
C
100
AcDbDictionary
281
     1
  0
ACDBDICTIONARYWDFLT
  5
E
102
{ACAD_REACTORS
330
C
102
}
330
C
100
AcDbDictionary
281
     1
  3
Normal
350
F
100
AcDbDictionaryWithDefault
340
F
  0
DICTIONARY
  5
BB
102
{ACAD_REACTORS
330
C
102
}
330
C
100
AcDbDictionary
281
     1
  0
DICTIONARY
  5
2A
102
{ACAD_REACTORS
330
C
102
}
330
C
100
AcDbDictionary
281
     1
  3
2dWireframe
350
2F
  3
3D Hidden
350
31
  3
3dWireframe
350
30
  3
Basic
350
32
  3
Brighten
350
36
  3
ColorChange
350
3A
  3
Conceptual
350
34
  3
Dim
350
35
  3
Facepattern
350
39
  3
Flat
350
2B
  3
FlatWithEdges
350
2C
  3
Gouraud
350
2D
  3
GouraudWithEdges
350
2E
  3
Linepattern
350
38
  3
Realistic
350
33
  3
Thicken
350
37
  0
LAYOUT
  5
1E
102
{ACAD_REACTORS
330
1A
102
}
330
1A
100
AcDbPlotSettings
  1

  2
none_device
  4

  6

 40
0.0
 41
0.0
 42
0.0
 43
0.0
 44
0.0
 45
0.0
 46
0.0
 47
0.0
 48
0.0
 49
0.0
140
0.0
141
0.0
142
1.0
143
1.0
 70
   688
 72
     0
 73
     0
 74
     5
  7

 75
    16
 76
     0
 77
     2
 78
   300
147
1.0
148
0.0
149
0.0
100
AcDbLayout
  1
Layout1
 70
     1
 71
     1
 10
0.0
 20
0.0
 11
12.0
 21
9.0
 12
0.0
 22
0.0
 32
0.0
 14
1.000000000000000E+20
 24
1.000000000000000E+20
 34
1.000000000000000E+20
 15
-1.000000000000000E+20
 25
-1.000000000000000E+20
 35
-1.000000000000000E+20
146
0.0
 13
0.0
 23
0.0
 33
0.0
 16
1.0
 26
0.0
 36
0.0
 17
0.0
 27
1.0
 37
0.0
 76
     0
330
1B
  0
LAYOUT
  5
26
102
{ACAD_REACTORS
330
1A
102
}
330
1A
100
AcDbPlotSettings
  1

  2
none_device
  4

  6

 40
0.0
 41
0.0
 42
0.0
 43
0.0
 44
0.0
 45
0.0
 46
0.0
 47
0.0
 48
0.0
 49
0.0
140
0.0
141
0.0
142
1.0
143
1.0
 70
   688
 72
     0
 73
     0
 74
     5
  7

 75
    16
 76
     0
 77
     2
 78
   300
147
1.0
148
0.0
149
0.0
100
AcDbLayout
  1
Layout2
 70
     1
 71
     2
 10
0.0
 20
0.0
 11
0.0
 21
0.0
 12
0.0
 22
0.0
 32
0.0
 14
0.0
 24
0.0
 34
0.0
 15
0.0
 25
0.0
 35
0.0
146
0.0
 13
0.0
 23
0.0
 33
0.0
 16
1.0
 26
0.0
 36
0.0
 17
0.0
 27
1.0
 37
0.0
 76
     0
330
23
  0
LAYOUT
  5
22
102
{ACAD_REACTORS
330
1A
102
}
330
1A
100
AcDbPlotSettings
  1

  2
none_device
  4

  6

 40
0.0
 41
0.0
 42
0.0
 43
0.0
 44
0.0
 45
0.0
 46
0.0
 47
0.0
 48
0.0
 49
0.0
140
0.0
141
0.0
142
1.0
143
1.0
 70
  1712
 72
     0
 73
     0
 74
     0
  7

 75
     0
 76
     0
 77
     2
 78
   300
147
1.0
148
0.0
149
0.0
100
AcDbLayout
  1
Model
 70
     1
 71
     0
 10
0.0
 20
0.0
 11
12.0
 21
9.0
 12
0.0
 22
0.0
 32
0.0
 14
0.0
 24
0.0
 34
0.0
 15
172.5
 25
185.0
 35
10.0
146
0.0
 13
0.0
 23
0.0
 33
0.0
 16
1.0
 26
0.0
 36
0.0
 17
0.0
 27
1.0
 37
0.0
 76
     0
330
1F
331
29
  0
MLINESTYLE
  5
18
102
{ACAD_REACTORS
330
17
102
}
330
17
100
AcDbMlineStyle
  2
Standard
 70
     0
  3

 62
   256
 51
90.0
 52
90.0
 71
     2
 49
0.5
 62
   256
  6
BYLAYER
 49
-0.5
 62
   256
  6
BYLAYER
  0
ACDBPLACEHOLDER
  5
F
102
{ACAD_REACTORS
330
E
102
}
330
E
  0
VISUALSTYLE
  5
2F
102
{ACAD_REACTORS
330
2A
102
}
330
2A
100
AcDbVisualStyle
  2
2dWireframe
 70
     4
 71
     0
 72
     2
 73
     0
 90
        0
 40
-0.6
 41
-30.0
 62
     5
 63
     7
421
 16777215
 74
     1
 91
        4
 64
     7
 65
   257
 75
     1
175
     1
 42
1.0
 92
        0
 66
   257
 43
1.0
 76
     1
 77
     6
 78
     2
 67
     7
 79
     5
170
     0
171
     0
290
     0
174
     0
 93
        1
 44
0.0
173
     0
291
     0
 45
0.0
  0
VISUALSTYLE
  5
31
102
{ACAD_REACTORS
330
2A
102
}
330
2A
100
AcDbVisualStyle
  2
3D Hidden
 70
     6
 71
     1
 72
     2
 73
     2
 90
        0
 40
-0.6
 41
-30.0
 62
     5
 63
     7
421
 16777215
 74
     2
 91
        2
 64
     7
 65
   257
 75
     2
175
     1
 42
40.0
 92
        0
 66
   257
 43
1.0
 76
     1
 77
     6
 78
     2
 67
     7
 79
     3
170
     0
171
     0
290
     0
174
     0
 93
        1
 44
0.0
173
     0
291
     0
 45
0.0
  0
VISUALSTYLE
  5
30
102
{ACAD_REACTORS
330
2A
102
}
330
2A
100
AcDbVisualStyle
  2
3dWireframe
 70
     5
 71
     0
 72
     2
 73
     0
 90
        0
 40
-0.6
 41
-30.0
 62
     5
 63
     7
421
 16777215
 74
     1
 91
        4
 64
     7
 65
   257
 75
     1
175
     1
 42
1.0
 92
        0
 66
   257
 43
1.0
 76
     1
 77
     6
 78
     2
 67
     7
 79
     5
170
     0
171
     0
290
     0
174
     0
 93
        1
 44
0.0
173
     0
291
     0
 45
0.0
  0
VISUALSTYLE
  5
32
102
{ACAD_REACTORS
330
2A
102
}
330
2A
100
AcDbVisualStyle
  2
Basic
 70
     7
 71
     1
 72
     0
 73
     1
 90
        0
 40
-0.6
 41
-30.0
 62
     5
 63
     7
421
 16777215
 74
     0
 91
        4
 64
     7
 65
   257
 75
     1
175
     1
 42
1.0
 92
        8
 66
     7
 43
1.0
 76
     1
 77
     6
 78
     2
 67
     7
 79
     5
170
     0
171
     0
290
     0
174
     0
 93
        1
 44
0.0
173
     0
291
     1
 45
0.0
  0
VISUALSTYLE
  5
36
102
{ACAD_REACTORS
330
2A
102
}
330
2A
100
AcDbVisualStyle
  2
Brighten
 70
    12
 71
     2
 72
     2
 73
     0
 90
        0
 40
-0.6
 41
-30.0
 62
     5
 63
     7
421
 16777215
 74
     1
 91
        4
 64
     7
 65
   257
 75
     1
175
     1
 42
1.0
 92
        8
 66
     7
 43
1.0
 76
     1
 77
     6
 78
     2
 67
     7
 79
     5
170
     0
171
     0
290
     0
174
     0
 93
        1
 44
50.0
173
     0
291
     1
 45
0.0
  0
VISUALSTYLE
  5
3A
102
{ACAD_REACTORS
330
2A
102
}
330
2A
100
AcDbVisualStyle
  2
ColorChange
 70
    16
 71
     2
 72
     2
 73
     3
 90
        0
 40
-0.6
 41
-30.0
 62
     5
 63
     8
421
  8421504
 74
     1
 91
        4
 64
     7
 65
   257
 75
     1
175
     1
 42
1.0
 92
        8
 66
     8
424
  8421504
 43
1.0
 76
     1
 77
     6
 78
     2
 67
     7
 79
     5
170
     0
171
     0
290
     0
174
     0
 93
        1
 44
0.0
173
     0
291
     1
 45
0.0
  0
VISUALSTYLE
  5
34
102
{ACAD_REACTORS
330
2A
102
}
330
2A
100
AcDbVisualStyle
  2
Conceptual
 70
     9
 71
     3
 72
     2
 73
     0
 90
        0
 40
-0.6
 41
-30.0
 62
     5
 63
     7
421
 16777215
 74
     2
 91
        2
 64
     7
 65
   257
 75
     1
175
     1
 42
40.0
 92
        8
 66
     7
 43
1.0
 76
     1
 77
     6
 78
     2
 67
     7
 79
     3
170
     0
171
     0
290
     0
174
     0
 93
        1
 44
0.0
173
     0
291
     0
 45
0.0
  0
VISUALSTYLE
  5
35
102
{ACAD_REACTORS
330
2A
102
}
330
2A
100
AcDbVisualStyle
  2
Dim
 70
    11
 71
     2
 72
     2
 73
     0
 90
        0
 40
-0.6
 41
-30.0
 62
     5
 63
     7
421
 16777215
 74
     1
 91
        4
 64
     7
 65
   257
 75
     1
175
     1
 42
1.0
 92
        8
 66
     7
 43
1.0
 76
     1
 77
     6
 78
     2
 67
     7
 79
     5
170
     0
171
     0
290
     0
174
     0
 93
        1
 44
-50.0
173
     0
291
     1
 45
0.0
  0
VISUALSTYLE
  5
39
102
{ACAD_REACTORS
330
2A
102
}
330
2A
100
AcDbVisualStyle
  2
Facepattern
 70
    15
 71
     2
 72
     2
 73
     0
 90
        0
 40
-0.6
 41
-30.0
 62
     5
 63
     7
421
 16777215
 74
     1
 91
        4
 64
     7
 65
   257
 75
     1
175
     1
 42
1.0
 92
        8
 66
     7
 43
1.0
 76
     1
 77
     6
 78
     2
 67
     7
 79
     5
170
     0
171
     0
290
     0
174
     0
 93
        1
 44
0.0
173
     0
291
     1
 45
0.0
  0
VISUALSTYLE
  5
2B
102
{ACAD_REACTORS
330
2A
102
}
330
2A
100
AcDbVisualStyle
  2
Flat
 70
     0
 71
     2
 72
     1
 73
     1
 90
        2
 40
-0.6
 41
30.0
 62
     5
 63
     7
421
 16777215
 74
     0
 91
        4
 64
     7
 65
   257
 75
     1
175
     1
 42
1.0
 92
        8
 66
     7
 43
1.0
 76
     1
 77
     6
 78
     2
 67
     7
 79
     5
170
     0
171
     0
290
     0
174
     0
 93
       13
 44
0.0
173
     0
291
     1
 45
0.0
  0
VISUALSTYLE
  5
2C
102
{ACAD_REACTORS
330
2A
102
}
330
2A
100
AcDbVisualStyle
  2
FlatWithEdges
 70
     1
 71
     2
 72
     1
 73
     1
 90
        2
 40
-0.6
 41
30.0
 62
     5
 63
     7
421
 16777215
 74
     1
 91
        4
 64
     7
 65
   257
 75
     1
175
     1
 42
1.0
 92
        0
 66
   257
 43
1.0
 76
     1
 77
     6
 78
     2
 67
     7
 79
     5
170
     0
171
     0
290
     0
174
     0
 93
       13
 44
0.0
173
     0
291
     1
 45
0.0
  0
VISUALSTYLE
  5
2D
102
{ACAD_REACTORS
330
2A
102
}
330
2A
100
AcDbVisualStyle
  2
Gouraud
 70
     2
 71
     2
 72
     2
 73
     1
 90
        2
 40
-0.6
 41
30.0
 62
     5
 63
     7
421
 16777215
 74
     0
 91
        4
 64
     7
 65
   257
 75
     1
175
     1
 42
1.0
 92
        0
 66
     7
 43
1.0
 76
     1
 77
     6
 78
     2
 67
     7
 79
     5
170
     0
171
     0
290
     0
174
     0
 93
       13
 44
0.0
173
     0
291
     1
 45
0.0
  0
VISUALSTYLE
  5
2E
102
{ACAD_REACTORS
330
2A
102
}
330
2A
100
AcDbVisualStyle
  2
GouraudWithEdges
 70
     3
 71
     2
 72
     2
 73
     1
 90
        2
 40
-0.6
 41
30.0
 62
     5
 63
     7
421
 16777215
 74
     1
 91
        4
 64
     7
 65
   257
 75
     1
175
     1
 42
1.0
 92
        0
 66
   257
 43
1.0
 76
     1
 77
     6
 78
     2
 67
     7
 79
     5
170
     0
171
     0
290
     0
174
     0
 93
       13
 44
0.0
173
     0
291
     1
 45
0.0
  0
VISUALSTYLE
  5
38
102
{ACAD_REACTORS
330
2A
102
}
330
2A
100
AcDbVisualStyle
  2
Linepattern
 70
    14
 71
     2
 72
     2
 73
     0
 90
        0
 40
-0.6
 41
-30.0
 62
     5
 63
     7
421
 16777215
 74
     1
 91
        4
 64
     7
 65
   257
 75
     7
175
     7
 42
1.0
 92
        8
 66
     7
 43
1.0
 76
     1
 77
     6
 78
     2
 67
     7
 79
     5
170
     0
171
     0
290
     0
174
     0
 93
        1
 44
0.0
173
     0
291
     1
 45
0.0
  0
VISUALSTYLE
  5
33
102
{ACAD_REACTORS
330
2A
102
}
330
2A
100
AcDbVisualStyle
  2
Realistic
 70
     8
 71
     2
 72
     2
 73
     0
 90
        0
 40
-0.6
 41
-30.0
 62
     5
 63
     7
421
 16777215
 74
     1
 91
        0
 64
     7
 65
   257
 75
     1
175
     1
 42
1.0
 92
        8
 66
     8
424
  7895160
 43
1.0
 76
     1
 77
     6
 78
     2
 67
     7
 79
     5
170
     0
171
     0
290
     0
174
     0
 93
       13
 44
0.0
173
     0
291
     0
 45
0.0
  0
VISUALSTYLE
  5
37
102
{ACAD_REACTORS
330
2A
102
}
330
2A
100
AcDbVisualStyle
  2
Thicken
 70
    13
 71
     2
 72
     2
 73
     0
 90
        0
 40
-0.6
 41
-30.0
 62
     5
 63
     7
421
 16777215
 74
     1
 91
        4
 64
     7
 65
   257
 75
     1
175
     1
 42
1.0
 92
       12
 66
     7
 43
1.0
 76
     1
 77
     6
 78
     2
 67
     7
 79
     5
170
     0
171
     0
290
     0
174
     0
 93
        1
 44
0.0
173
     0
291
     1
 45
0.0
  0
ENDSEC
  0
EOF
