  0
SECTION
  2
HEADER
  9
$ACADVER
  1
AC1006
  9
$DWGCODEPAGE
  3
ansi_932
  9
$INSBASE
 10
0.0
 20
0.0
 30
0.0
  9
$EXTMIN
 10
45.0
 20
95.02727272727273
  9
$EXTMAX
 10
177.5
 20
250.0
  9
$LIMMIN
 10
0.0
 20
0.0
  9
$LIMMAX
 10
12.0
 20
9.0
  9
$ORTHOMODE
 70
     0
  9
$REGENMODE
 70
     1
  9
$FILLMODE
 70
     1
  9
$QTEXTMODE
 70
     0
  9
$MIRRTEXT
 70
     1
  9
$DRAGMODE
 70
     2
  9
$LTSCALE
 40
1.0
  9
$OSMODE
 70
    37
  9
$ATTMODE
 70
     1
  9
$TEXTSIZE
 40
0.2
  9
$TRACEWID
 40
0.05
  9
$TEXTSTYLE
  7
STANDARD
  9
$CLAYER
  8
0
  9
$CELTYPE
  6
BYLAYER
  9
$CECOLOR
 62
   256
  9
$DIMSCALE
 40
1.0
  9
$DIMASZ
 40
3.0
  9
$DIMEXO
 40
0.0625
  9
$DIMDLI
 40
0.38
  9
$DIMRND
 40
0.0
  9
$DIMDLE
 40
0.0
  9
$DIMEXE
 40
1.5
  9
$DIMTP
 40
0.0
  9
$DIMTM
 40
0.0
  9
$DIMTXT
 40
3.0
  9
$DIMCEN
 40
0.09
  9
$DIMTSZ
 40
0.0
  9
$DIMTOL
 70
     0
  9
$DIMLIM
 70
     0
  9
$DIMTIH
 70
     1
  9
$DIMTOH
 70
     1
  9
$DIMSE1
 70
     0
  9
$DIMSE2
 70
     0
  9
$DIMTAD
 70
     1
  9
$DIMZIN
 70
     0
  9
$DIMBLK
  1

  9
$DIMASO
 70
     1
  9
$DIMSHO
 70
     1
  9
$DIMPOST
  1

  9
$DIMAPOST
  1

  9
$DIMALT
 70
     0
  9
$DIMALTD
 70
     2
  9
$DIMALTF
 40
25.4
  9
$DIMLFAC
 40
1.0
  9
$DIMTOFL
 70
     0
  9
$DIMTVP
 40
0.0
  9
$DIMTIX
 70
     0
  9
$DIMSOXD
 70
     0
  9
$DIMSAH
 70
     0
  9
$DIMBLK1
  1

  9
$DIMBLK2
  1

  9
$LUNITS
 70
     2
  9
$LUPREC
 70
     4
  9
$SKETCHINC
 40
0.1
  9
$FILLETRAD
 40
0.5
  9
$AUNITS
 70
     0
  9
$AUPREC
 70
     0
  9
$MENU
  1
.
  9
$ELEVATION
 40
0.0
  9
$THICKNESS
 40
0.0
  9
$LIMCHECK
 70
     0
  9
$CHAMFERA
 40
0.0
  9
$CHAMFERB
 40
0.0
  9
$SKPOLY
 70
     0
  9
$TDCREATE
 40
2460271.759574039
  9
$TDUPDATE
 40
2460271.75957412
  9
$TDINDWG
 40
0.0000000116
  9
$TDUSRTIMER
 40
0.0000000116
  9
$USRTIMER
 70
     1
  9
$ANGBASE
 50
0.0
  9
$ANGDIR
 70
     0
  9
$PDMODE
 70
     0
  9
$PDSIZE
 40
0.0
  9
$PLINEWID
 40
0.0
  9
$COORDS
 70
     1
  9
$SPLFRAME
 70
     0
  9
$SPLINETYPE
 70
     6
  9
$SPLINESEGS
 70
     8
  9
$ATTDIA
 70
     0
  9
$ATTREQ
 70
     1
  9
$HANDLING
 70
     1
  9
$HANDSEED
  5
25C
  9
$SURFTAB1
 70
     6
  9
$SURFTAB2
 70
     6
  9
$SURFTYPE
 70
     6
  9
$SURFU
 70
     6
  9
$SURFV
 70
     6
  9
$UCSNAME
  2

  9
$UCSORG
 10
0.0
 20
0.0
 30
0.0
  9
$UCSXDIR
 10
1.0
 20
0.0
 30
0.0
  9
$UCSYDIR
 10
0.0
 20
1.0
 30
0.0
  9
$USERI1
 70
     0
  9
$USERI2
 70
     0
  9
$USERI3
 70
     0
  9
$USERI4
 70
     0
  9
$USERI5
 70
     0
  9
$USERR1
 40
0.0
  9
$USERR2
 40
0.0
  9
$USERR3
 40
0.0
  9
$USERR4
 40
0.0
  9
$USERR5
 40
0.0
  9
$WORLDVIEW
 70
     1
  0
ENDSEC
  0
SECTION
  2
TABLES
  0
TABLE
  2
VPORT
 70
     1
  0
VPORT
  2
*ACTIVE
 70
     0
 10
0.0
 20
0.0
 11
1.0
 21
1.0
 12
111.25
 22
172.5136363636364
 13
0.0
 23
0.0
 14
0.5
 24
0.5
 15
0.5
 25
0.5
 16
0.0
 26
0.0
 36
1.0
 17
0.0
 27
0.0
 37
0.0
 40
154.9727272727273
 41
1.6
 42
50.0
 43
0.0
 44
0.0
 50
0.0
 51
0.0
 71
     0
 72
   100
 73
     1
 74
     3
 75
     0
 76
     0
 77
     0
 78
     0
  0
ENDTAB
  0
TABLE
  2
LTYPE
 70
     2
  0
LTYPE
  2
CONTINUOUS
 70
     0
  3
Solid line
 72
    65
 73
     0
 40
0.0
  0
LTYPE
  2
CENTER
 70
     0
  3

 72
    65
 73
     0
 40
0.0
  0
ENDTAB
  0
TABLE
  2
LAYER
 70
     1
  0
LAYER
  2
0
 70
     0
 62
     7
  6
CONTINUOUS
  0
ENDTAB
  0
TABLE
  2
STYLE
 70
     2
  0
STYLE
  2
STANDARD
 70
     0
 40
0.0
 41
1.0
 50
0.0
 71
     0
 42
0.2
  3
txt
  4

  0
STYLE
  2
ＭＳ_ゴシック
 70
     0
 40
0.0
 41
1.0
 50
0.0
 71
     0
 42
0.2
  3
ＭＳ ゴシック.shx
  4

  0
ENDTAB
  0
TABLE
  2
VIEW
 70
     0
  0
ENDTAB
  0
TABLE
  2
UCS
 70
     0
  0
ENDTAB
  0
ENDSEC
  0
SECTION
  2
BLOCKS
  0
BLOCK
  8
0
  2
D_FRAME_VIEW_1943
 70
     0
 10
0.0
 20
0.0
 30
0.0
  0
POLYLINE
  5
70
  8
0
  6
CONTINUOUS
 62
     7
 66
     1
 10
0.0
 20
0.0
 30
0.0
  0
VERTEX
  5
126
  8
0
  6
CONTINUOUS
 62
     7
 10
107.5490378900189
 20
227.0
 30
0.0
  0
VERTEX
  5
127
  8
0
  6
CONTINUOUS
 62
     7
 10
107.8530973425092
 20
227.0576441587903
 30
0.0
  0
VERTEX
  5
128
  8
0
  6
CONTINUOUS
 62
     7
 10
108.1454719607588
 20
227.2283614024661
 30
0.0
  0
VERTEX
  5
129
  8
0
  6
CONTINUOUS
 62
     7
 10
108.414925952154
 20
227.5055911630924
 30
0.0
  0
VERTEX
  5
12A
  8
0
  6
CONTINUOUS
 62
     7
 10
108.6511043509169
 20
227.8786796564404
 30
0.0
  0
VERTEX
  5
12B
  8
0
  6
CONTINUOUS
 62
     7
 10
108.8449309536335
 20
228.3332893009412
 30
0.0
  0
VERTEX
  5
12C
  8
0
  6
CONTINUOUS
 62
     7
 10
108.9889571126606
 20
228.8519497029047
 30
0.0
  0
VERTEX
  5
12D
  8
0
  6
CONTINUOUS
 62
     7
 10
109.0776479834776
 20
229.4147290339516
 30
0.0
  0
VERTEX
  5
12E
  8
0
  6
CONTINUOUS
 62
     7
 10
109.1075952256574
 20
230.0
 30
0.0
  0
VERTEX
  5
12F
  8
0
  6
CONTINUOUS
 62
     7
 10
109.0776479834776
 20
230.5852709660484
 30
0.0
  0
VERTEX
  5
130
  8
0
  6
CONTINUOUS
 62
     7
 10
108.9889571126606
 20
231.1480502970953
 30
0.0
  0
VERTEX
  5
131
  8
0
  6
CONTINUOUS
 62
     7
 10
108.8449309536335
 20
231.6667106990588
 30
0.0
  0
VERTEX
  5
132
  8
0
  6
CONTINUOUS
 62
     7
 10
108.6511043509169
 20
232.1213203435596
 30
0.0
  0
VERTEX
  5
133
  8
0
  6
CONTINUOUS
 62
     7
 10
108.414925952154
 20
232.4944088369076
 30
0.0
  0
VERTEX
  5
134
  8
0
  6
CONTINUOUS
 62
     7
 10
108.1454719607588
 20
232.7716385975339
 30
0.0
  0
VERTEX
  5
135
  8
0
  6
CONTINUOUS
 62
     7
 10
107.8530973425092
 20
232.9423558412097
 30
0.0
  0
VERTEX
  5
136
  8
0
  6
CONTINUOUS
 62
     7
 10
107.5490378900189
 20
233.0
 30
0.0
  0
SEQEND
  5
23C
  8
0
  6
CONTINUOUS
 62
     7
  0
LINE
  5
71
  8
0
  6
CONTINUOUS
 62
     7
 10
50.89240477434266
 20
247.5
 30
0.0
 11
58.39240477434267
 21
247.5
 31
0.0
  0
LINE
  5
72
  8
0
  6
CONTINUOUS
 62
     7
 10
50.89240477434264
 20
212.5
 30
0.0
 11
58.39240477434267
 21
212.5
 31
0.0
  0
CIRCLE
  5
73
  8
0
  6
CONTINUOUS
 62
     7
 10
72.89240477434265
 20
230.0
 30
0.0
 40
5.500000000000004
  0
CIRCLE
  5
74
  8
0
  6
CONTINUOUS
 62
     7
 10
63.39240477434266
 20
239.5
 30
0.0
 40
2.300000000000003
  0
CIRCLE
  5
75
  8
0
  6
CONTINUOUS
 62
     7
 10
82.39240477434265
 20
220.5
 30
0.0
 40
2.399999999999999
  0
ARC
  5
76
  8
0
  6
CONTINUOUS
 62
     7
 10
84.89240477434265
 20
217.5
 30
0.0
 40
4.999999999999977
 50
270.0
 51
0.0
  0
LINE
  5
77
  8
0
  6
CONTINUOUS
 62
     7
 10
58.39240477434267
 20
247.5
 30
0.0
 11
84.89240477434265
 21
247.5
 31
0.0
  0
ARC
  5
78
  8
0
  6
CONTINUOUS
 62
     7
 10
84.89240477434265
 20
242.5
 30
0.0
 40
5.000000000000004
 50
0.0
 51
90.0
  0
LINE
  5
79
  8
0
  6
CONTINUOUS
 62
     7
 10
89.89240477434264
 20
242.5
 30
0.0
 11
89.89240477434264
 21
217.5
 31
0.0
  0
CIRCLE
  5
7A
  8
0
  6
CONTINUOUS
 62
     7
 10
63.39240477434266
 20
220.5
 30
0.0
 40
2.30000000000001
  0
CIRCLE
  5
7B
  8
0
  6
CONTINUOUS
 62
     7
 10
82.39240477434265
 20
239.5
 30
0.0
 40
2.299999999999996
  0
LINE
  5
7C
  8
0
  6
CONTINUOUS
 62
     7
 10
58.39240477434267
 20
212.5
 30
0.0
 11
84.89240477434265
 21
212.5
 31
0.0
  0
POLYLINE
  5
7D
  8
0
  6
CONTINUOUS
 62
     7
 66
     1
 10
0.0
 20
0.0
 30
0.0
  0
VERTEX
  5
137
  8
0
  6
CONTINUOUS
 62
     7
 10
70.04967765290641
 20
233.0
 30
0.0
  0
VERTEX
  5
138
  8
0
  6
CONTINUOUS
 62
     7
 10
70.04660780032631
 20
233.097545161008
 30
0.0
  0
VERTEX
  5
139
  8
0
  6
CONTINUOUS
 62
     7
 10
70.0375162152991
 20
233.1913417161825
 30
0.0
  0
VERTEX
  5
13A
  8
0
  6
CONTINUOUS
 62
     7
 10
70.02275228233874
 20
233.2777851165098
 30
0.0
  0
VERTEX
  5
13B
  8
0
  6
CONTINUOUS
 62
     7
 10
70.00288337110919
 20
233.3535533905932
 30
0.0
  0
VERTEX
  5
13C
  8
0
  6
CONTINUOUS
 62
     7
 10
69.97867303272639
 20
233.4157348061512
 30
0.0
  0
VERTEX
  5
13D
  8
0
  6
CONTINUOUS
 62
     7
 10
69.95105165691707
 20
233.4619397662556
 30
0.0
  0
VERTEX
  5
13E
  8
0
  6
CONTINUOUS
 62
     7
 10
69.92108071766334
 20
233.4903926402016
 30
0.0
  0
VERTEX
  5
13F
  8
0
  6
CONTINUOUS
 62
     7
 10
69.88991198135284
 20
233.5
 30
0.0
  0
SEQEND
  5
23D
  8
0
  6
CONTINUOUS
 62
     7
  0
LINE
  5
7E
  8
0
  6
CONTINUOUS
 62
     7
 10
68.64976408722337
 20
233.5
 30
0.0
 11
69.88991198135282
 21
233.5
 31
0.0
  0
LINE
  5
7F
  8
0
  6
CONTINUOUS
 62
     7
 10
68.64976408722337
 20
226.5
 30
0.0
 11
69.88991198135282
 21
226.5
 31
0.0
  0
POLYLINE
  5
80
  8
0
  6
CONTINUOUS
 62
     7
 66
     1
 10
0.0
 20
0.0
 30
0.0
  0
VERTEX
  5
140
  8
0
  6
CONTINUOUS
 62
     7
 10
69.88991198135284
 20
226.5
 30
0.0
  0
VERTEX
  5
141
  8
0
  6
CONTINUOUS
 62
     7
 10
69.92108071766334
 20
226.5096073597984
 30
0.0
  0
VERTEX
  5
142
  8
0
  6
CONTINUOUS
 62
     7
 10
69.95105165691707
 20
226.5380602337444
 30
0.0
  0
VERTEX
  5
143
  8
0
  6
CONTINUOUS
 62
     7
 10
69.97867303272639
 20
226.5842651938488
 30
0.0
  0
VERTEX
  5
144
  8
0
  6
CONTINUOUS
 62
     7
 10
70.00288337110919
 20
226.6464466094068
 30
0.0
  0
VERTEX
  5
145
  8
0
  6
CONTINUOUS
 62
     7
 10
70.02275228233874
 20
226.7222148834902
 30
0.0
  0
VERTEX
  5
146
  8
0
  6
CONTINUOUS
 62
     7
 10
70.0375162152991
 20
226.8086582838175
 30
0.0
  0
VERTEX
  5
147
  8
0
  6
CONTINUOUS
 62
     7
 10
70.04660780032633
 20
226.902454838992
 30
0.0
  0
VERTEX
  5
148
  8
0
  6
CONTINUOUS
 62
     7
 10
70.04967765290641
 20
227.0
 30
0.0
  0
SEQEND
  5
23E
  8
0
  6
CONTINUOUS
 62
     7
  0
LINE
  5
81
  8
0
  6
CONTINUOUS
 62
     7
 10
84.49240477434265
 20
240.4380831519647
 30
0.0
 11
84.49240477434265
 21
238.5619168480353
 31
0.0
  0
LINE
  5
82
  8
0
  6
CONTINUOUS
 62
     7
 10
84.49240477434265
 20
219.3381049961378
 30
0.0
 11
84.49240477434265
 21
221.6618950038622
 31
0.0
  0
POLYLINE
  5
83
  8
0
  6
CONTINUOUS
 62
     7
 66
     1
 10
0.0
 20
0.0
 30
0.0
  0
VERTEX
  5
149
  8
0
  6
CONTINUOUS
 62
     7
 10
85.88951909137265
 20
212.5
 30
0.0
  0
VERTEX
  5
14A
  8
0
  6
CONTINUOUS
 62
     7
 10
86.39875246038595
 20
212.6048263050701
 30
0.0
  0
VERTEX
  5
14B
  8
0
  6
CONTINUOUS
 62
     7
 10
86.88663340840242
 20
212.9149097985866
 30
0.0
  0
SEQEND
  5
23F
  8
0
  6
CONTINUOUS
 62
     7
  0
POLYLINE
  5
84
  8
0
  6
CONTINUOUS
 62
     7
 66
     1
 10
0.0
 20
0.0
 30
0.0
  0
VERTEX
  5
14C
  8
0
  6
CONTINUOUS
 62
     7
 10
75.49048098569597
 20
227.0
 30
0.0
  0
VERTEX
  5
14D
  8
0
  6
CONTINUOUS
 62
     7
 10
75.49528466559515
 20
226.9024548389919
 30
0.0
  0
VERTEX
  5
14E
  8
0
  6
CONTINUOUS
 62
     7
 10
75.50951110256814
 20
226.8086582838175
 30
0.0
  0
VERTEX
  5
14F
  8
0
  6
CONTINUOUS
 62
     7
 10
75.53261358262033
 20
226.7222148834902
 30
0.0
  0
VERTEX
  5
150
  8
0
  6
CONTINUOUS
 62
     7
 10
75.56370429039933
 20
226.6464466094067
 30
0.0
  0
VERTEX
  5
151
  8
0
  6
CONTINUOUS
 62
     7
 10
75.60158842744106
 20
226.5842651938487
 30
0.0
  0
VERTEX
  5
152
  8
0
  6
CONTINUOUS
 62
     7
 10
75.64481012760469
 20
226.5380602337443
 30
0.0
  0
VERTEX
  5
153
  8
0
  6
CONTINUOUS
 62
     7
 10
75.69170840519192
 20
226.5096073597984
 30
0.0
  0
VERTEX
  5
154
  8
0
  6
CONTINUOUS
 62
     7
 10
75.74048098569595
 20
226.5
 30
0.0
  0
SEQEND
  5
240
  8
0
  6
CONTINUOUS
 62
     7
  0
LINE
  5
85
  8
0
  6
CONTINUOUS
 62
     7
 10
75.74048098569597
 20
226.5
 30
0.0
 11
77.13504546146194
 21
226.5
 31
0.0
  0
POLYLINE
  5
86
  8
0
  6
CONTINUOUS
 62
     7
 66
     1
 10
0.0
 20
0.0
 30
0.0
  0
VERTEX
  5
155
  8
0
  6
CONTINUOUS
 62
     7
 10
86.88663340840249
 20
247.0850902014133
 30
0.0
  0
VERTEX
  5
156
  8
0
  6
CONTINUOUS
 62
     7
 10
86.39875246038598
 20
247.3951736949299
 30
0.0
  0
VERTEX
  5
157
  8
0
  6
CONTINUOUS
 62
     7
 10
85.88951909137265
 20
247.5
 30
0.0
  0
SEQEND
  5
241
  8
0
  6
CONTINUOUS
 62
     7
  0
POLYLINE
  5
87
  8
0
  6
CONTINUOUS
 62
     7
 66
     1
 10
0.0
 20
0.0
 30
0.0
  0
VERTEX
  5
158
  8
0
  6
CONTINUOUS
 62
     7
 10
75.74048098569595
 20
233.5
 30
0.0
  0
VERTEX
  5
159
  8
0
  6
CONTINUOUS
 62
     7
 10
75.69170840519192
 20
233.4903926402016
 30
0.0
  0
VERTEX
  5
15A
  8
0
  6
CONTINUOUS
 62
     7
 10
75.64481012760469
 20
233.4619397662557
 30
0.0
  0
VERTEX
  5
15B
  8
0
  6
CONTINUOUS
 62
     7
 10
75.60158842744106
 20
233.4157348061513
 30
0.0
  0
VERTEX
  5
15C
  8
0
  6
CONTINUOUS
 62
     7
 10
75.56370429039933
 20
233.3535533905933
 30
0.0
  0
VERTEX
  5
15D
  8
0
  6
CONTINUOUS
 62
     7
 10
75.53261358262033
 20
233.2777851165098
 30
0.0
  0
VERTEX
  5
15E
  8
0
  6
CONTINUOUS
 62
     7
 10
75.50951110256814
 20
233.1913417161825
 30
0.0
  0
VERTEX
  5
15F
  8
0
  6
CONTINUOUS
 62
     7
 10
75.49528466559515
 20
233.0975451610081
 30
0.0
  0
VERTEX
  5
160
  8
0
  6
CONTINUOUS
 62
     7
 10
75.49048098569597
 20
233.0
 30
0.0
  0
SEQEND
  5
242
  8
0
  6
CONTINUOUS
 62
     7
  0
LINE
  5
88
  8
0
  6
CONTINUOUS
 62
     7
 10
75.74048098569597
 20
233.5
 30
0.0
 11
77.13504546146194
 21
233.5
 31
0.0
  0
LINE
  5
89
  8
0
  6
CONTINUOUS
 62
     7
 10
75.49048098569597
 20
227.0
 30
0.0
 11
75.49048098569597
 21
227.4
 31
0.0
  0
LINE
  5
8A
  8
0
  6
CONTINUOUS
 62
     7
 10
75.49048098569597
 20
232.6
 30
0.0
 11
75.49048098569597
 21
233.0
 31
0.0
  0
LINE
  5
8B
  8
0
  6
CONTINUOUS
 62
     7
 10
70.04967765290641
 20
227.0
 30
0.0
 11
70.04967765290641
 21
227.4
 31
0.0
  0
LINE
  5
8C
  8
0
  6
CONTINUOUS
 62
     7
 10
70.04967765290641
 20
232.6
 30
0.0
 11
70.04967765290641
 21
233.0
 31
0.0
  0
LINE
  5
8D
  8
0
  6
CONTINUOUS
 62
     7
 10
74.97706728535607
 20
232.6
 30
0.0
 11
70.27232751155105
 21
232.6
 31
0.0
  0
LINE
  5
8E
  8
0
  6
CONTINUOUS
 62
     7
 10
70.27232751155105
 20
227.4
 30
0.0
 11
74.97706728535607
 21
227.4
 31
0.0
  0
LINE
  5
8F
  8
0
  6
CONTINUOUS
 62
     7
 10
68.0457564479216
 20
227.4
 30
0.0
 11
70.27232751155105
 21
227.4
 31
0.0
  0
LINE
  5
90
  8
0
  6
CONTINUOUS
 62
     7
 10
70.27232751155105
 20
232.6
 30
0.0
 11
68.0457564479216
 21
232.6
 31
0.0
  0
LINE
  5
91
  8
0
  6
CONTINUOUS
 62
     7
 10
74.9770672853561
 20
227.4
 30
0.0
 11
77.7390531007637
 21
227.4
 31
0.0
  0
LINE
  5
92
  8
0
  6
CONTINUOUS
 62
     7
 10
77.7390531007637
 20
232.6
 30
0.0
 11
74.9770672853561
 21
232.6
 31
0.0
  0
LINE
  5
93
  8
0
  6
CONTINUOUS
 62
     7
 10
107.5490378900188
 20
233.0
 30
0.0
 11
89.89240477434264
 21
233.0
 31
0.0
  0
LINE
  5
94
  8
0
  6
CONTINUOUS
 62
     7
 10
89.89240477434264
 20
227.0
 30
0.0
 11
107.5490378900188
 21
227.0
 31
0.0
  0
LINE
  5
95
  8
0
  6
CONTINUOUS
 62
     7
 10
50.89240477434266
 20
247.5
 30
0.0
 11
50.89240477434264
 21
212.5
 31
0.0
  0
ENDBLK
  8
0
  0
BLOCK
  8
0
  2
D_FRAME_VIEW_1989
 70
     0
 10
0.0
 20
0.0
 30
0.0
  0
LINE
  5
9A
  8
0
  6
CONTINUOUS
 62
     7
 10
157.1132486540519
 20
125.5165719824037
 30
0.0
 11
154.2264973081038
 21
121.1835935130889
 31
0.0
  0
LINE
  5
9B
  8
0
  6
CONTINUOUS
 62
     7
 10
154.2264973081038
 20
123.7784503236557
 30
0.0
 11
154.2264973081038
 21
121.1835935130889
 31
0.0
  0
LINE
  5
9C
  8
0
  6
CONTINUOUS
 62
     7
 10
157.1132486540519
 20
128.1114287929705
 30
0.0
 11
154.2264973081038
 21
123.7784503236557
 31
0.0
  0
LINE
  5
9D
  8
0
  6
CONTINUOUS
 62
     7
 10
157.1132486540519
 20
128.1114287929705
 30
0.0
 11
157.1132486540519
 21
125.5165719824037
 31
0.0
  0
LINE
  5
9E
  8
0
  6
CONTINUOUS
 62
     7
 10
165.7735026918962
 20
121.1835935130889
 30
0.0
 11
162.8867513459481
 21
125.5165719824037
 31
0.0
  0
LINE
  5
9F
  8
0
  6
CONTINUOUS
 62
     7
 10
163.0
 20
117.0205998886324
 30
0.0
 11
165.7735026918962
 21
121.1835935130889
 31
0.0
  0
LINE
  5
A0
  8
0
  6
CONTINUOUS
 62
     7
 10
154.2264973081038
 20
121.1835935130889
 30
0.0
 11
157.0
 21
117.0205998886324
 31
0.0
  0
LINE
  5
A1
  8
0
  6
CONTINUOUS
 62
     7
 10
162.8867513459481
 20
125.5165719824037
 30
0.0
 11
157.1132486540519
 21
125.5165719824037
 31
0.0
  0
LINE
  5
A2
  8
0
  6
CONTINUOUS
 62
     7
 10
162.8867513459481
 20
128.1114287929705
 30
0.0
 11
162.8867513459481
 21
125.5165719824037
 31
0.0
  0
LINE
  5
A3
  8
0
  6
CONTINUOUS
 62
     7
 10
165.7735026918962
 20
123.7784503236557
 30
0.0
 11
162.8867513459481
 21
128.1114287929705
 31
0.0
  0
LINE
  5
A4
  8
0
  6
CONTINUOUS
 62
     7
 10
165.7735026918962
 20
123.7784503236557
 30
0.0
 11
165.7735026918962
 21
121.1835935130889
 31
0.0
  0
LINE
  5
A5
  8
0
  6
CONTINUOUS
 62
     7
 10
162.8867513459481
 20
128.1114287929705
 30
0.0
 11
157.1132486540519
 21
128.1114287929705
 31
0.0
  0
POLYLINE
  5
A6
  8
0
  6
CONTINUOUS
 62
     7
 66
     1
 10
0.0
 20
0.0
 30
0.0
  0
VERTEX
  5
161
  8
0
  6
CONTINUOUS
 62
     7
 10
160.0
 20
129.8446201806965
 30
0.0
  0
VERTEX
  5
162
  8
0
  6
CONTINUOUS
 62
     7
 10
158.6343677458871
 20
129.7280604278671
 30
0.0
  0
VERTEX
  5
163
  8
0
  6
CONTINUOUS
 62
     7
 10
157.3212159734444
 20
129.3828604953126
 30
0.0
  0
VERTEX
  5
164
  8
0
  6
CONTINUOUS
 62
     7
 10
156.1110083688628
 20
128.8222862228508
 30
0.0
  0
VERTEX
  5
165
  8
0
  6
CONTINUOUS
 62
     7
 10
155.0502525316941
 20
128.0678801653987
 30
0.0
  0
VERTEX
  5
166
  8
0
  6
CONTINUOUS
 62
     7
 10
154.1797127138822
 20
127.1486337246683
 30
0.0
  0
VERTEX
  5
167
  8
0
  6
CONTINUOUS
 62
     7
 10
153.532843272421
 20
126.0998730258577
 30
0.0
  0
VERTEX
  5
168
  8
0
  6
CONTINUOUS
 62
     7
 10
153.1345030371774
 20
124.9619013544703
 30
0.0
  0
VERTEX
  5
169
  8
0
  6
CONTINUOUS
 62
     7
 10
153.0
 20
123.7784503236556
 30
0.0
  0
SEQEND
  5
243
  8
0
  6
CONTINUOUS
 62
     7
  0
POLYLINE
  5
A7
  8
0
  6
CONTINUOUS
 62
     7
 66
     1
 10
0.0
 20
0.0
 30
0.0
  0
VERTEX
  5
16A
  8
0
  6
CONTINUOUS
 62
     7
 10
167.0
 20
124.1776590637429
 30
0.0
  0
VERTEX
  5
16B
  8
0
  6
CONTINUOUS
 62
     7
 10
166.8654969628226
 20
125.3611100945575
 30
0.0
  0
VERTEX
  5
16C
  8
0
  6
CONTINUOUS
 62
     7
 10
166.467156727579
 20
126.4990817659449
 30
0.0
  0
VERTEX
  5
16D
  8
0
  6
CONTINUOUS
 62
     7
 10
165.8202872861178
 20
127.5478424647556
 30
0.0
  0
VERTEX
  5
16E
  8
0
  6
CONTINUOUS
 62
     7
 10
164.9497474683058
 20
128.4670889054859
 30
0.0
  0
VERTEX
  5
16F
  8
0
  6
CONTINUOUS
 62
     7
 10
163.8889916311372
 20
129.2214949629381
 30
0.0
  0
VERTEX
  5
170
  8
0
  6
CONTINUOUS
 62
     7
 10
162.6787840265556
 20
129.7820692353999
 30
0.0
  0
VERTEX
  5
171
  8
0
  6
CONTINUOUS
 62
     7
 10
161.3656322541129
 20
130.1272691679544
 30
0.0
  0
VERTEX
  5
172
  8
0
  6
CONTINUOUS
 62
     7
 10
160.0
 20
130.2438289207838
 30
0.0
  0
SEQEND
  5
244
  8
0
  6
CONTINUOUS
 62
     7
  0
POLYLINE
  5
A8
  8
0
  6
CONTINUOUS
 62
     7
 66
     1
 10
0.0
 20
0.0
 30
0.0
  0
VERTEX
  5
173
  8
0
  6
CONTINUOUS
 62
     7
 10
167.0
 20
123.7784503236557
 30
0.0
  0
VERTEX
  5
174
  8
0
  6
CONTINUOUS
 62
     7
 10
166.8654969628226
 20
124.9619013544703
 30
0.0
  0
VERTEX
  5
175
  8
0
  6
CONTINUOUS
 62
     7
 10
166.467156727579
 20
126.0998730258577
 30
0.0
  0
VERTEX
  5
176
  8
0
  6
CONTINUOUS
 62
     7
 10
165.8202872861178
 20
127.1486337246684
 30
0.0
  0
VERTEX
  5
177
  8
0
  6
CONTINUOUS
 62
     7
 10
164.9497474683058
 20
128.0678801653987
 30
0.0
  0
VERTEX
  5
178
  8
0
  6
CONTINUOUS
 62
     7
 10
163.8889916311372
 20
128.8222862228509
 30
0.0
  0
VERTEX
  5
179
  8
0
  6
CONTINUOUS
 62
     7
 10
162.6787840265556
 20
129.3828604953127
 30
0.0
  0
VERTEX
  5
17A
  8
0
  6
CONTINUOUS
 62
     7
 10
161.3656322541129
 20
129.7280604278671
 30
0.0
  0
VERTEX
  5
17B
  8
0
  6
CONTINUOUS
 62
     7
 10
160.0
 20
129.8446201806966
 30
0.0
  0
SEQEND
  5
245
  8
0
  6
CONTINUOUS
 62
     7
  0
POLYLINE
  5
A9
  8
0
  6
CONTINUOUS
 62
     7
 66
     1
 10
0.0
 20
0.0
 30
0.0
  0
VERTEX
  5
17C
  8
0
  6
CONTINUOUS
 62
     7
 10
153.0
 20
123.7784503236556
 30
0.0
  0
VERTEX
  5
17D
  8
0
  6
CONTINUOUS
 62
     7
 10
153.1143365323341
 20
122.6865264719672
 30
0.0
  0
VERTEX
  5
17E
  8
0
  6
CONTINUOUS
 62
     7
 10
153.4536110314434
 20
121.6302731307859
 30
0.0
  0
VERTEX
  5
17F
  8
0
  6
CONTINUOUS
 62
     7
 10
154.0067402202598
 20
120.6441955413395
 30
0.0
  0
VERTEX
  5
180
  8
0
  6
CONTINUOUS
 62
     7
 10
154.7556547063885
 20
119.760506472825
 30
0.0
  0
VERTEX
  5
181
  8
0
  6
CONTINUOUS
 62
     7
 10
155.6758892654413
 20
119.0080739091726
 30
0.0
  0
SEQEND
  5
246
  8
0
  6
CONTINUOUS
 62
     7
  0
POLYLINE
  5
AA
  8
0
  6
CONTINUOUS
 62
     7
 66
     1
 10
0.0
 20
0.0
 30
0.0
  0
VERTEX
  5
182
  8
0
  6
CONTINUOUS
 62
     7
 10
164.3241107345586
 20
119.0080739091725
 30
0.0
  0
VERTEX
  5
183
  8
0
  6
CONTINUOUS
 62
     7
 10
165.2443452936115
 20
119.760506472825
 30
0.0
  0
VERTEX
  5
184
  8
0
  6
CONTINUOUS
 62
     7
 10
165.9932597797402
 20
120.6441955413395
 30
0.0
  0
VERTEX
  5
185
  8
0
  6
CONTINUOUS
 62
     7
 10
166.5463889685567
 20
121.630273130786
 30
0.0
  0
VERTEX
  5
186
  8
0
  6
CONTINUOUS
 62
     7
 10
166.8856634676659
 20
122.6865264719673
 30
0.0
  0
VERTEX
  5
187
  8
0
  6
CONTINUOUS
 62
     7
 10
167.0
 20
123.7784503236557
 30
0.0
  0
SEQEND
  5
247
  8
0
  6
CONTINUOUS
 62
     7
  0
POLYLINE
  5
AB
  8
0
  6
CONTINUOUS
 62
     7
 66
     1
 10
0.0
 20
0.0
 30
0.0
  0
VERTEX
  5
188
  8
0
  6
CONTINUOUS
 62
     7
 10
160.0
 20
130.2438289207837
 30
0.0
  0
VERTEX
  5
189
  8
0
  6
CONTINUOUS
 62
     7
 10
158.6343677458871
 20
130.1272691679543
 30
0.0
  0
VERTEX
  5
18A
  8
0
  6
CONTINUOUS
 62
     7
 10
157.3212159734444
 20
129.7820692353998
 30
0.0
  0
VERTEX
  5
18B
  8
0
  6
CONTINUOUS
 62
     7
 10
156.1110083688628
 20
129.221494962938
 30
0.0
  0
VERTEX
  5
18C
  8
0
  6
CONTINUOUS
 62
     7
 10
155.0502525316941
 20
128.4670889054859
 30
0.0
  0
VERTEX
  5
18D
  8
0
  6
CONTINUOUS
 62
     7
 10
154.1797127138822
 20
127.5478424647555
 30
0.0
  0
VERTEX
  5
18E
  8
0
  6
CONTINUOUS
 62
     7
 10
153.532843272421
 20
126.4990817659449
 30
0.0
  0
VERTEX
  5
18F
  8
0
  6
CONTINUOUS
 62
     7
 10
153.1345030371774
 20
125.3611100945575
 30
0.0
  0
VERTEX
  5
190
  8
0
  6
CONTINUOUS
 62
     7
 10
153.0
 20
124.1776590637428
 30
0.0
  0
SEQEND
  5
248
  8
0
  6
CONTINUOUS
 62
     7
  0
POLYLINE
  5
AC
  8
0
  6
CONTINUOUS
 62
     7
 66
     1
 10
0.0
 20
0.0
 30
0.0
  0
VERTEX
  5
191
  8
0
  6
CONTINUOUS
 62
     7
 10
157.0
 20
108.8392874971827
 30
0.0
  0
VERTEX
  5
192
  8
0
  6
CONTINUOUS
 62
     7
 10
157.0576441587903
 20
108.3391975522223
 30
0.0
  0
VERTEX
  5
193
  8
0
  6
CONTINUOUS
 62
     7
 10
157.2283614024661
 20
107.8583257833931
 30
0.0
  0
VERTEX
  5
194
  8
0
  6
CONTINUOUS
 62
     7
 10
157.5055911630924
 20
107.4151518230951
 30
0.0
  0
VERTEX
  5
195
  8
0
  6
CONTINUOUS
 62
     7
 10
157.8786796564403
 20
107.0267065980878
 30
0.0
  0
VERTEX
  5
196
  8
0
  6
CONTINUOUS
 62
     7
 10
158.3332893009412
 20
106.7079178405257
 30
0.0
  0
VERTEX
  5
197
  8
0
  6
CONTINUOUS
 62
     7
 10
158.8519497029047
 20
106.471036423583
 30
0.0
  0
VERTEX
  5
198
  8
0
  6
CONTINUOUS
 62
     7
 10
159.4147290339516
 20
106.3251655672682
 30
0.0
  0
VERTEX
  5
199
  8
0
  6
CONTINUOUS
 62
     7
 10
160.0
 20
106.2759110067843
 30
0.0
  0
SEQEND
  5
249
  8
0
  6
CONTINUOUS
 62
     7
  0
POLYLINE
  5
AD
  8
0
  6
CONTINUOUS
 62
     7
 66
     1
 10
0.0
 20
0.0
 30
0.0
  0
VERTEX
  5
19A
  8
0
  6
CONTINUOUS
 62
     7
 10
163.0
 20
108.8392874971827
 30
0.0
  0
VERTEX
  5
19B
  8
0
  6
CONTINUOUS
 62
     7
 10
162.9423558412097
 20
109.3393774421431
 30
0.0
  0
VERTEX
  5
19C
  8
0
  6
CONTINUOUS
 62
     7
 10
162.7716385975339
 20
109.8202492109723
 30
0.0
  0
VERTEX
  5
19D
  8
0
  6
CONTINUOUS
 62
     7
 10
162.4944088369076
 20
110.2634231712703
 30
0.0
  0
VERTEX
  5
19E
  8
0
  6
CONTINUOUS
 62
     7
 10
162.1213203435597
 20
110.6518683962776
 30
0.0
  0
VERTEX
  5
19F
  8
0
  6
CONTINUOUS
 62
     7
 10
161.6667106990588
 20
110.9706571538397
 30
0.0
  0
VERTEX
  5
1A0
  8
0
  6
CONTINUOUS
 62
     7
 10
161.1480502970953
 20
111.2075385707824
 30
0.0
  0
VERTEX
  5
1A1
  8
0
  6
CONTINUOUS
 62
     7
 10
160.5852709660484
 20
111.3534094270972
 30
0.0
  0
VERTEX
  5
1A2
  8
0
  6
CONTINUOUS
 62
     7
 10
160.0
 20
111.4026639875811
 30
0.0
  0
VERTEX
  5
1A3
  8
0
  6
CONTINUOUS
 62
     7
 10
159.4147290339516
 20
111.3534094270972
 30
0.0
  0
VERTEX
  5
1A4
  8
0
  6
CONTINUOUS
 62
     7
 10
158.8519497029048
 20
111.2075385707824
 30
0.0
  0
VERTEX
  5
1A5
  8
0
  6
CONTINUOUS
 62
     7
 10
158.3332893009412
 20
110.9706571538398
 30
0.0
  0
VERTEX
  5
1A6
  8
0
  6
CONTINUOUS
 62
     7
 10
157.8786796564404
 20
110.6518683962776
 30
0.0
  0
VERTEX
  5
1A7
  8
0
  6
CONTINUOUS
 62
     7
 10
157.5055911630924
 20
110.2634231712704
 30
0.0
  0
VERTEX
  5
1A8
  8
0
  6
CONTINUOUS
 62
     7
 10
157.2283614024662
 20
109.8202492109724
 30
0.0
  0
VERTEX
  5
1A9
  8
0
  6
CONTINUOUS
 62
     7
 10
157.0576441587903
 20
109.3393774421431
 30
0.0
  0
VERTEX
  5
1AA
  8
0
  6
CONTINUOUS
 62
     7
 10
157.0
 20
108.8392874971827
 30
0.0
  0
SEQEND
  5
24A
  8
0
  6
CONTINUOUS
 62
     7
  0
POLYLINE
  5
AE
  8
0
  6
CONTINUOUS
 62
     7
 66
     1
 10
0.0
 20
0.0
 30
0.0
  0
VERTEX
  5
1AB
  8
0
  6
CONTINUOUS
 62
     7
 10
160.0
 20
106.2759110067843
 30
0.0
  0
VERTEX
  5
1AC
  8
0
  6
CONTINUOUS
 62
     7
 10
160.5852709660484
 20
106.3251655672682
 30
0.0
  0
VERTEX
  5
1AD
  8
0
  6
CONTINUOUS
 62
     7
 10
161.1480502970953
 20
106.471036423583
 30
0.0
  0
VERTEX
  5
1AE
  8
0
  6
CONTINUOUS
 62
     7
 10
161.6667106990588
 20
106.7079178405257
 30
0.0
  0
VERTEX
  5
1AF
  8
0
  6
CONTINUOUS
 62
     7
 10
162.1213203435597
 20
107.0267065980878
 30
0.0
  0
VERTEX
  5
1B0
  8
0
  6
CONTINUOUS
 62
     7
 10
162.4944088369076
 20
107.4151518230951
 30
0.0
  0
VERTEX
  5
1B1
  8
0
  6
CONTINUOUS
 62
     7
 10
162.7716385975339
 20
107.858325783393
 30
0.0
  0
VERTEX
  5
1B2
  8
0
  6
CONTINUOUS
 62
     7
 10
162.9423558412097
 20
108.3391975522223
 30
0.0
  0
VERTEX
  5
1B3
  8
0
  6
CONTINUOUS
 62
     7
 10
163.0
 20
108.8392874971827
 30
0.0
  0
SEQEND
  5
24B
  8
0
  6
CONTINUOUS
 62
     7
  0
LINE
  5
AF
  8
0
  6
CONTINUOUS
 62
     7
 10
157.0
 20
130.2483378806857
 30
0.0
 11
157.0
 21
129.6584914699449
 31
0.0
  0
POLYLINE
  5
B0
  8
0
  6
CONTINUOUS
 62
     7
 66
     1
 10
0.0
 20
0.0
 30
0.0
  0
VERTEX
  5
1B4
  8
0
  6
CONTINUOUS
 62
     7
 10
157.5
 20
130.7219430195587
 30
0.0
  0
VERTEX
  5
1B5
  8
0
  6
CONTINUOUS
 62
     7
 10
157.4024548389919
 20
130.7128428296157
 30
0.0
  0
VERTEX
  5
1B6
  8
0
  6
CONTINUOUS
 62
     7
 10
157.3086582838175
 20
130.6858919749826
 30
0.0
  0
VERTEX
  5
1B7
  8
0
  6
CONTINUOUS
 62
     7
 10
157.2222148834902
 20
130.6421261618889
 30
0.0
  0
VERTEX
  5
1B8
  8
0
  6
CONTINUOUS
 62
     7
 10
157.1464466094067
 20
130.5832272859876
 30
0.0
  0
VERTEX
  5
1B9
  8
0
  6
CONTINUOUS
 62
     7
 10
157.0842651938487
 20
130.5114587980486
 30
0.0
  0
VERTEX
  5
1BA
  8
0
  6
CONTINUOUS
 62
     7
 10
157.0380602337443
 20
130.4295787208154
 30
0.0
  0
VERTEX
  5
1BB
  8
0
  6
CONTINUOUS
 62
     7
 10
157.0096073597984
 20
130.3407336597369
 30
0.0
  0
VERTEX
  5
1BC
  8
0
  6
CONTINUOUS
 62
     7
 10
157.0
 20
130.2483378806857
 30
0.0
  0
SEQEND
  5
24C
  8
0
  6
CONTINUOUS
 62
     7
  0
LINE
  5
B1
  8
0
  6
CONTINUOUS
 62
     7
 10
157.5
 20
130.7219430195587
 30
0.0
 11
157.7276828659661
 21
130.7219430195587
 31
0.0
  0
LINE
  5
B2
  8
0
  6
CONTINUOUS
 62
     7
 10
162.2723171340339
 20
130.7219430195587
 30
0.0
 11
162.5
 21
130.7219430195587
 31
0.0
  0
POLYLINE
  5
B3
  8
0
  6
CONTINUOUS
 62
     7
 66
     1
 10
0.0
 20
0.0
 30
0.0
  0
VERTEX
  5
1BD
  8
0
  6
CONTINUOUS
 62
     7
 10
163.0
 20
130.2483378806857
 30
0.0
  0
VERTEX
  5
1BE
  8
0
  6
CONTINUOUS
 62
     7
 10
162.9903926402016
 20
130.3407336597369
 30
0.0
  0
VERTEX
  5
1BF
  8
0
  6
CONTINUOUS
 62
     7
 10
162.9619397662557
 20
130.4295787208154
 30
0.0
  0
VERTEX
  5
1C0
  8
0
  6
CONTINUOUS
 62
     7
 10
162.9157348061513
 20
130.5114587980486
 30
0.0
  0
VERTEX
  5
1C1
  8
0
  6
CONTINUOUS
 62
     7
 10
162.8535533905933
 20
130.5832272859876
 30
0.0
  0
VERTEX
  5
1C2
  8
0
  6
CONTINUOUS
 62
     7
 10
162.7777851165098
 20
130.6421261618889
 30
0.0
  0
VERTEX
  5
1C3
  8
0
  6
CONTINUOUS
 62
     7
 10
162.6913417161825
 20
130.6858919749826
 30
0.0
  0
VERTEX
  5
1C4
  8
0
  6
CONTINUOUS
 62
     7
 10
162.5975451610081
 20
130.7128428296157
 30
0.0
  0
VERTEX
  5
1C5
  8
0
  6
CONTINUOUS
 62
     7
 10
162.5
 20
130.7219430195587
 30
0.0
  0
SEQEND
  5
24D
  8
0
  6
CONTINUOUS
 62
     7
  0
LINE
  5
B4
  8
0
  6
CONTINUOUS
 62
     7
 10
163.0
 20
130.2483378806857
 30
0.0
 11
163.0
 21
129.6584914699449
 31
0.0
  0
POLYLINE
  5
B5
  8
0
  6
CONTINUOUS
 62
     7
 66
     1
 10
0.0
 20
0.0
 30
0.0
  0
VERTEX
  5
1C6
  8
0
  6
CONTINUOUS
 62
     7
 10
163.5
 20
132.66063035734
 30
0.0
  0
VERTEX
  5
1C7
  8
0
  6
CONTINUOUS
 62
     7
 10
162.3941410032797
 20
133.1490787728772
 30
0.0
  0
VERTEX
  5
1C8
  8
0
  6
CONTINUOUS
 62
     7
 10
161.2155372436685
 20
133.4482133913635
 30
0.0
  0
VERTEX
  5
1C9
  8
0
  6
CONTINUOUS
 62
     7
 10
160.0
 20
133.5489451587858
 30
0.0
  0
SEQEND
  5
24E
  8
0
  6
CONTINUOUS
 62
     7
  0
POLYLINE
  5
B6
  8
0
  6
CONTINUOUS
 62
     7
 66
     1
 10
0.0
 20
0.0
 30
0.0
  0
VERTEX
  5
1CA
  8
0
  6
CONTINUOUS
 62
     7
 10
160.0
 20
133.5489451587858
 30
0.0
  0
VERTEX
  5
1CB
  8
0
  6
CONTINUOUS
 62
     7
 10
158.7844627563315
 20
133.4482133913635
 30
0.0
  0
VERTEX
  5
1CC
  8
0
  6
CONTINUOUS
 62
     7
 10
157.6058589967203
 20
133.1490787728772
 30
0.0
  0
VERTEX
  5
1CD
  8
0
  6
CONTINUOUS
 62
     7
 10
156.5
 20
132.66063035734
 30
0.0
  0
SEQEND
  5
24F
  8
0
  6
CONTINUOUS
 62
     7
  0
LINE
  5
B7
  8
0
  6
CONTINUOUS
 62
     7
 10
147.5
 20
169.2240889932158
 30
0.0
 11
142.5
 21
169.2240889932158
 31
0.0
  0
LINE
  5
B8
  8
0
  6
CONTINUOUS
 62
     7
 10
142.5
 20
169.2240889932158
 30
0.0
 11
142.5
 21
173.7240889932158
 31
0.0
  0
LINE
  5
B9
  8
0
  6
CONTINUOUS
 62
     7
 10
142.5
 20
173.7240889932158
 30
0.0
 11
147.5
 21
173.7240889932158
 31
0.0
  0
LINE
  5
BA
  8
0
  6
CONTINUOUS
 62
     7
 10
177.5
 20
173.7240889932158
 30
0.0
 11
177.5
 21
169.2240889932158
 31
0.0
  0
LINE
  5
BB
  8
0
  6
CONTINUOUS
 62
     7
 10
177.5
 20
169.2240889932158
 30
0.0
 11
172.5
 21
169.2240889932158
 31
0.0
  0
LINE
  5
BC
  8
0
  6
CONTINUOUS
 62
     7
 10
172.5
 20
173.7240889932158
 30
0.0
 11
177.5
 21
173.7240889932158
 31
0.0
  0
LINE
  5
BD
  8
0
  6
CONTINUOUS
 62
     7
 10
172.5
 20
169.2240889932158
 30
0.0
 11
147.5
 21
169.2240889932158
 31
0.0
  0
LINE
  5
BE
  8
0
  6
CONTINUOUS
 62
     7
 10
172.5
 20
173.7240889932158
 30
0.0
 11
147.5
 21
173.7240889932158
 31
0.0
  0
LINE
  5
BF
  8
0
  6
CONTINUOUS
 62
     7
 10
177.5
 20
132.9857513420926
 30
0.0
 11
177.5
 21
130.7357513420925
 31
0.0
  0
POLYLINE
  5
C0
  8
0
  6
CONTINUOUS
 62
     7
 66
     1
 10
0.0
 20
0.0
 30
0.0
  0
VERTEX
  5
1CE
  8
0
  6
CONTINUOUS
 62
     7
 10
177.5
 20
130.7357513420925
 30
0.0
  0
VERTEX
  5
1CF
  8
0
  6
CONTINUOUS
 62
     7
 10
177.4039264020161
 20
131.5805172165848
 30
0.0
  0
VERTEX
  5
1D0
  8
0
  6
CONTINUOUS
 62
     7
 10
177.1193976625564
 20
132.3928192122705
 30
0.0
  0
VERTEX
  5
1D1
  8
0
  6
CONTINUOUS
 62
     7
 10
176.6573480615127
 20
133.1414410189996
 30
0.0
  0
VERTEX
  5
1D2
  8
0
  6
CONTINUOUS
 62
     7
 10
176.0355339059327
 20
133.7976135205715
 30
0.0
  0
VERTEX
  5
1D3
  8
0
  6
CONTINUOUS
 62
     7
 10
175.277851165098
 20
134.3361203757365
 30
0.0
  0
VERTEX
  5
1D4
  8
0
  6
CONTINUOUS
 62
     7
 10
174.4134171618254
 20
134.7362670680488
 30
0.0
  0
VERTEX
  5
1D5
  8
0
  6
CONTINUOUS
 62
     7
 10
173.4754516100806
 20
134.9826761845277
 30
0.0
  0
VERTEX
  5
1D6
  8
0
  6
CONTINUOUS
 62
     7
 10
172.5
 20
135.0658783610147
 30
0.0
  0
SEQEND
  5
250
  8
0
  6
CONTINUOUS
 62
     7
  0
POLYLINE
  5
C1
  8
0
  6
CONTINUOUS
 62
     7
 66
     1
 10
0.0
 20
0.0
 30
0.0
  0
VERTEX
  5
1D7
  8
0
  6
CONTINUOUS
 62
     7
 10
177.5
 20
132.9857513420926
 30
0.0
  0
VERTEX
  5
1D8
  8
0
  6
CONTINUOUS
 62
     7
 10
177.4039264020162
 20
133.8305172165848
 30
0.0
  0
VERTEX
  5
1D9
  8
0
  6
CONTINUOUS
 62
     7
 10
177.1193976625564
 20
134.6428192122705
 30
0.0
  0
VERTEX
  5
1DA
  8
0
  6
CONTINUOUS
 62
     7
 10
176.6573480615127
 20
135.3914410189996
 30
0.0
  0
VERTEX
  5
1DB
  8
0
  6
CONTINUOUS
 62
     7
 10
176.0355339059327
 20
136.0476135205715
 30
0.0
  0
VERTEX
  5
1DC
  8
0
  6
CONTINUOUS
 62
     7
 10
175.277851165098
 20
136.5861203757366
 30
0.0
  0
VERTEX
  5
1DD
  8
0
  6
CONTINUOUS
 62
     7
 10
174.4134171618254
 20
136.9862670680489
 30
0.0
  0
VERTEX
  5
1DE
  8
0
  6
CONTINUOUS
 62
     7
 10
173.4754516100806
 20
137.2326761845278
 30
0.0
  0
VERTEX
  5
1DF
  8
0
  6
CONTINUOUS
 62
     7
 10
172.5
 20
137.3158783610147
 30
0.0
  0
SEQEND
  5
251
  8
0
  6
CONTINUOUS
 62
     7
  0
LINE
  5
C2
  8
0
  6
CONTINUOUS
 62
     7
 10
177.5
 20
130.7357513420925
 30
0.0
 11
177.5
 21
119.4740889932157
 31
0.0
  0
LINE
  5
C3
  8
0
  6
CONTINUOUS
 62
     7
 10
163.5
 20
133.3338275534459
 30
0.0
 11
163.5
 21
129.4311162636117
 31
0.0
  0
POLYLINE
  5
C4
  8
0
  6
CONTINUOUS
 62
     7
 66
     1
 10
0.0
 20
0.0
 30
0.0
  0
VERTEX
  5
1E0
  8
0
  6
CONTINUOUS
 62
     7
 10
165.5
 20
135.0658783610147
 30
0.0
  0
VERTEX
  5
1E1
  8
0
  6
CONTINUOUS
 62
     7
 10
165.1098193559677
 20
135.03259749042
 30
0.0
  0
VERTEX
  5
1E2
  8
0
  6
CONTINUOUS
 62
     7
 10
164.7346331352698
 20
134.9340338438284
 30
0.0
  0
VERTEX
  5
1E3
  8
0
  6
CONTINUOUS
 62
     7
 10
164.3888595339608
 20
134.7739751669035
 30
0.0
  0
VERTEX
  5
1E4
  8
0
  6
CONTINUOUS
 62
     7
 10
164.0857864376269
 20
134.5585724248375
 30
0.0
  0
VERTEX
  5
1E5
  8
0
  6
CONTINUOUS
 62
     7
 10
163.8370607753949
 20
134.2961034242087
 30
0.0
  0
VERTEX
  5
1E6
  8
0
  6
CONTINUOUS
 62
     7
 10
163.6522409349774
 20
133.9966547015171
 30
0.0
  0
VERTEX
  5
1E7
  8
0
  6
CONTINUOUS
 62
     7
 10
163.5384294391935
 20
133.6717339032428
 30
0.0
  0
VERTEX
  5
1E8
  8
0
  6
CONTINUOUS
 62
     7
 10
163.5
 20
133.3338275534459
 30
0.0
  0
SEQEND
  5
252
  8
0
  6
CONTINUOUS
 62
     7
  0
LINE
  5
C5
  8
0
  6
CONTINUOUS
 62
     7
 10
172.5
 20
135.0658783610147
 30
0.0
 11
165.5
 21
135.0658783610147
 31
0.0
  0
LINE
  5
C6
  8
0
  6
CONTINUOUS
 62
     7
 10
142.5
 20
130.7357513420925
 30
0.0
 11
142.5
 21
119.4740889932157
 31
0.0
  0
POLYLINE
  5
C7
  8
0
  6
CONTINUOUS
 62
     7
 66
     1
 10
0.0
 20
0.0
 30
0.0
  0
VERTEX
  5
1E9
  8
0
  6
CONTINUOUS
 62
     7
 10
147.5
 20
135.0658783610147
 30
0.0
  0
VERTEX
  5
1EA
  8
0
  6
CONTINUOUS
 62
     7
 10
146.5245483899193
 20
134.9826761845277
 30
0.0
  0
VERTEX
  5
1EB
  8
0
  6
CONTINUOUS
 62
     7
 10
145.5865828381745
 20
134.7362670680488
 30
0.0
  0
VERTEX
  5
1EC
  8
0
  6
CONTINUOUS
 62
     7
 10
144.722148834902
 20
134.3361203757366
 30
0.0
  0
VERTEX
  5
1ED
  8
0
  6
CONTINUOUS
 62
     7
 10
143.9644660940673
 20
133.7976135205715
 30
0.0
  0
VERTEX
  5
1EE
  8
0
  6
CONTINUOUS
 62
     7
 10
143.3426519384873
 20
133.1414410189996
 30
0.0
  0
VERTEX
  5
1EF
  8
0
  6
CONTINUOUS
 62
     7
 10
142.8806023374435
 20
132.3928192122705
 30
0.0
  0
VERTEX
  5
1F0
  8
0
  6
CONTINUOUS
 62
     7
 10
142.5960735979838
 20
131.5805172165848
 30
0.0
  0
VERTEX
  5
1F1
  8
0
  6
CONTINUOUS
 62
     7
 10
142.5
 20
130.7357513420925
 30
0.0
  0
SEQEND
  5
253
  8
0
  6
CONTINUOUS
 62
     7
  0
LINE
  5
C8
  8
0
  6
CONTINUOUS
 62
     7
 10
147.5
 20
135.0658783610147
 30
0.0
 11
154.5
 21
135.0658783610147
 31
0.0
  0
POLYLINE
  5
C9
  8
0
  6
CONTINUOUS
 62
     7
 66
     1
 10
0.0
 20
0.0
 30
0.0
  0
VERTEX
  5
1F2
  8
0
  6
CONTINUOUS
 62
     7
 10
156.5
 20
133.3338275534459
 30
0.0
  0
VERTEX
  5
1F3
  8
0
  6
CONTINUOUS
 62
     7
 10
156.4615705608065
 20
133.6717339032428
 30
0.0
  0
VERTEX
  5
1F4
  8
0
  6
CONTINUOUS
 62
     7
 10
156.3477590650226
 20
133.9966547015171
 30
0.0
  0
VERTEX
  5
1F5
  8
0
  6
CONTINUOUS
 62
     7
 10
156.1629392246051
 20
134.2961034242087
 30
0.0
  0
VERTEX
  5
1F6
  8
0
  6
CONTINUOUS
 62
     7
 10
155.9142135623731
 20
134.5585724248375
 30
0.0
  0
VERTEX
  5
1F7
  8
0
  6
CONTINUOUS
 62
     7
 10
155.6111404660392
 20
134.7739751669035
 30
0.0
  0
VERTEX
  5
1F8
  8
0
  6
CONTINUOUS
 62
     7
 10
155.2653668647302
 20
134.9340338438284
 30
0.0
  0
VERTEX
  5
1F9
  8
0
  6
CONTINUOUS
 62
     7
 10
154.8901806440323
 20
135.03259749042
 30
0.0
  0
VERTEX
  5
1FA
  8
0
  6
CONTINUOUS
 62
     7
 10
154.5
 20
135.0658783610147
 30
0.0
  0
SEQEND
  5
254
  8
0
  6
CONTINUOUS
 62
     7
  0
LINE
  5
CA
  8
0
  6
CONTINUOUS
 62
     7
 10
156.5
 20
133.3338275534459
 30
0.0
 11
156.5
 21
129.4311162636116
 31
0.0
  0
LINE
  5
CB
  8
0
  6
CONTINUOUS
 62
     7
 10
142.5
 20
130.7357513420925
 30
0.0
 11
142.5
 21
132.9857513420926
 31
0.0
  0
POLYLINE
  5
CC
  8
0
  6
CONTINUOUS
 62
     7
 66
     1
 10
0.0
 20
0.0
 30
0.0
  0
VERTEX
  5
1FB
  8
0
  6
CONTINUOUS
 62
     7
 10
147.5
 20
137.3158783610147
 30
0.0
  0
VERTEX
  5
1FC
  8
0
  6
CONTINUOUS
 62
     7
 10
146.5245483899194
 20
137.2326761845277
 30
0.0
  0
VERTEX
  5
1FD
  8
0
  6
CONTINUOUS
 62
     7
 10
145.5865828381746
 20
136.9862670680489
 30
0.0
  0
VERTEX
  5
1FE
  8
0
  6
CONTINUOUS
 62
     7
 10
144.722148834902
 20
136.5861203757366
 30
0.0
  0
VERTEX
  5
1FF
  8
0
  6
CONTINUOUS
 62
     7
 10
143.9644660940673
 20
136.0476135205715
 30
0.0
  0
VERTEX
  5
200
  8
0
  6
CONTINUOUS
 62
     7
 10
143.3426519384873
 20
135.3914410189996
 30
0.0
  0
VERTEX
  5
201
  8
0
  6
CONTINUOUS
 62
     7
 10
142.8806023374436
 20
134.6428192122705
 30
0.0
  0
VERTEX
  5
202
  8
0
  6
CONTINUOUS
 62
     7
 10
142.5960735979839
 20
133.8305172165848
 30
0.0
  0
VERTEX
  5
203
  8
0
  6
CONTINUOUS
 62
     7
 10
142.5
 20
132.9857513420926
 30
0.0
  0
SEQEND
  5
255
  8
0
  6
CONTINUOUS
 62
     7
  0
LINE
  5
CD
  8
0
  6
CONTINUOUS
 62
     7
 10
172.5
 20
137.3158783610148
 30
0.0
 11
165.5
 21
137.3158783610148
 31
0.0
  0
LINE
  5
CE
  8
0
  6
CONTINUOUS
 62
     7
 10
156.5
 20
135.5838275534459
 30
0.0
 11
156.5
 21
133.3338275534459
 31
0.0
  0
POLYLINE
  5
CF
  8
0
  6
CONTINUOUS
 62
     7
 66
     1
 10
0.0
 20
0.0
 30
0.0
  0
VERTEX
  5
204
  8
0
  6
CONTINUOUS
 62
     7
 10
156.5
 20
135.5838275534459
 30
0.0
  0
VERTEX
  5
205
  8
0
  6
CONTINUOUS
 62
     7
 10
156.4615705608065
 20
135.9217339032428
 30
0.0
  0
VERTEX
  5
206
  8
0
  6
CONTINUOUS
 62
     7
 10
156.3477590650226
 20
136.2466547015171
 30
0.0
  0
VERTEX
  5
207
  8
0
  6
CONTINUOUS
 62
     7
 10
156.1629392246051
 20
136.5461034242087
 30
0.0
  0
VERTEX
  5
208
  8
0
  6
CONTINUOUS
 62
     7
 10
155.9142135623731
 20
136.8085724248375
 30
0.0
  0
VERTEX
  5
209
  8
0
  6
CONTINUOUS
 62
     7
 10
155.6111404660392
 20
137.0239751669035
 30
0.0
  0
VERTEX
  5
20A
  8
0
  6
CONTINUOUS
 62
     7
 10
155.2653668647302
 20
137.1840338438284
 30
0.0
  0
VERTEX
  5
20B
  8
0
  6
CONTINUOUS
 62
     7
 10
154.8901806440323
 20
137.28259749042
 30
0.0
  0
VERTEX
  5
20C
  8
0
  6
CONTINUOUS
 62
     7
 10
154.5
 20
137.3158783610147
 30
0.0
  0
SEQEND
  5
256
  8
0
  6
CONTINUOUS
 62
     7
  0
LINE
  5
D0
  8
0
  6
CONTINUOUS
 62
     7
 10
147.5
 20
137.3158783610148
 30
0.0
 11
154.5
 21
137.3158783610148
 31
0.0
  0
LINE
  5
D1
  8
0
  6
CONTINUOUS
 62
     7
 10
163.5
 20
133.3338275534459
 30
0.0
 11
163.5
 21
135.5838275534459
 31
0.0
  0
POLYLINE
  5
D2
  8
0
  6
CONTINUOUS
 62
     7
 66
     1
 10
0.0
 20
0.0
 30
0.0
  0
VERTEX
  5
20D
  8
0
  6
CONTINUOUS
 62
     7
 10
165.5
 20
137.3158783610147
 30
0.0
  0
VERTEX
  5
20E
  8
0
  6
CONTINUOUS
 62
     7
 10
165.1098193559678
 20
137.28259749042
 30
0.0
  0
VERTEX
  5
20F
  8
0
  6
CONTINUOUS
 62
     7
 10
164.7346331352698
 20
137.1840338438284
 30
0.0
  0
VERTEX
  5
210
  8
0
  6
CONTINUOUS
 62
     7
 10
164.3888595339608
 20
137.0239751669035
 30
0.0
  0
VERTEX
  5
211
  8
0
  6
CONTINUOUS
 62
     7
 10
164.0857864376269
 20
136.8085724248375
 30
0.0
  0
VERTEX
  5
212
  8
0
  6
CONTINUOUS
 62
     7
 10
163.8370607753949
 20
136.5461034242087
 30
0.0
  0
VERTEX
  5
213
  8
0
  6
CONTINUOUS
 62
     7
 10
163.6522409349774
 20
136.2466547015171
 30
0.0
  0
VERTEX
  5
214
  8
0
  6
CONTINUOUS
 62
     7
 10
163.5384294391935
 20
135.9217339032428
 30
0.0
  0
VERTEX
  5
215
  8
0
  6
CONTINUOUS
 62
     7
 10
163.5
 20
135.5838275534459
 30
0.0
  0
SEQEND
  5
257
  8
0
  6
CONTINUOUS
 62
     7
  0
LINE
  5
D3
  8
0
  6
CONTINUOUS
 62
     7
 10
142.5
 20
119.4740889932157
 30
0.0
 11
142.5
 21
115.7240889932157
 31
0.0
  0
LINE
  5
D4
  8
0
  6
CONTINUOUS
 62
     7
 10
177.5
 20
119.4740889932157
 30
0.0
 11
177.5
 21
115.7240889932157
 31
0.0
  0
LINE
  5
D5
  8
0
  6
CONTINUOUS
 62
     7
 10
163.5
 20
140.7432212532297
 30
0.0
 11
163.5
 21
135.5838275534459
 31
0.0
  0
POLYLINE
  5
D6
  8
0
  6
CONTINUOUS
 62
     7
 66
     1
 10
0.0
 20
0.0
 30
0.0
  0
VERTEX
  5
216
  8
0
  6
CONTINUOUS
 62
     7
 10
163.5
 20
140.7432212532297
 30
0.0
  0
VERTEX
  5
217
  8
0
  6
CONTINUOUS
 62
     7
 10
163.4903926402016
 20
140.8356526781506
 30
0.0
  0
VERTEX
  5
218
  8
0
  6
CONTINUOUS
 62
     7
 10
163.4619397662557
 20
140.9245320152478
 30
0.0
  0
VERTEX
  5
219
  8
0
  6
CONTINUOUS
 62
     7
 10
163.4157348061513
 20
141.006443681441
 30
0.0
  0
VERTEX
  5
21A
  8
0
  6
CONTINUOUS
 62
     7
 10
163.3535533905933
 20
141.0782398573348
 30
0.0
  0
VERTEX
  5
21B
  8
0
  6
CONTINUOUS
 62
     7
 10
163.2777851165098
 20
141.1371614561535
 30
0.0
  0
VERTEX
  5
21C
  8
0
  6
CONTINUOUS
 62
     7
 10
163.1913417161825
 20
141.180944153898
 30
0.0
  0
VERTEX
  5
21D
  8
0
  6
CONTINUOUS
 62
     7
 10
163.0975451610081
 20
141.2079054060477
 30
0.0
  0
VERTEX
  5
21E
  8
0
  6
CONTINUOUS
 62
     7
 10
163.0
 20
141.2170091068024
 30
0.0
  0
SEQEND
  5
258
  8
0
  6
CONTINUOUS
 62
     7
  0
LINE
  5
D7
  8
0
  6
CONTINUOUS
 62
     7
 10
157.0
 20
141.2170091068025
 30
0.0
 11
163.0
 21
141.2170091068025
 31
0.0
  0
POLYLINE
  5
D8
  8
0
  6
CONTINUOUS
 62
     7
 66
     1
 10
0.0
 20
0.0
 30
0.0
  0
VERTEX
  5
21F
  8
0
  6
CONTINUOUS
 62
     7
 10
157.0
 20
141.2170091068024
 30
0.0
  0
VERTEX
  5
220
  8
0
  6
CONTINUOUS
 62
     7
 10
156.9024548389919
 20
141.2079054060477
 30
0.0
  0
VERTEX
  5
221
  8
0
  6
CONTINUOUS
 62
     7
 10
156.8086582838175
 20
141.180944153898
 30
0.0
  0
VERTEX
  5
222
  8
0
  6
CONTINUOUS
 62
     7
 10
156.7222148834902
 20
141.1371614561535
 30
0.0
  0
VERTEX
  5
223
  8
0
  6
CONTINUOUS
 62
     7
 10
156.6464466094067
 20
141.0782398573348
 30
0.0
  0
VERTEX
  5
224
  8
0
  6
CONTINUOUS
 62
     7
 10
156.5842651938487
 20
141.006443681441
 30
0.0
  0
VERTEX
  5
225
  8
0
  6
CONTINUOUS
 62
     7
 10
156.5380602337443
 20
140.9245320152478
 30
0.0
  0
VERTEX
  5
226
  8
0
  6
CONTINUOUS
 62
     7
 10
156.5096073597984
 20
140.8356526781506
 30
0.0
  0
VERTEX
  5
227
  8
0
  6
CONTINUOUS
 62
     7
 10
156.5
 20
140.7432212532297
 30
0.0
  0
SEQEND
  5
259
  8
0
  6
CONTINUOUS
 62
     7
  0
LINE
  5
D9
  8
0
  6
CONTINUOUS
 62
     7
 10
156.5
 20
140.7432212532297
 30
0.0
 11
156.5
 21
135.5838275534459
 31
0.0
  0
LINE
  5
DA
  8
0
  6
CONTINUOUS
 62
     7
 10
142.5
 20
165.2654949638942
 30
0.0
 11
142.5
 21
132.9857513420926
 31
0.0
  0
LINE
  5
DB
  8
0
  6
CONTINUOUS
 62
     7
 10
177.5
 20
165.2654949638942
 30
0.0
 11
177.5
 21
132.9857513420926
 31
0.0
  0
POLYLINE
  5
DC
  8
0
  6
CONTINUOUS
 62
     7
 66
     1
 10
0.0
 20
0.0
 30
0.0
  0
VERTEX
  5
228
  8
0
  6
CONTINUOUS
 62
     7
 10
157.0
 20
139.7791180628201
 30
0.0
  0
VERTEX
  5
229
  8
0
  6
CONTINUOUS
 62
     7
 10
156.9024548389919
 20
139.7700143620654
 30
0.0
  0
VERTEX
  5
22A
  8
0
  6
CONTINUOUS
 62
     7
 10
156.8086582838175
 20
139.7430531099157
 30
0.0
  0
VERTEX
  5
22B
  8
0
  6
CONTINUOUS
 62
     7
 10
156.7222148834902
 20
139.6992704121712
 30
0.0
  0
VERTEX
  5
22C
  8
0
  6
CONTINUOUS
 62
     7
 10
156.6464466094067
 20
139.6403488133525
 30
0.0
  0
VERTEX
  5
22D
  8
0
  6
CONTINUOUS
 62
     7
 10
156.5842651938487
 20
139.5685526374587
 30
0.0
  0
VERTEX
  5
22E
  8
0
  6
CONTINUOUS
 62
     7
 10
156.5380602337443
 20
139.4866409712655
 30
0.0
  0
VERTEX
  5
22F
  8
0
  6
CONTINUOUS
 62
     7
 10
156.5096073597984
 20
139.3977616341683
 30
0.0
  0
VERTEX
  5
230
  8
0
  6
CONTINUOUS
 62
     7
 10
156.5
 20
139.3053302092474
 30
0.0
  0
SEQEND
  5
25A
  8
0
  6
CONTINUOUS
 62
     7
  0
POLYLINE
  5
DD
  8
0
  6
CONTINUOUS
 62
     7
 66
     1
 10
0.0
 20
0.0
 30
0.0
  0
VERTEX
  5
231
  8
0
  6
CONTINUOUS
 62
     7
 10
163.5
 20
139.3053302092474
 30
0.0
  0
VERTEX
  5
232
  8
0
  6
CONTINUOUS
 62
     7
 10
163.4903926402016
 20
139.3977616341683
 30
0.0
  0
VERTEX
  5
233
  8
0
  6
CONTINUOUS
 62
     7
 10
163.4619397662557
 20
139.4866409712655
 30
0.0
  0
VERTEX
  5
234
  8
0
  6
CONTINUOUS
 62
     7
 10
163.4157348061513
 20
139.5685526374587
 30
0.0
  0
VERTEX
  5
235
  8
0
  6
CONTINUOUS
 62
     7
 10
163.3535533905933
 20
139.6403488133525
 30
0.0
  0
VERTEX
  5
236
  8
0
  6
CONTINUOUS
 62
     7
 10
163.2777851165098
 20
139.6992704121712
 30
0.0
  0
VERTEX
  5
237
  8
0
  6
CONTINUOUS
 62
     7
 10
163.1913417161825
 20
139.7430531099157
 30
0.0
  0
VERTEX
  5
238
  8
0
  6
CONTINUOUS
 62
     7
 10
163.0975451610081
 20
139.7700143620654
 30
0.0
  0
VERTEX
  5
239
  8
0
  6
CONTINUOUS
 62
     7
 10
163.0
 20
139.7791180628201
 30
0.0
  0
SEQEND
  5
25B
  8
0
  6
CONTINUOUS
 62
     7
  0
LINE
  5
DE
  8
0
  6
CONTINUOUS
 62
     7
 10
157.0
 20
139.7791180628202
 30
0.0
 11
163.0
 21
139.7791180628202
 31
0.0
  0
LINE
  5
DF
  8
0
  6
CONTINUOUS
 62
     7
 10
142.5
 20
165.2654949638942
 30
0.0
 11
142.5
 21
169.2240889932158
 31
0.0
  0
LINE
  5
E0
  8
0
  6
CONTINUOUS
 62
     7
 10
177.5
 20
165.2654949638942
 30
0.0
 11
177.5
 21
169.2240889932158
 31
0.0
  0
LINE
  5
E1
  8
0
  6
CONTINUOUS
 62
     7
 10
153.0
 20
124.1776590637429
 30
0.0
 11
153.0
 21
123.7784503236556
 31
0.0
  0
LINE
  5
E2
  8
0
  6
CONTINUOUS
 62
     7
 10
167.0
 20
123.7784503236556
 30
0.0
 11
167.0
 21
124.1776590637429
 31
0.0
  0
LINE
  5
E3
  8
0
  6
CONTINUOUS
 62
     7
 10
163.0
 20
108.8392874971828
 30
0.0
 11
163.0
 21
126.5029373010857
 31
0.0
  0
LINE
  5
E4
  8
0
  6
CONTINUOUS
 62
     7
 10
157.0
 20
126.5029373010857
 30
0.0
 11
157.0
 21
108.8392874971828
 31
0.0
  0
ARC
  5
E5
  8
0
  6
CONTINUOUS
 62
     7
 10
160.0
 20
129.4583865932855
 30
0.0
 40
2.599999999999993
 50
7.961438436882644
 51
172.0385615631174
  0
LINE
  5
E6
  8
0
  6
CONTINUOUS
 62
     7
 10
142.5
 20
115.7240889932157
 30
0.0
 11
157.0
 21
115.7240889932157
 31
0.0
  0
LINE
  5
E7
  8
0
  6
CONTINUOUS
 62
     7
 10
163.0
 20
115.7240889932157
 30
0.0
 11
177.5
 21
115.7240889932157
 31
0.0
  0
ENDBLK
  8
0
  0
BLOCK
  8
0
  2
D_FRAME_VIEW_1843
 70
     0
 10
0.0
 20
0.0
 30
0.0
  0
LINE
  5
F3
  8
0
  6
CONTINUOUS
 62
     7
 10
86.30914452092583
 20
129.8446201806965
 30
0.0
 11
79.32299156939959
 21
117.7122804666149
 31
0.0
  0
LINE
  5
F4
  8
0
  6
CONTINUOUS
 62
     7
 10
85.61586796583545
 20
130.2438289207837
 30
0.0
 11
78.6297150143092
 21
118.1114892067021
 31
0.0
  0
LINE
  5
F5
  8
0
  6
CONTINUOUS
 62
     7
 10
80.32101341961763
 20
119.4454718543408
 30
0.0
 11
84.82731102770514
 21
116.850615043774
 31
0.0
  0
LINE
  5
F6
  8
0
  6
CONTINUOUS
 62
     7
 10
82.81606804516271
 20
123.7784503236557
 30
0.0
 11
87.32236565325022
 21
121.1835935130889
 31
0.0
  0
LINE
  5
F7
  8
0
  6
CONTINUOUS
 62
     7
 10
87.32236565325022
 20
121.1835935130889
 30
0.0
 11
84.82731102770514
 21
116.850615043774
 31
0.0
  0
LINE
  5
F8
  8
0
  6
CONTINUOUS
 62
     7
 10
85.31112267070779
 20
128.1114287929705
 30
0.0
 11
89.8174202787953
 21
125.5165719824037
 31
0.0
  0
LINE
  5
F9
  8
0
  6
CONTINUOUS
 62
     7
 10
89.8174202787953
 20
125.5165719824037
 30
0.0
 11
87.32236565325022
 21
121.1835935130889
 31
0.0
  0
LINE
  5
FA
  8
0
  6
CONTINUOUS
 62
     7
 10
65.41254136255556
 20
120.1276947750485
 30
0.0
 11
60.92395949435608
 21
133.3886386634929
 31
0.0
  0
LINE
  5
FB
  8
0
  6
CONTINUOUS
 62
     7
 10
65.88614650142863
 20
120.2880012703414
 30
0.0
 11
61.39756463322917
 21
133.5489451587858
 31
0.0
  0
LINE
  5
FC
  8
0
  6
CONTINUOUS
 62
     7
 10
109.1075952256573
 20
111.4026639875811
 30
0.0
 11
105.9904805543803
 21
106.2759110067843
 31
0.0
  0
LINE
  5
FD
  8
0
  6
CONTINUOUS
 62
     7
 10
64.68108074763065
 20
124.1030361677893
 30
0.0
 11
64.60369453908596
 21
124.0768423813255
 31
0.0
  0
LINE
  5
FE
  8
0
  6
CONTINUOUS
 62
     7
 10
62.68001659557187
 20
129.7601040478016
 30
0.0
 11
62.76389143945956
 21
129.7884941161587
 31
0.0
  0
LINE
  5
FF
  8
0
  6
CONTINUOUS
 62
     7
 10
89.89240477434264
 20
173.7240889932158
 30
0.0
 11
89.89240477434264
 21
169.2240889932158
 31
0.0
  0
LINE
  5
100
  8
0
  6
CONTINUOUS
 62
     7
 10
89.89240477434265
 20
169.2240889932158
 30
0.0
 11
84.89240477434265
 21
169.2240889932158
 31
0.0
  0
LINE
  5
101
  8
0
  6
CONTINUOUS
 62
     7
 10
84.89240477434265
 20
173.7240889932158
 30
0.0
 11
89.89240477434265
 21
173.7240889932158
 31
0.0
  0
LINE
  5
102
  8
0
  6
CONTINUOUS
 62
     7
 10
84.49240477434265
 20
137.3158783610148
 30
0.0
 11
88.38951909137265
 21
135.0658783610147
 31
0.0
  0
LINE
  5
103
  8
0
  6
CONTINUOUS
 62
     7
 10
81.99240477434265
 20
132.9857513420926
 30
0.0
 11
84.49240477434265
 21
137.3158783610147
 31
0.0
  0
LINE
  5
104
  8
0
  6
CONTINUOUS
 62
     7
 10
88.38951909137265
 20
135.0658783610147
 30
0.0
 11
85.88951909137265
 21
130.7357513420925
 31
0.0
  0
ARC
  5
105
  8
0
  6
CONTINUOUS
 62
     7
 10
58.39240477434262
 20
166.2240889932158
 30
0.0
 40
3.000000000000003
 50
89.99999999999962
 51
198.6345848774464
  0
LINE
  5
106
  8
0
  6
CONTINUOUS
 62
     7
 10
55.54967765290639
 20
165.2654949638942
 30
0.0
 11
70.04967765290641
 21
122.2654949638942
 31
0.0
  0
ARC
  5
107
  8
0
  6
CONTINUOUS
 62
     7
 10
72.89240477434265
 20
123.2240889932157
 30
0.0
 40
7.500000000000001
 50
198.6345848774463
 51
329.9999999999995
  0
ARC
  5
108
  8
0
  6
CONTINUOUS
 62
     7
 10
58.39240477434265
 20
166.2240889932158
 30
0.0
 40
7.499999999999996
 50
89.9999999999999
 51
198.6345848774464
  0
ARC
  5
109
  8
0
  6
CONTINUOUS
 62
     7
 10
72.89240477434265
 20
123.2240889932158
 30
0.0
 40
3.000000000000007
 50
198.6345848774465
 51
330.0000000000002
  0
LINE
  5
10A
  8
0
  6
CONTINUOUS
 62
     7
 10
65.78558697075206
 20
120.827603919912
 30
0.0
 11
51.28558697075207
 21
163.827603919912
 31
0.0
  0
LINE
  5
10B
  8
0
  6
CONTINUOUS
 62
     7
 10
75.49048098569597
 20
121.7240889932158
 30
0.0
 11
81.99240477434265
 21
132.9857513420926
 31
0.0
  0
LINE
  5
10C
  8
0
  6
CONTINUOUS
 62
     7
 10
58.39240477434267
 20
173.7240889932158
 30
0.0
 11
84.89240477434265
 21
173.7240889932158
 31
0.0
  0
LINE
  5
10D
  8
0
  6
CONTINUOUS
 62
     7
 10
84.89240477434265
 20
169.2240889932158
 30
0.0
 11
58.39240477434264
 21
169.2240889932158
 31
0.0
  0
LINE
  5
10E
  8
0
  6
CONTINUOUS
 62
     7
 10
85.88951909137265
 20
130.7357513420925
 30
0.0
 11
79.38759530272591
 21
119.4740889932157
 31
0.0
  0
LINE
  5
10F
  8
0
  6
CONTINUOUS
 62
     7
 10
78.6297150143093
 20
118.1114892067021
 30
0.0
 11
79.32299156939969
 21
117.7122804666148
 31
0.0
  0
LINE
  5
110
  8
0
  6
CONTINUOUS
 62
     7
 10
86.30914452092588
 20
129.8446201806964
 30
0.0
 11
85.61586796583549
 21
130.2438289207837
 31
0.0
  0
LINE
  5
111
  8
0
  6
CONTINUOUS
 62
     7
 10
65.41254136255553
 20
120.1276947750485
 30
0.0
 11
65.8861465014286
 21
120.2880012703414
 31
0.0
  0
LINE
  5
112
  8
0
  6
CONTINUOUS
 62
     7
 10
61.39756463322912
 20
133.5489451587858
 30
0.0
 11
60.92395949435605
 21
133.3886386634929
 31
0.0
  0
ARC
  5
113
  8
0
  6
CONTINUOUS
 62
     7
 10
71.26689830318445
 20
129.4994077887783
 30
0.0
 40
11.05000000000003
 50
159.392351883894
 51
238.0076481161062
  0
LINE
  5
114
  8
0
  6
CONTINUOUS
 62
     7
 10
109.1075952256573
 20
111.4026639875812
 30
0.0
 11
88.8000779030658
 21
123.7498280543045
 31
0.0
  0
LINE
  5
115
  8
0
  6
CONTINUOUS
 62
     7
 10
83.67186879502134
 20
126.8678280648252
 30
0.0
 11
83.66039888113342
 21
126.8748018817796
 31
0.0
  0
LINE
  5
116
  8
0
  6
CONTINUOUS
 62
     7
 10
80.65962651030046
 20
121.677311673548
 30
0.0
 11
80.67695285417963
 21
121.666777091346
 31
0.0
  0
LINE
  5
117
  8
0
  6
CONTINUOUS
 62
     7
 10
85.80516196222408
 20
118.5487770808253
 30
0.0
 11
105.9904805543803
 21
106.2759110067844
 31
0.0
  0
ARC
  5
118
  8
0
  6
CONTINUOUS
 62
     7
 10
72.06776025883087
 20
123.8583865932855
 30
0.0
 40
3.000000000000018
 50
58.70000000000049
 51
108.7000000000002
  0
ARC
  5
119
  8
0
  6
CONTINUOUS
 62
     7
 10
72.06776025883087
 20
123.8583865932855
 30
0.0
 40
8.199999999999989
 50
58.70000000000054
 51
108.7000000000002
  0
LINE
  5
11A
  8
0
  6
CONTINUOUS
 62
     7
 10
68.815717154994
 20
125.9248260956345
 30
0.0
 11
71.10592128707383
 21
126.7000174265236
 31
0.0
  0
LINE
  5
11B
  8
0
  6
CONTINUOUS
 62
     7
 10
69.43873373602831
 20
131.6255108708029
 30
0.0
 11
67.15415308791239
 21
130.8522229842213
 31
0.0
  0
LINE
  5
11C
  8
0
  6
CONTINUOUS
 62
     7
 10
73.62631759446938
 20
126.421763083684
 30
0.0
 11
77.01362332747411
 21
124.362248916335
 31
0.0
  0
LINE
  5
11D
  8
0
  6
CONTINUOUS
 62
     7
 10
79.61429271552932
 20
128.8667404301356
 30
0.0
 11
76.32781697624283
 21
130.8649490003745
 31
0.0
  0
ENDBLK
  8
0
  0
ENDSEC
  0
SECTION
  2
ENTITIES
  0
INSERT
  5
96
  8
0
  6
CONTINUOUS
 62
     7
  2
D_FRAME_VIEW_1943
 10
0.0
 20
0.0
 30
0.0
  0
INSERT
  5
E8
  8
0
  6
CONTINUOUS
 62
     7
  2
D_FRAME_VIEW_1989
 10
0.0
 20
0.0
 30
0.0
  0
LINE
  5
E9
  8
0
  6
CENTER
 62
     1
 10
60.0
 20
123.2240889932157
 30
0.0
 11
85.0
 21
123.2240889932157
 31
0.0
  0
LINE
  5
EB
  8
0
  6
CENTER
 62
     1
 10
72.89240477434265
 20
205.0
 30
0.0
 11
72.89240477434265
 21
250.0
 31
0.0
  0
LINE
  5
EC
  8
0
  6
CENTER
 62
     1
 10
72.89240477434265
 20
110.0
 30
0.0
 11
72.89240477434265
 21
180.0
 31
0.0
  0
LINE
  5
ED
  8
0
  6
CENTER
 62
     1
 10
160.0
 20
180.0
 30
0.0
 11
160.0
 21
100.0
 31
0.0
  0
LINE
  5
EE
  8
0
  6
CENTER
 62
     1
 10
45.0
 20
230.0
 30
0.0
 11
115.0
 21
230.0
 31
0.0
  0
TEXT
  5
EF
  8
0
  6
CONTINUOUS
 62
     7
 10
110.1295173189946
 20
94.68523821433038
 30
0.0
 40
3.0
  1
YKH-TBD
  0
INSERT
  5
11E
  8
0
  6
CONTINUOUS
 62
     7
  2
D_FRAME_VIEW_1843
 10
0.0
 20
0.0
 30
0.0
  0
ENDSEC
  0
EOF
