  0
SECTION
  2
HEADER
  9
$ACADVER
  1
AC1004
  9
$INSBASE
 10
0.0
 20
0.0
  9
$EXTMIN
 10
137.0
 20
28.67045454545455
  9
$EXTMAX
 10
163.0
 20
176.9849394344824
  9
$LIMMIN
 10
0.0
 20
0.0
  9
$LIMMAX
 10
12.0
 20
9.0
  9
$ORTHOMODE
 70
     0
  9
$REGENMODE
 70
     1
  9
$FILLMODE
 70
     1
  9
$QTEXTMODE
 70
     0
  9
$DRAGMODE
 70
     2
  9
$LTSCALE
 40
1.0
  9
$OSMODE
 70
    37
  9
$ATTMODE
 70
     1
  9
$TEXTSIZE
 40
0.2
  9
$TRACEWID
 40
0.05
  9
$TEXTSTYLE
  7
STANDARD
  9
$CLAYER
  8
0
  9
$CELTYPE
  6
BYLAYER
  9
$CECOLOR
 62
   256
  9
$DIMSCALE
 40
1.0
  9
$DIMASZ
 40
3.0
  9
$DIMEXO
 40
0.0625
  9
$DIMDLI
 40
0.38
  9
$DIMRND
 40
0.0
  9
$DIMDLE
 40
0.0
  9
$DIMEXE
 40
1.5
  9
$DIMTP
 40
0.0
  9
$DIMTM
 40
0.0
  9
$DIMTXT
 40
3.0
  9
$DIMCEN
 40
0.09
  9
$DIMTSZ
 40
0.0
  9
$DIMTOL
 70
     0
  9
$DIMLIM
 70
     0
  9
$DIMTIH
 70
     1
  9
$DIMTOH
 70
     1
  9
$DIMSE1
 70
     0
  9
$DIMSE2
 70
     0
  9
$DIMTAD
 70
     1
  9
$DIMZIN
 70
     0
  9
$DIMBLK
  1

  9
$DIMASO
 70
     1
  9
$DIMSHO
 70
     1
  9
$DIMPOST
  1

  9
$DIMAPOST
  1

  9
$DIMALT
 70
     0
  9
$DIMALTD
 70
     2
  9
$DIMALTF
 40
25.4
  9
$DIMLFAC
 40
1.0
  9
$DIMTOFL
 70
     0
  9
$DIMTVP
 40
0.0
  9
$DIMTIX
 70
     0
  9
$DIMSOXD
 70
     0
  9
$DIMSAH
 70
     0
  9
$DIMBLK1
  1

  9
$DIMBLK2
  1

  9
$LUNITS
 70
     2
  9
$LUPREC
 70
     4
  9
$SKETCHINC
 40
0.1
  9
$FILLETRAD
 40
0.5
  9
$AUNITS
 70
     0
  9
$AUPREC
 70
     0
  9
$MENU
  1
.
  9
$ELEVATION
 40
0.0
  9
$THICKNESS
 40
0.0
  9
$LIMCHECK
 70
     0
  9
$CHAMFERA
 40
0.0
  9
$CHAMFERB
 40
0.0
  9
$SKPOLY
 70
     0
  9
$TDCREATE
 40
2459018.370436088
  9
$TDUPDATE
 40
2459018.370436261
  9
$TDINDWG
 40
0.0000000116
  9
$TDUSRTIMER
 40
0.0000000116
  9
$USRTIMER
 70
     1
  9
$ANGBASE
 50
0.0
  9
$ANGDIR
 70
     0
  9
$PDMODE
 70
     0
  9
$PDSIZE
 40
0.0
  9
$PLINEWID
 40
0.0
  9
$COORDS
 70
     1
  9
$SPLFRAME
 70
     0
  9
$SPLINETYPE
 70
     6
  9
$SPLINESEGS
 70
     8
  9
$ATTDIA
 70
     0
  9
$ATTREQ
 70
     1
  9
$SURFTAB1
 70
     6
  9
$SURFTAB2
 70
     6
  9
$SURFTYPE
 70
     6
  9
$SURFU
 70
     6
  9
$SURFV
 70
     6
  9
$UCSNAME
  2

  9
$UCSORG
 10
0.0
 20
0.0
 30
0.0
  9
$UCSXDIR
 10
1.0
 20
0.0
 30
0.0
  9
$UCSYDIR
 10
0.0
 20
1.0
 30
0.0
  9
$USERI1
 70
     0
  9
$USERI2
 70
     0
  9
$USERI3
 70
     0
  9
$USERI4
 70
     0
  9
$USERI5
 70
     0
  9
$USERR1
 40
0.0
  9
$USERR2
 40
0.0
  9
$USERR3
 40
0.0
  9
$USERR4
 40
0.0
  9
$USERR5
 40
0.0
  9
$WORLDVIEW
 70
     1
  0
ENDSEC
  0
SECTION
  2
TABLES
  0
TABLE
  2
LTYPE
 70
     2
  0
LTYPE
  2
CONTINUOUS
 70
     0
  3
Solid line
 72
    65
 73
     0
 40
0.0
  0
LTYPE
  2
CENTER
 70
     0
  3

 72
    65
 73
     0
 40
0.0
  0
ENDTAB
  0
TABLE
  2
LAYER
 70
     1
  0
LAYER
  2
0
 70
     0
 62
     7
  6
CONTINUOUS
  0
ENDTAB
  0
TABLE
  2
STYLE
 70
     2
  0
STYLE
  2
STANDARD
 70
     0
 40
0.0
 41
1.0
 50
0.0
 71
     0
 42
0.2
  3
txt
  4

  0
STYLE
  2
ＭＳ_ゴシック
 70
     0
 40
0.0
 41
1.0
 50
0.0
 71
     0
 42
0.2
  3
ＭＳ ゴシック.shx
  4

  0
ENDTAB
  0
TABLE
  2
VIEW
 70
     0
  0
ENDTAB
  0
ENDSEC
  0
SECTION
  2
BLOCKS
  0
BLOCK
  8
0
  2
D_FRAME_VIEW_5246
 70
     0
 10
0.0
 20
0.0
  0
ARC
  8
0
  6
CONTINUOUS
 62
     7
 10
145.3216764845675
 20
54.7145270022186
 40
0.2000000000000053
 50
90.0
 51
206.2580391883118
  0
LINE
  8
0
  6
CONTINUOUS
 62
     7
 10
145.3216764845675
 20
54.9145270022186
 11
145.8973212283221
 21
54.9145270022186
  0
LINE
  8
0
  6
CONTINUOUS
 62
     7
 10
154.6783235154325
 20
54.9145270022186
 11
154.1026787716779
 21
54.9145270022186
  0
ARC
  8
0
  6
CONTINUOUS
 62
     7
 10
154.6783235154325
 20
54.7145270022186
 40
0.1999999999999988
 50
333.7419608116883
 51
90.0
  0
LINE
  8
0
  6
CONTINUOUS
 62
     7
 10
154.0127646914666
 20
52.91331973904207
 11
154.8576856504411
 21
54.62604409694799
  0
LINE
  8
0
  6
CONTINUOUS
 62
     7
 10
145.9872353085333
 20
52.91331973904207
 11
145.1423143495589
 21
54.62604409694799
  0
LINE
  8
0
  6
CONTINUOUS
 62
     7
 10
146.0
 20
52.32446164227613
 11
146.0
 21
52.24406661046624
  0
LINE
  8
0
  6
CONTINUOUS
 62
     7
 10
154.0
 20
52.24407226752743
 11
154.0
 21
52.32446164227613
  0
CIRCLE
  8
0
  6
CONTINUOUS
 62
     7
 10
150.0
 20
50.01506056551763
 40
2.099999999999991
  0
LINE
  8
0
  6
CONTINUOUS
 62
     7
 10
156.654758220902
 20
52.14856390440515
 11
153.9972578863752
 21
52.14856390440515
  0
LINE
  8
0
  6
CONTINUOUS
 62
     7
 10
154.0
 20
52.23583923228495
 11
154.0
 21
52.24371341272676
  0
LINE
  8
0
  6
CONTINUOUS
 62
     7
 10
146.0
 20
52.23583923228495
 11
146.0
 21
52.24371305583111
  0
LINE
  8
0
  6
CONTINUOUS
 62
     7
 10
143.345241779098
 20
52.14856390440515
 11
146.0027421136248
 21
52.14856390440515
  0
ARC
  8
0
  6
CONTINUOUS
 62
     7
 10
157.0710678118655
 20
47.51506056551763
 40
0.6570955843539498
 50
340.5287793655093
 51
90.00000000000006
  0
ARC
  8
0
  6
CONTINUOUS
 62
     7
 10
152.0
 20
43.83040212709115
 40
0.6570955843539599
 50
107.9202131393925
 51
180.0
  0
ARC
  8
0
  6
CONTINUOUS
 62
     7
 10
150.0
 20
50.01506056551763
 40
5.842904415646049
 50
287.9202131393922
 51
337.3801350519595
  0
ARC
  8
0
  6
CONTINUOUS
 62
     7
 10
152.0
 20
42.78664441811715
 40
0.6570955843539505
 50
179.9999999999998
 51
285.4660099534204
  0
ARC
  8
0
  6
CONTINUOUS
 62
     7
 10
150.0
 20
50.01506056551763
 40
5.842904415646049
 50
202.6198649480405
 51
252.0797868606077
  0
LINE
  8
0
  6
CONTINUOUS
 62
     7
 10
157.0710678118655
 20
48.17215614987159
 11
156.0
 21
48.17215614987159
  0
LINE
  8
0
  6
CONTINUOUS
 62
     7
 10
142.9289321881345
 20
48.17215614987159
 11
144.0
 21
48.17215614987159
  0
ARC
  8
0
  6
CONTINUOUS
 62
     7
 10
150.0
 20
50.01506056551763
 40
8.157095584353957
 50
285.4660099534206
 51
340.5287793655093
  0
ARC
  8
0
  6
CONTINUOUS
 62
     7
 10
156.0
 20
47.51506056551763
 40
0.6570955843539574
 50
90.0
 51
157.3801350519595
  0
LINE
  8
0
  6
CONTINUOUS
 62
     7
 10
151.342904415646
 20
43.83040212709115
 11
151.342904415646
 21
42.78664441811715
  0
LINE
  8
0
  6
CONTINUOUS
 62
     7
 10
148.657095584354
 20
43.83040212709115
 11
148.657095584354
 21
42.78664441811715
  0
ARC
  8
0
  6
CONTINUOUS
 62
     7
 10
148.0
 20
42.78664441811715
 40
0.6570955843539505
 50
254.5339900465792
 51
0.0000000000002274
  0
ARC
  8
0
  6
CONTINUOUS
 62
     7
 10
144.0
 20
47.51506056551763
 40
0.6570955843539574
 50
22.61986494804018
 51
90.0
  0
LINE
  8
0
  6
CONTINUOUS
 62
     7
 10
145.9448926915905
 20
55.46275507311307
 11
143.2873923570637
 21
55.46275507311307
  0
CIRCLE
  8
0
  6
CONTINUOUS
 62
     7
 10
150.0
 20
50.01506056551763
 40
3.000000000000003
  0
LINE
  8
0
  6
CONTINUOUS
 62
     7
 10
143.2873923570637
 20
55.46275507311307
 11
143.345241779098
 21
52.14856390440515
  0
ARC
  8
0
  6
CONTINUOUS
 62
     7
 10
148.0
 20
43.83040212709115
 40
0.6570955843539599
 50
0.0
 51
72.07978686060738
  0
ARC
  8
0
  6
CONTINUOUS
 62
     7
 10
142.9289321881345
 20
47.51506056551763
 40
0.6570955843539498
 50
90.0
 51
199.4712206344907
  0
ARC
  8
0
  6
CONTINUOUS
 62
     7
 10
150.0
 20
50.01506056551763
 40
8.157095584353957
 50
199.4712206344907
 51
254.5339900465794
  0
LINE
  8
0
  6
CONTINUOUS
 62
     7
 10
156.7126076429363
 20
55.46275507311307
 11
156.654758220902
 21
52.14856390440515
  0
LINE
  8
0
  6
CONTINUOUS
 62
     7
 10
154.0551073084095
 20
55.46275507311307
 11
156.7126076429363
 21
55.46275507311307
  0
LINE
  8
0
  6
CONTINUOUS
 62
     7
 10
153.9972578863752
 20
52.14856390440515
 11
154.0551073084095
 21
55.46275507311307
  0
LINE
  8
0
  6
CONTINUOUS
 62
     7
 10
146.0027421136248
 20
52.14856390440515
 11
145.9448926915905
 21
55.46275507311307
  0
ARC
  8
0
  6
CONTINUOUS
 62
     7
 10
150.0
 20
50.01506056551763
 40
10.0
 50
90.0
 51
270.0
  0
ARC
  8
0
  6
CONTINUOUS
 62
     7
 10
150.0
 20
50.01506056551763
 40
9.999999999999995
 50
270.0
 51
90.0
  0
ENDBLK
  8
0
  0
BLOCK
  8
0
  2
D_FRAME_VIEW_4649
 70
     0
 10
0.0
 20
0.0
  0
LINE
  8
0
  6
CONTINUOUS
 62
     7
 10
154.0284385270502
 20
95.25001250000001
 11
153.0
 21
95.25001250000001
  0
LINE
  8
0
  6
CONTINUOUS
 62
     7
 10
148.4
 20
133.7500125
 11
151.6
 21
133.7500125
  0
LINE
  8
0
  6
CONTINUOUS
 62
     7
 10
152.5
 20
132.8500125
 11
147.5
 21
132.8500125
  0
LINE
  8
0
  6
CONTINUOUS
 62
     7
 10
158.0
 20
112.2500125
 11
142.0
 21
112.2500125
  0
LINE
  8
0
  6
CONTINUOUS
 62
     7
 10
159.0
 20
86.2500125
 11
150.0
 21
86.2500125
  0
LINE
  8
0
  6
CONTINUOUS
 62
     7
 10
150.0
 20
86.2500125
 11
141.0
 21
86.2500125
  0
LINE
  8
0
  6
CONTINUOUS
 62
     7
 10
141.0
 20
126.2500125
 11
159.0
 21
126.2500125
  0
LINE
  8
0
  6
CONTINUOUS
 62
     7
 10
152.5
 20
132.8500125
 11
152.1
 21
133.2500125
  0
LINE
  8
0
  6
CONTINUOUS
 62
     7
 10
152.1
 20
133.2500125
 11
151.6
 21
133.7500125
  0
LINE
  8
0
  6
CONTINUOUS
 62
     7
 10
148.4
 20
133.7500125
 11
147.9
 21
133.2500125
  0
LINE
  8
0
  6
CONTINUOUS
 62
     7
 10
147.9
 20
133.2500125
 11
147.5
 21
132.8500125
  0
LINE
  8
0
  6
CONTINUOUS
 62
     7
 10
147.5
 20
132.8500125
 11
147.5
 21
126.2500125
  0
LINE
  8
0
  6
CONTINUOUS
 62
     7
 10
152.5
 20
126.2500125
 11
152.5
 21
132.8500125
  0
ARC
  8
0
  6
CONTINUOUS
 62
     7
 10
157.0
 20
115.0784396247462
 40
3.000000000000004
 50
289.4712206344907
 51
0.0000000000001137
  0
ARC
  8
0
  6
CONTINUOUS
 62
     7
 10
143.0
 20
115.0784396247462
 40
3.000000000000003
 50
179.9999999999999
 51
250.5287793655093
  0
LINE
  8
0
  6
CONTINUOUS
 62
     7
 10
160.0
 20
115.0784396247462
 11
160.0
 21
125.2500125
  0
LINE
  8
0
  6
CONTINUOUS
 62
     7
 10
140.0
 20
125.2500125
 11
140.0
 21
115.0784396247462
  0
LINE
  8
0
  6
CONTINUOUS
 62
     7
 10
160.0
 20
87.2500125
 11
160.0
 21
97.4215853752538
  0
LINE
  8
0
  6
CONTINUOUS
 62
     7
 10
140.0
 20
97.4215853752538
 11
140.0
 21
87.2500125
  0
ARC
  8
0
  6
CONTINUOUS
 62
     7
 10
141.0
 20
87.2500125
 40
1.000000000000001
 50
180.0
 51
270.0
  0
ARC
  8
0
  6
CONTINUOUS
 62
     7
 10
159.0
 20
87.2500125
 40
1.000000000000001
 50
270.0
 51
0.0
  0
ARC
  8
0
  6
CONTINUOUS
 62
     7
 10
159.0
 20
125.2500125
 40
1.000000000000001
 50
0.0
 51
90.0
  0
ARC
  8
0
  6
CONTINUOUS
 62
     7
 10
141.0
 20
125.2500125
 40
1.000000000000001
 50
90.0
 51
180.0
  0
ARC
  8
0
  6
CONTINUOUS
 62
     7
 10
157.0
 20
97.4215853752538
 40
3.000000000000003
 50
359.9999999999999
 51
70.52877936550964
  0
ARC
  8
0
  6
CONTINUOUS
 62
     7
 10
143.0
 20
97.4215853752538
 40
2.999999999999995
 50
109.4712206344904
 51
180.0
  0
ARC
  8
0
  6
CONTINUOUS
 62
     7
 10
158.0
 20
110.2500125
 40
2.000000000000002
 50
90.0
 51
179.9999999999987
  0
ARC
  8
0
  6
CONTINUOUS
 62
     7
 10
142.0
 20
110.2500125
 40
2.000000000000002
 50
0.0000000000011937
 51
90.0
  0
ARC
  8
0
  6
CONTINUOUS
 62
     7
 10
155.4999999999999
 20
106.2500125
 40
2.50000000000003
 50
306.8698976458444
 51
53.1301023541555
  0
ARC
  8
0
  6
CONTINUOUS
 62
     7
 10
144.5
 20
106.2500125
 40
2.50000000000003
 50
126.8698976458445
 51
233.1301023541556
  0
ARC
  8
0
  6
CONTINUOUS
 62
     7
 10
158.0
 20
102.2500125
 40
2.000000000000002
 50
180.0000000000011
 51
269.9999999999995
  0
ARC
  8
0
  6
CONTINUOUS
 62
     7
 10
142.0
 20
102.2500125
 40
2.000000000000002
 50
270.0000000000005
 51
359.9999999999989
  0
ARC
  8
0
  6
CONTINUOUS
 62
     7
 10
158.5
 20
102.2500125
 40
2.499999999999974
 50
126.8698976458445
 51
180.0000000000013
  0
ARC
  8
0
  6
CONTINUOUS
 62
     7
 10
141.5
 20
102.2500125
 40
2.49999999999998
 50
359.9999999999987
 51
53.1301023541555
  0
ARC
  8
0
  6
CONTINUOUS
 62
     7
 10
158.5
 20
110.2500125
 40
2.49999999999998
 50
179.9999999999989
 51
233.1301023541555
  0
ARC
  8
0
  6
CONTINUOUS
 62
     7
 10
141.5
 20
110.2500125
 40
2.499999999999974
 50
306.8698976458444
 51
0.0000000000011937
  0
ENDBLK
  8
0
  0
BLOCK
  8
0
  2
D_FRAME_VIEW_5176
 70
     0
 10
0.0
 20
0.0
  0
CIRCLE
  8
0
  6
CONTINUOUS
 62
     7
 10
150.0
 20
164.9849394344824
 40
1.59999999999999
  0
CIRCLE
  8
0
  6
CONTINUOUS
 62
     7
 10
150.0
 20
164.9849394344824
 40
2.500000000000002
  0
CIRCLE
  8
0
  6
CONTINUOUS
 62
     7
 10
150.0
 20
164.9849394344824
 40
5.000000000000004
  0
ARC
  8
0
  6
CONTINUOUS
 62
     7
 10
150.0
 20
164.9849394344824
 40
9.99999999999998
 50
90.0
 51
270.0
  0
ARC
  8
0
  6
CONTINUOUS
 62
     7
 10
150.0
 20
164.9849394344824
 40
9.99999999999998
 50
270.0
 51
90.0
  0
ENDBLK
  8
0
  0
ENDSEC
  0
SECTION
  2
ENTITIES
  0
INSERT
  8
0
  6
CONTINUOUS
 62
     7
  2
D_FRAME_VIEW_5246
 10
0.0
 20
0.0
 30
0.0
  0
LINE
  8
0
  6
CENTER
 62
     1
 10
137.0
 20
106.2500125
 11
163.0
 21
106.2500125
  0
LINE
  8
0
  6
CENTER
 62
     1
 10
150.0
 20
83.2500125
 11
150.0
 21
136.7500125
  0
LINE
  8
0
  6
CENTER
 62
     1
 10
138.0
 20
164.9849394344824
 11
162.0
 21
164.9849394344824
  0
LINE
  8
0
  6
CENTER
 62
     1
 10
150.0
 20
152.9849394344824
 11
150.0
 21
176.9849394344824
  0
LINE
  8
0
  6
CENTER
 62
     1
 10
138.0
 20
50.01506056551763
 11
162.0
 21
50.01506056551763
  0
LINE
  8
0
  6
CENTER
 62
     1
 10
150.0
 20
38.01506056551763
 11
150.0
 21
62.01506056551764
  0
LINE
  8
0
  6
CONTINUOUS
 62
     7
 10
147.0
 20
95.25001250000001
 11
145.9715614729498
 21
95.25001250000001
  0
LINE
  8
0
  6
CONTINUOUS
 62
     7
 10
145.9715614729498
 20
95.25001250000001
 11
145.9715614729498
 21
91.2500125
  0
LINE
  8
0
  6
CONTINUOUS
 62
     7
 10
147.0
 20
100.2500125
 11
147.0
 21
95.25001250000001
  0
LINE
  8
0
  6
CONTINUOUS
 62
     7
 10
154.0284385270502
 20
91.2500125
 11
145.9715614729498
 21
91.2500125
  0
LINE
  8
0
  6
CONTINUOUS
 62
     4
 10
151.6
 20
126.2500125
 11
151.6
 21
133.7500125
  0
LINE
  8
0
  6
CONTINUOUS
 62
     4
 10
148.4
 20
126.2500125
 11
148.4
 21
133.7500125
  0
LINE
  8
0
  6
CONTINUOUS
 62
     7
 10
145.906890584895
 20
55.46275507311307
 11
145.8973212283221
 21
54.9145270022186
  0
LINE
  8
0
  6
CONTINUOUS
 62
     7
 10
154.1026787716779
 20
54.9145270022186
 11
154.093109415105
 21
55.46275507311307
  0
LINE
  8
0
  6
CONTINUOUS
 62
     7
 10
153.0
 20
95.25001250000001
 11
153.0
 21
100.2500125
  0
LINE
  8
0
  6
CONTINUOUS
 62
     7
 10
158.0
 20
100.2500125
 11
142.0
 21
100.2500125
  0
LINE
  8
0
  6
CONTINUOUS
 62
     7
 10
154.0284385270502
 20
91.2500125
 11
154.0284385270502
 21
95.25001250000001
  0
TEXT
  8
0
  6
CONTINUOUS
 62
     7
 10
144.849215330749
 20
28.3284200325122
 40
3.0
  1
ZSG-M5
  0
INSERT
  8
0
  6
CONTINUOUS
 62
     7
  2
D_FRAME_VIEW_4649
 10
0.0
 20
0.0
 30
0.0
  0
INSERT
  8
0
  6
CONTINUOUS
 62
     7
  2
D_FRAME_VIEW_5176
 10
0.0
 20
0.0
 30
0.0
  0
ENDSEC
  0
EOF
